  0
SECTION
  2
HEADER
  9
$ACADVER
  1
AC1009
  9
$INSBASE
 10
0
 20
0
  9
$EXTMIN
 10
0
 20
0
  9
$EXTMAX
 10
1700
 20
750
  9
$LIMMIN
 10
0
 20
0
  9
$LIMMAX
 10
1700
 20
750
  9
$VIEWCTR
 10
10
 20
10
  9
$VIEWSIZE
 40
10
  9
$SNAPMODE
 70
0
  9
$SNAPUNIT
 10
1
 20
1
  9
$SNAPBASE
 10
0
 20
0
  9
$SNAPANG
 50
0
  9
$SNAPSTYLE
 70
0
  9
$SNAPISOPAIR
 70
0
  9
$GRIDMODE
 70
0
  9
$GRIDUNIT
 10
0
 20
0
  9
$ORTHOMODE
 70
0
  9
$REGENMODE
 70
1
  9
$FILLMODE
 70
1
  9
$QTEXTMODE
 70
0
  9
$DRAGMODE
 70
2
  9
$LTSCALE
 40
1
  9
$OSMODE
 70
0
  9
$ATTMODE
 70
1
  9
$TEXTSIZE
 40
3.5
  9
$TRACEWID
 40
0.5
  9
$TEXTSTYLE
  7
STANDARD
  9
$CLAYER
  8
0
  9
$CELTYPE
  6
BYLAYER
  9
$CECOLOR
 62
256
  9
$DIMSCALE
 40
1
  9
$DIMASZ
 40
0.18
  9
$DIMEXO
 40
0.0625
  9
$DIMDLI
 40
0.38
  9
$DIMRND
 40
0
  9
$DIMDLE
 40
0
  9
$DIMEXE
 40
0.18
  9
$DIMTP
 40
0
  9
$DIMTM
 40
0
  9
$DIMTXT
 40
0.18
  9
$DIMCEN
 40
0.09
  9
$DIMTSZ
 40
0
  9
$DIMTOL
 70
0
  9
$DIMLIM
 70
0
  9
$DIMTIH
 70
1
  9
$DIMTOH
 70
1
  9
$DIMSE1
 70
0
  9
$DIMSE2
 70
0
  9
$DIMTAD
 70
0
  9
$DIMZIN
 70
0
  9
$DIMBLK
  1

  9
$DIMASO
 70
1
  9
$DIMSHO
 70
1
  9
$DIMPOST
  1

  9
$DIMAPOST
  1

  9
$DIMALT
 70
0
  9
$DIMALTD
 70
2
  9
$DIMALTF
 40
25.4
  9
$DIMLFAC
 40
1
  9
$DIMTOFL
 70
0
  9
$DIMTVP
 40
0
  9
$DIMTIX
 70
0
  9
$DIMSOXD
 70
0
  9
$DIMSAH
 70
0
  9
$DIMBLK1
  1

  9
$DIMBLK2
  1

  9
$DIMSTYLE
  2
*UNNAMED
  9
$DIMCLRD
 70
0
  9
$DIMCLRE
 70
0
  9
$DIMCLRT
 70
0
  9
$DIMTFAC
 40
1
  9
$DIMGAP
 40
0.09
  9
$LUNITS
 70
2
  9
$LUPREC
 70
4
  9
$AXISMODE
 70
0
  9
$AXISUNIT
 10
0
 20
0
  9
$SKETCHINC
 40
0.1
  9
$FILLETRAD
 40
2
  9
$AUNITS
 70
0
  9
$AUPREC
 70
0
  9
$MENU
  1
ACAD
  9
$ELEVATION
 40
0
  9
$THICKNESS
 40
0
  9
$VIEWDIR
 10
0
 20
0
 30
1
  9
$LIMCHECK
 70
0
  9
$BLIPMODE
 70
1
  9
$CHAMFERA
 40
0
  9
$CHAMFERB
 40
0
  9
$FASTZOOM
 70
1
  9
$SKPOLY
 70
0
  9
$ANGBASE
 50
0
  9
$ANGDIR
 70
0
  9
$PDMODE
 70
0
  9
$PDSIZE
 40
0
  9
$PLINEWID
 40
0
  9
$COORDS
 70
2
  0
ENDSEC
  0
SECTION
  2
TABLES
  0
TABLE
  2
DIMSTYLE
 70
0
  0
ENDTAB
  0
TABLE
  2
LTYPE
 70
9
  0
LTYPE
  2
CONTINUOUS
 70
64
  3
Solid line
 72
65
 73
0
 40
0
  0
LTYPE
  2
BORDER
 70
64
  3
__ __ . __ __ .
 72
65
 73
6
 40
78.28947368421052
 49
22.36842105263158
 49
-11.18421052631579
 49
22.36842105263158
 49
-11.18421052631579
 49
0
 49
-11.18421052631579
  0
LTYPE
  2
CENTER
 70
64
  3
____ _ ____ _
 72
65
 73
4
 40
89.47368421052632
 49
55.92105263157895
 49
-11.18421052631579
 49
11.18421052631579
 49
-11.18421052631579
  0
LTYPE
  2
DASHDOT
 70
64
  3
__ . __ . __ .
 72
65
 73
4
 40
44.73684210526316
 49
22.36842105263158
 49
-11.18421052631579
 49
0
 49
-11.18421052631579
  0
LTYPE
  2
DASHED
 70
64
  3
__ __ __ __ __
 72
65
 73
2
 40
33.55263157894737
 49
22.36842105263158
 49
-11.18421052631579
  0
LTYPE
  2
DIVIDE
 70
64
  3
__ . . __ . . 
 72
65
 73
6
 40
55.92105263157895
 49
22.36842105263158
 49
-11.18421052631579
 49
0
 49
-11.18421052631579
 49
0
 49
-11.18421052631579
  0
LTYPE
  2
DOT
 70
64
  3
..............
 72
65
 73
4
 40
22.36842105263158
 49
0
 49
-11.18421052631579
 49
0
 49
-11.18421052631579
  0
LTYPE
  2
HIDDEN
 70
64
  3
_ _ _ _ _ _ _
 72
65
 73
2
 40
16.77631578947369
 49
11.18421052631579
 49
-5.592105263157895
  0
LTYPE
  2
PHANTOM
 70
64
  3
_____ _ _ _____ _ _ 
 72
65
 73
6
 40
111.8421052631579
 49
55.92105263157895
 49
-11.18421052631579
 49
11.18421052631579
 49
-11.18421052631579
 49
11.18421052631579
 49
-11.18421052631579
  0
ENDTAB
  0
TABLE
  2
LAYER
 70
7
  0
LAYER
  2
MITTELLINIEN
 70
0
 62
7
  6
CONTINUOUS
  0
LAYER
  2
1
 70
0
 62
7
  6
CONTINUOUS
  0
LAYER
  2
GEOMETRIE
 70
0
 62
7
  6
CONTINUOUS
  0
LAYER
  2
WANNE
 70
0
 62
7
  6
CONTINUOUS
  0
LAYER
  2
TT
 70
0
 62
7
  6
CONTINUOUS
  0
LAYER
  2
0
 70
0
 62
7
  6
CONTINUOUS
  0
ENDTAB
  0
TABLE
  2
STYLE
 70
4
  0
STYLE
  2
STANDARD
 70
0
 40
0
 41
1
 50
0
 71
0
 42
3.5
  3
txt
  4

  0
STYLE
  2
SIMPLEX
 70
0
 40
0
 41
1
 50
0
 71
0
 42
3.5
  3
simplex
  4

  0
STYLE
  2
COMPLEX
 70
0
 40
0
 41
1
 50
0
 71
0
 42
3.5
  3
complex
  4

  0
STYLE
  2
ITALIC
 70
0
 40
0
 41
1
 50
0
 71
0
 42
3.5
  3
italic
  4

  0
ENDTAB
  0
TABLE
  2
VIEW
 70
0
  0
ENDTAB
  0
ENDSEC
  0
SECTION
  2
BLOCKS
  0
BLOCK
  8
0
  2
DLX
 70
0
 10
0
 20
0
 30
0
  0
LINE
  8
1
 62
3
 10
565.3282234693179
 20
471.979895810782
 30
0
 11
565.0328203819372
 21
472.9784478723631
 31
0
  0
LINE
  8
1
 62
3
 10
565.7649031508845
 20
473.7622048583319
 30
0
 11
565.0328203819372
 21
472.9784478723631
 31
0
  0
LINE
  8
1
 62
3
 10
600.7959271195539
 20
443.2377087845272
 30
0
 11
604.1803346104349
 21
457.051175145079
 31
0
  0
LINE
  8
1
 62
3
 10
596.6077729643149
 20
443.2377087845272
 30
0
 11
599.992180455331
 21
457.051175145079
 31
0
  0
LINE
  8
1
 62
3
 10
596.6077729643149
 20
443.2377087845272
 30
0
 11
600.7959271195539
 21
443.2377087845272
 31
0
  0
LINE
  8
1
 62
3
 10
595.5237989051459
 20
438.813466360341
 30
0
 11
599.7119530603338
 21
438.813466360341
 31
0
  0
LINE
  8
1
 62
3
 10
596.3275455694388
 20
425
 30
0
 11
602.6097768023359
 21
425
 31
0
  0
LINE
  8
1
 62
3
 10
599.992180455331
 20
457.051175145079
 30
0
 11
593.7099492224659
 21
457.051175145079
 31
0
  0
LINE
  8
1
 62
3
 10
631.4033366192889
 20
457.051175145079
 30
0
 11
623.55054757827
 21
425
 31
0
  0
LINE
  8
1
 62
3
 10
624.037131327292
 20
452.626932720839
 30
0
 11
618.3522904045678
 21
429.424242424182
 31
0
  0
LINE
  8
1
 62
3
 10
619.8489771720419
 20
452.626932720839
 30
0
 11
624.037131327292
 21
452.626932720839
 31
0
  0
LINE
  8
1
 62
3
 10
631.4033366192889
 20
457.051175145079
 30
0
 11
614.650719998459
 21
457.051175145079
 31
0
  0
LINE
  8
1
 62
3
 10
614.164136249467
 20
429.424242424182
 30
0
 11
619.8489771720419
 21
452.626932720839
 31
0
  0
LINE
  8
1
 62
3
 10
614.650719998459
 20
457.051175145079
 30
0
 11
606.7979309574619
 21
425
 31
0
  0
LINE
  8
1
 62
3
 10
618.3522904045678
 20
429.424242424182
 30
0
 11
614.164136249467
 21
429.424242424182
 31
0
  0
LINE
  8
1
 62
3
 10
606.7979309574619
 20
425
 30
0
 11
623.55054757827
 21
425
 31
0
  0
LINE
  8
1
 62
3
 10
610.4625658433508
 20
457.051175145079
 30
0
 11
604.1803346104349
 21
457.051175145079
 31
0
  0
LINE
  8
1
 62
3
 10
593.7099492224659
 20
457.051175145079
 30
0
 11
585.8571601814729
 21
425
 31
0
  0
LINE
  8
1
 62
3
 10
592.1393914142609
 20
425
 30
0
 11
595.5237989051459
 21
438.813466360341
 31
0
  0
LINE
  8
1
 62
3
 10
596.3275455694388
 20
425
 30
0
 11
599.7119530603338
 21
438.813466360341
 31
0
  0
LINE
  8
1
 62
3
 10
602.6097768023359
 20
425
 30
0
 11
610.4625658433508
 21
457.051175145079
 31
0
  0
LINE
  8
1
 62
3
 10
585.8571601814729
 20
425
 30
0
 11
592.1393914142609
 21
425
 31
0
  0
LINE
  8
1
 62
3
 10
580.5296286865159
 20
445.990569084413
 30
0
 11
586.8118599193219
 21
445.990569084413
 31
0
  0
LINE
  8
1
 62
3
 10
582.1555897753099
 20
452.626932720839
 30
0
 11
580.5296286865159
 21
445.990569084413
 31
0
  0
LINE
  8
1
 62
3
 10
577.9674356201178
 20
452.626932720839
 30
0
 11
582.1555897753099
 21
452.626932720839
 31
0
  0
LINE
  8
1
 62
3
 10
572.2825946974881
 20
429.424242424182
 30
0
 11
577.9674356201178
 21
452.626932720839
 31
0
  0
LINE
  8
1
 62
3
 10
576.4707488526909
 20
429.424242424182
 30
0
 11
572.2825946974881
 21
429.424242424182
 31
0
  0
LINE
  8
1
 62
3
 10
578.0967099414779
 20
436.0606060606082
 30
0
 11
576.4707488526909
 21
429.424242424182
 31
0
  0
LINE
  8
1
 62
3
 10
584.378941174266
 20
436.0606060606082
 30
0
 11
578.0967099414779
 21
436.0606060606082
 31
0
  0
LINE
  8
1
 62
3
 10
581.669006026292
 20
425
 30
0
 11
584.378941174266
 21
436.0606060606082
 31
0
  0
LINE
  8
1
 62
3
 10
564.9163894055382
 20
425
 30
0
 11
581.669006026292
 21
425
 31
0
  0
LINE
  8
1
 62
3
 10
572.7691784465314
 20
457.051175145079
 30
0
 11
564.9163894055382
 21
425
 31
0
  0
LINE
  8
1
 62
3
 10
589.5217950672519
 20
457.051175145079
 30
0
 11
572.7691784465314
 21
457.051175145079
 31
0
  0
LINE
  8
1
 62
3
 10
586.8118599193219
 20
445.990569084413
 30
0
 11
589.5217950672519
 21
457.051175145079
 31
0
  0
LINE
  8
1
 62
3
 10
567.4970502321557
 20
452.626932720839
 30
0
 11
568.581024291314
 21
457.051175145079
 31
0
  0
LINE
  8
1
 62
3
 10
557.0266648441757
 20
452.626932720839
 30
0
 11
567.4970502321557
 21
452.626932720839
 31
0
  0
LINE
  8
1
 62
3
 10
554.5937460991627
 20
442.696969696953
 30
0
 11
557.0266648441757
 21
452.626932720839
 31
0
  0
LINE
  8
1
 62
3
 10
565.0641314872264
 20
442.696969696953
 30
0
 11
554.5937460991627
 21
442.696969696953
 31
0
  0
LINE
  8
1
 62
3
 10
560.7282352503025
 20
425
 30
0
 11
565.0641314872264
 21
442.696969696953
 31
0
  0
LINE
  8
1
 62
3
 10
543.97561862948
 20
425
 30
0
 11
560.7282352503025
 21
425
 31
0
  0
LINE
  8
1
 62
3
 10
545.0595926887872
 20
429.424242424182
 30
0
 11
543.97561862948
 21
425
 31
0
  0
LINE
  8
1
 62
3
 10
555.5299780766982
 20
429.424242424182
 30
0
 11
545.0595926887872
 21
429.424242424182
 31
0
  0
LINE
  8
1
 62
3
 10
557.6979261951165
 20
438.2727272727971
 30
0
 11
555.5299780766982
 21
429.424242424182
 31
0
  0
LINE
  8
1
 62
3
 10
547.2275408071509
 20
438.2727272727971
 30
0
 11
557.6979261951165
 21
438.2727272727971
 31
0
  0
LINE
  8
1
 62
3
 10
551.8284076705422
 20
457.051175145079
 30
0
 11
547.2275408071509
 21
438.2727272727971
 31
0
  0
LINE
  8
1
 62
3
 10
568.581024291314
 20
457.051175145079
 30
0
 11
551.8284076705422
 21
457.051175145079
 31
0
  0
LINE
  8
1
 62
3
 10
547.6402535153793
 20
457.051175145079
 30
0
 11
539.7874644743642
 21
425
 31
0
  0
LINE
  8
1
 62
3
 10
541.3580222825731
 20
457.051175145079
 30
0
 11
547.6402535153793
 21
457.051175145079
 31
0
  0
LINE
  8
1
 62
3
 10
539.7874644743642
 20
425
 30
0
 11
521.9878093147745
 21
425
 31
0
  0
LINE
  8
1
 62
3
 10
534.5892073007672
 20
429.424242424182
 30
0
 11
541.3580222825731
 21
457.051175145079
 31
0
  0
LINE
  8
1
 62
3
 10
529.3540146067826
 20
429.424242424182
 30
0
 11
534.5892073007672
 21
429.424242424182
 31
0
  0
LINE
  8
1
 62
3
 10
536.1228295885776
 20
457.051175145079
 30
0
 11
529.3540146067826
 21
429.424242424182
 31
0
  0
LINE
  8
1
 62
3
 10
529.8405983557677
 20
457.051175145079
 30
0
 11
536.1228295885776
 21
457.051175145079
 31
0
  0
LINE
  8
1
 62
3
 10
521.9878093147745
 20
425
 30
0
 11
529.8405983557677
 21
457.051175145079
 31
0
  0
LINE
  8
1
 62
3
 10
517.799655159648
 20
425
 30
0
 11
500
 21
425
 31
0
  0
LINE
  8
1
 62
3
 10
528.3623793485675
 20
468.1117812056621
 30
0
 11
517.799655159648
 21
425
 31
0
  0
LINE
  8
1
 62
3
 10
504.3890522712754
 20
468.1117812056621
 30
0
 11
528.3623793485675
 21
468.1117812056621
 31
0
  0
LINE
  8
1
 62
3
 10
503.0340846972904
 20
462.581478175405
 30
0
 11
504.3890522712754
 21
468.1117812056621
 31
0
  0
LINE
  8
1
 62
3
 10
520.7251805418237
 20
462.581478175405
 30
0
 11
503.0340846972904
 21
462.581478175405
 31
0
  0
LINE
  8
1
 62
3
 10
512.6013979859416
 20
429.424242424182
 30
0
 11
520.7251805418237
 21
462.581478175405
 31
0
  0
LINE
  8
1
 62
3
 10
507.3662052920627
 20
429.424242424182
 30
0
 11
512.6013979859416
 21
429.424242424182
 31
0
  0
LINE
  8
1
 62
3
 10
514.1350202737523
 20
457.051175145079
 30
0
 11
507.3662052920627
 21
429.424242424182
 31
0
  0
LINE
  8
1
 62
3
 10
507.8527890410551
 20
457.051175145079
 30
0
 11
514.1350202737523
 21
457.051175145079
 31
0
  0
LINE
  8
1
 62
3
 10
500
 20
425
 30
0
 11
507.8527890410551
 21
457.051175145079
 31
0
  0
LINE
  8
1
 62
3
 10
635.1196812335149
 20
431.1939393939099
 30
0
 11
644.1648417396059
 21
468.1117812056621
 31
0
  0
LINE
  8
1
 62
3
 10
644.1648417396059
 20
468.1117812056621
 30
0
 11
638.301425922338
 21
468.1117812056621
 31
0
  0
LINE
  8
1
 62
3
 10
638.301425922338
 20
468.1117812056621
 30
0
 11
627.738701733397
 21
425
 31
0
  0
LINE
  8
1
 62
3
 10
645.643060746967
 20
457.051175145079
 30
0
 11
639.958219824279
 21
433.848484848477
 31
0
  0
LINE
  8
1
 62
3
 10
639.958219824279
 20
433.848484848477
 30
0
 11
655.6637979062
 21
433.848484848477
 31
0
  0
LINE
  8
1
 62
3
 10
655.6637979062
 20
433.848484848477
 30
0
 11
661.3486388288079
 21
457.051175145079
 31
0
  0
LINE
  8
1
 62
3
 10
661.3486388288079
 20
457.051175145079
 30
0
 11
656.113446134885
 21
457.051175145079
 31
0
  0
LINE
  8
1
 62
3
 10
656.113446134885
 20
457.051175145079
 30
0
 11
651.5125792714898
 21
438.2727272727971
 31
0
  0
LINE
  8
1
 62
3
 10
651.5125792714898
 20
438.2727272727971
 30
0
 11
646.277386577538
 21
438.2727272727971
 31
0
  0
LINE
  8
1
 62
3
 10
646.277386577538
 20
438.2727272727971
 30
0
 11
650.878253440889
 21
457.051175145079
 31
0
  0
LINE
  8
1
 62
3
 10
650.878253440889
 20
457.051175145079
 30
0
 11
645.643060746967
 21
457.051175145079
 31
0
  0
LINE
  8
1
 62
3
 10
667.9069775849489
 20
457.051175145079
 30
0
 11
663.8615313219339
 21
457.051175145079
 31
0
  0
LINE
  8
1
 62
3
 10
663.8615313219339
 20
457.051175145079
 30
0
 11
667.9838268441308
 21
446.4153012186609
 31
0
  0
LINE
  8
1
 62
3
 10
667.9838268441308
 20
446.4153012186609
 30
0
 11
658.1766903993409
 21
433.848484848477
 31
0
  0
LINE
  8
1
 62
3
 10
658.1766903993409
 20
433.848484848477
 30
0
 11
662.222136662338
 21
433.848484848477
 31
0
  0
LINE
  8
1
 62
3
 10
662.222136662338
 20
433.848484848477
 30
0
 11
669.3262692424398
 21
442.951685370502
 31
0
  0
LINE
  8
1
 62
3
 10
669.3262692424398
 20
442.951685370502
 30
0
 11
672.8545249371239
 21
433.848484848477
 31
0
  0
LINE
  8
1
 62
3
 10
672.8545249371239
 20
433.848484848477
 30
0
 11
676.8999712001719
 21
433.848484848477
 31
0
  0
LINE
  8
1
 62
3
 10
676.8999712001719
 20
433.848484848477
 30
0
 11
672.0292731071679
 21
446.415301218603
 31
0
  0
LINE
  8
1
 62
3
 10
672.0292731071679
 20
446.415301218603
 30
0
 11
680.32950315225
 21
457.051175145079
 31
0
  0
LINE
  8
1
 62
3
 10
680.32950315225
 20
457.051175145079
 30
0
 11
676.284056889192
 21
457.051175145079
 31
0
  0
LINE
  8
1
 62
3
 10
676.284056889192
 20
457.051175145079
 30
0
 11
670.686830708906
 21
449.878917066824
 31
0
  0
LINE
  8
1
 62
3
 10
670.686830708906
 20
449.878917066824
 30
0
 11
667.9069775849489
 21
457.051175145079
 31
0
  0
LINE
  8
1
 62
3
 10
677.928830785688
 20
431.1939393939099
 30
0
 11
680.3295031522068
 21
425
 31
0
  0
LINE
  8
1
 62
3
 10
677.928830785688
 20
431.1939393939099
 30
0
 11
635.1196812335149
 21
431.1939393939099
 31
0
  0
LINE
  8
1
 62
3
 10
680.3295031522068
 20
425
 30
0
 11
627.738701733397
 21
425
 31
0
  0
LINE
  8
1
 62
3
 10
536.7386876589662
 20
468.1117812056621
 30
0
 11
539.9906098364481
 21
481.3845084783201
 31
0
  0
LINE
  8
1
 62
3
 10
539.9906098364481
 20
481.3845084783201
 30
0
 11
552.5550723021661
 21
481.3845084783201
 31
0
  0
LINE
  8
1
 62
3
 10
552.5550723021661
 20
481.3845084783201
 30
0
 11
549.3031501244914
 21
468.1117812056621
 31
0
  0
LINE
  8
1
 62
3
 10
549.3031501244914
 20
468.1117812056621
 30
0
 11
536.7386876589662
 21
468.1117812056621
 31
0
  0
LINE
  8
1
 62
3
 10
547.7510600764872
 20
470.3239024177931
 30
0
 11
539.3747517661324
 21
470.3239024177931
 31
0
  0
LINE
  8
1
 62
3
 10
549.9190081949637
 20
479.172387266269
 30
0
 11
547.7510600764872
 21
470.3239024177931
 31
0
  0
LINE
  8
1
 62
3
 10
541.5426998844741
 20
479.172387266269
 30
0
 11
549.9190081949637
 21
479.172387266269
 31
0
  0
LINE
  8
1
 62
3
 10
539.3747517661324
 20
470.3239024177931
 30
0
 11
541.5426998844741
 21
479.172387266269
 31
0
  0
LINE
  8
1
 62
3
 10
555.0679647951583
 20
481.3845084783201
 30
0
 11
551.8160426176219
 21
468.1117812056621
 31
0
  0
LINE
  8
1
 62
3
 10
555.0679647951583
 20
481.3845084783201
 30
0
 11
567.632427260738
 21
481.3845084783201
 31
0
  0
LINE
  8
1
 62
3
 10
567.632427260738
 20
481.3845084783201
 30
0
 11
565.7649031508845
 21
473.7622048583319
 31
0
  0
LINE
  8
1
 62
3
 10
564.3805050832052
 20
468.1117812056621
 30
0
 11
562.2864280055655
 21
468.1117812056621
 31
0
  0
LINE
  8
1
 62
3
 10
562.2864280055655
 20
468.1117812056621
 30
0
 11
563.3704020649384
 21
472.5360236298441
 31
0
  0
LINE
  8
1
 62
3
 10
563.3704020649384
 20
472.5360236298441
 30
0
 11
554.9940937544088
 21
472.5360236298441
 31
0
  0
LINE
  8
1
 62
3
 10
555.5360807840007
 20
474.7481448420331
 30
0
 11
563.9123890943812
 21
474.7481448420331
 31
0
  0
LINE
  8
1
 62
3
 10
563.9123890943812
 20
474.7481448420331
 30
0
 11
564.996363153703
 21
479.172387266269
 31
0
  0
LINE
  8
1
 62
3
 10
564.996363153703
 20
479.172387266269
 30
0
 11
556.6200548431843
 21
479.172387266269
 31
0
  0
LINE
  8
1
 62
3
 10
556.6200548431843
 20
479.172387266269
 30
0
 11
555.5360807840007
 21
474.7481448420331
 31
0
  0
LINE
  8
1
 62
3
 10
565.3282234693179
 20
471.979895810782
 30
0
 11
564.3805050832052
 21
468.1117812056621
 31
0
  0
LINE
  8
1
 62
3
 10
551.8160426176219
 20
468.1117812056621
 30
0
 11
553.9101196952979
 21
468.1117812056621
 31
0
  0
LINE
  8
1
 62
3
 10
553.9101196952979
 20
468.1117812056621
 30
0
 11
554.9940937544088
 21
472.5360236298441
 31
0
  0
LINE
  8
1
 62
3
 10
572.2393968314646
 20
481.3845084783201
 30
0
 11
570.1453197539013
 21
481.3845084783201
 31
0
  0
LINE
  8
1
 62
3
 10
570.1453197539013
 20
481.3845084783201
 30
0
 11
566.8933975763357
 21
468.1117812056621
 31
0
  0
LINE
  8
1
 62
3
 10
566.8933975763357
 20
468.1117812056621
 30
0
 11
568.9874746540554
 21
468.1117812056621
 31
0
  0
LINE
  8
1
 62
3
 10
568.9874746540554
 20
468.1117812056621
 30
0
 11
572.2393968314646
 21
481.3845084783201
 31
0
  0
LINE
  8
1
 62
3
 10
571.5003671470404
 20
468.1117812056621
 30
0
 11
574.7522893245841
 21
481.3845084783201
 31
0
  0
LINE
  8
1
 62
3
 10
574.7522893245841
 20
481.3845084783201
 30
0
 11
587.316751790175
 21
481.3845084783201
 31
0
  0
LINE
  8
1
 62
3
 10
587.316751790175
 20
481.3845084783201
 30
0
 11
586.1785790280479
 21
476.739053932891
 31
0
  0
LINE
  8
1
 62
3
 10
584.0648296126528
 20
468.1117812056621
 30
0
 11
571.5003671470404
 21
468.1117812056621
 31
0
  0
LINE
  8
1
 62
3
 10
582.5127395646049
 20
470.3239024177931
 30
0
 11
574.1364312542755
 21
470.3239024177931
 31
0
  0
LINE
  8
1
 62
3
 10
584.6806876828998
 20
479.172387266269
 30
0
 11
584.0845019505218
 21
476.739053932891
 31
0
  0
LINE
  8
1
 62
3
 10
576.3043793726031
 20
479.172387266269
 30
0
 11
584.6806876828998
 21
479.172387266269
 31
0
  0
LINE
  8
1
 62
3
 10
574.1364312542755
 20
470.3239024177931
 30
0
 11
576.3043793726031
 21
479.172387266269
 31
0
  0
LINE
  8
1
 62
3
 10
585.6907907014249
 20
474.7481448420331
 30
0
 11
579.4085594686189
 21
474.7481448420331
 31
0
  0
LINE
  8
1
 62
3
 10
585.6907907014249
 20
474.7481448420331
 30
0
 11
584.0648296126528
 21
468.1117812056621
 31
0
  0
LINE
  8
1
 62
3
 10
579.4085594686189
 20
474.7481448420331
 30
0
 11
578.8665724389718
 21
472.5360236298441
 31
0
  0
LINE
  8
1
 62
3
 10
578.8665724389718
 20
472.5360236298441
 30
0
 11
583.0547265943719
 21
472.5360236298441
 31
0
  0
LINE
  8
1
 62
3
 10
583.0547265943719
 20
472.5360236298441
 30
0
 11
582.5127395646049
 21
470.3239024177931
 31
0
  0
LINE
  8
1
 62
3
 10
584.0845019505218
 20
476.739053932891
 30
0
 11
586.1785790280479
 21
476.739053932891
 31
0
  0
LINE
  8
1
 62
3
 10
586.5777221057689
 20
468.1117812056621
 30
0
 11
588.671799183329
 21
468.1117812056621
 31
0
  0
LINE
  8
1
 62
3
 10
588.671799183329
 20
468.1117812056621
 30
0
 11
591.9237213608981
 21
481.3845084783201
 31
0
  0
LINE
  8
1
 62
3
 10
589.8296442833339
 20
481.3845084783201
 30
0
 11
586.5777221057689
 21
468.1117812056621
 31
0
  0
LINE
  8
1
 62
3
 10
591.9237213608981
 20
481.3845084783201
 30
0
 11
589.8296442833339
 21
481.3845084783201
 31
0
  0
LINE
  8
1
 62
3
 10
591.1846916764989
 20
468.1117812056621
 30
0
 11
594.4366138540139
 21
481.3845084783201
 31
0
  0
LINE
  8
1
 62
3
 10
594.4366138540139
 20
481.3845084783201
 30
0
 11
597.5777294703548
 21
481.3845084783201
 31
0
  0
LINE
  8
1
 62
3
 10
597.5777294703548
 20
481.3845084783201
 30
0
 11
602.0615673366299
 21
469.770872114746
 31
0
  0
LINE
  8
1
 62
3
 10
602.0615673366299
 20
469.770872114746
 30
0
 11
604.9069992419829
 21
481.3845084783201
 31
0
  0
LINE
  8
1
 62
3
 10
604.9069992419829
 20
481.3845084783201
 30
0
 11
607.0010763195969
 21
481.3845084783201
 31
0
  0
LINE
  8
1
 62
3
 10
607.0010763195969
 20
481.3845084783201
 30
0
 11
603.7491541419769
 21
468.1117812056621
 31
0
  0
LINE
  8
1
 62
3
 10
603.7491541419769
 20
468.1117812056621
 30
0
 11
600.5064756532079
 21
468.1117812056621
 31
0
  0
LINE
  8
1
 62
3
 10
600.5064756532079
 20
468.1117812056621
 30
0
 11
596.7253193174979
 21
477.9053946295351
 31
0
  0
LINE
  8
1
 62
3
 10
596.7253193174979
 20
477.9053946295351
 30
0
 11
596.0847710509879
 21
479.5644855385979
 31
0
  0
LINE
  8
1
 62
3
 10
596.0847710509879
 20
479.5644855385979
 30
0
 11
593.2787687540589
 21
468.1117812056621
 31
0
  0
LINE
  8
1
 62
3
 10
593.2787687540589
 20
468.1117812056621
 30
0
 11
591.1846916764989
 21
468.1117812056621
 31
0
  0
LINE
  8
1
 62
3
 10
606.2620466350929
 20
468.1117812056621
 30
0
 11
613.77347691399
 21
481.3845084783201
 31
0
  0
LINE
  8
1
 62
3
 10
613.77347691399
 20
481.3845084783201
 30
0
 11
617.818923176965
 21
481.3845084783201
 31
0
  0
LINE
  8
1
 62
3
 10
617.818923176965
 20
481.3845084783201
 30
0
 11
618.826509100727
 21
468.1117812056621
 31
0
  0
LINE
  8
1
 62
3
 10
618.826509100727
 20
468.1117812056621
 30
0
 11
616.7968269376579
 21
468.1117812056621
 31
0
  0
LINE
  8
1
 62
3
 10
616.7968269376579
 20
468.1117812056621
 30
0
 11
616.6288959503909
 21
470.3239024177931
 31
0
  0
LINE
  8
1
 62
3
 10
616.6288959503909
 20
470.3239024177931
 30
0
 11
609.892748670027
 21
470.3239024177931
 31
0
  0
LINE
  8
1
 62
3
 10
609.892748670027
 20
470.3239024177931
 30
0
 11
608.6408436236638
 21
468.1117812056621
 31
0
  0
LINE
  8
1
 62
3
 10
608.6408436236638
 20
468.1117812056621
 30
0
 11
606.2620466350929
 21
468.1117812056621
 31
0
  0
LINE
  8
1
 62
3
 10
611.144653716558
 20
472.5360236298441
 30
0
 11
616.4609649630688
 21
472.5360236298441
 31
0
  0
LINE
  8
1
 62
3
 10
616.4609649630688
 20
472.5360236298441
 30
0
 11
615.9571720012139
 21
479.172387266269
 31
0
  0
LINE
  8
1
 62
3
 10
615.9571720012139
 20
479.172387266269
 30
0
 11
614.9003688559239
 21
479.172387266269
 31
0
  0
LINE
  8
1
 62
3
 10
611.144653716558
 20
472.5360236298441
 30
0
 11
614.9003688559239
 21
479.172387266269
 31
0
  0
LINE
  8
1
 62
3
 10
624.591323771416
 20
481.3845084783201
 30
0
 11
621.339401593847
 21
468.1117812056621
 31
0
  0
LINE
  8
1
 62
3
 10
621.339401593847
 20
468.1117812056621
 30
0
 11
633.9038640594258
 21
468.1117812056621
 31
0
  0
LINE
  8
1
 62
3
 10
633.9038640594258
 20
468.1117812056621
 30
0
 11
634.445851089087
 21
470.3239024177931
 31
0
  0
LINE
  8
1
 62
3
 10
634.445851089087
 20
470.3239024177931
 30
0
 11
623.9754657010669
 21
470.3239024177931
 31
0
  0
LINE
  8
1
 62
3
 10
623.9754657010669
 20
470.3239024177931
 30
0
 11
626.68540084903
 21
481.3845084783201
 31
0
  0
LINE
  8
1
 62
3
 10
626.68540084903
 20
481.3845084783201
 30
0
 11
624.591323771416
 21
481.3845084783201
 31
0
  0
LINE
  8
1
 62
3
 10
671.206636135699
 20
475.2001112138419
 30
0
 11
671.206636135699
 21
472.4510557882821
 31
0
  0
LINE
  8
1
 62
3
 10
670.3341884365839
 20
472.4510557882821
 30
0
 11
670.3341884365839
 21
479.3095239634562
 31
0
  0
LINE
  8
1
 62
3
 10
670.3341884365839
 20
479.3095239634562
 30
0
 11
672.7761082958239
 21
479.3095239634562
 31
0
  0
LINE
  8
1
 62
3
 10
672.7761082958239
 20
479.3095239634562
 30
0
 11
673.0724648781759
 21
479.3095239634562
 31
0
  0
LINE
  8
1
 62
3
 10
674.9060993927419
 20
474.3306895546259
 30
0
 11
674.9060993927419
 21
472.4510557882821
 31
0
  0
LINE
  8
1
 62
3
 10
674.9060993927419
 20
472.4510557882821
 30
0
 11
673.9449125772369
 21
472.4510557882821
 31
0
  0
LINE
  8
1
 62
3
 10
673.9449125772369
 20
472.4510557882821
 30
0
 11
673.9449125772369
 21
474.0729110559
 31
0
  0
LINE
  8
1
 62
3
 10
672.931697837317
 20
475.2001112138419
 30
0
 11
671.206636135699
 21
475.2001112138419
 31
0
  0
LINE
  8
1
 62
3
 10
671.206636135699
 20
472.4510557882821
 30
0
 11
670.3341884365839
 21
472.4510557882821
 31
0
  0
LINE
  8
1
 62
3
 10
671.206636135699
 20
476.050334541276
 30
0
 11
673.194119363641
 21
476.050334541276
 31
0
  0
LINE
  8
1
 62
3
 10
673.062609127785
 20
478.505992531278
 30
0
 11
671.206636135699
 21
478.505992531278
 31
0
  0
LINE
  8
1
 62
3
 10
671.206636135699
 20
478.505992531278
 30
0
 11
671.206636135699
 21
476.050334541276
 31
0
  0
ARC
  8
1
 62
3
 10
672.9426940693159
 20
477.3039199213811
 30
0
 40
2.009798008861834
 50
304.0700115354259
 51
86.2978887182587
  0
ARC
  8
1
 62
3
 10
672.8643762433019
 20
477.264025930551
 30
0
 40
1.257687287767188
 50
285.1995809529435
 51
80.93139523878851
  0
ARC
  8
1
 62
3
 10
672.789193605106
 20
474.0530393898221
 30
0
 40
1.155889798231653
 50
0.9850581704823435
 51
82.91825463293205
  0
ARC
  8
1
 62
3
 10
673.514586791596
 20
474.3622336822259
 30
0
 40
1.39187009132817
 50
358.7013873342734
 51
66.54486649404458
  0
CIRCLE
  8
1
 62
3
 10
672.7358752379369
 20
475.878787878755
 30
0
 40
5.972862778753957
  0
CIRCLE
  8
1
 62
3
 10
672.7358752379369
 20
475.878787878755
 30
0
 40
5.530127989695984
  0
ENDBLK
  8
0
  0
BLOCK
  8
0
  2
WANNE_ANCONA_110
 70
0
 10
551.3288259999999
 20
-205.757901
 30
0
  0
LINE
  8
MITTELLINIEN
 62
3
  6
DASHDOT
 10
913.989954999998
 20
260
 30
0
 11
784.3219809999871
 21
260
 31
0
  0
LINE
  8
MITTELLINIEN
 62
3
  6
DASHDOT
 10
850
 20
323.9899549999991
 30
0
 11
850
 21
194.3219809999991
 31
0
  0
LINE
  8
GEOMETRIE
 62
7
 10
0
 20
0
 30
0
 11
0
 21
750
 31
0
  0
LINE
  8
GEOMETRIE
 62
7
 10
1700
 20
0
 30
0
 11
1700
 21
750
 31
0
  0
LINE
  8
GEOMETRIE
 62
7
 10
1700
 20
750
 30
0
 11
0
 21
750
 31
0
  0
LINE
  8
GEOMETRIE
 62
7
 10
1700
 20
0
 30
0
 11
0
 21
0
 31
0
  0
ARC
  8
WANNE
 62
7
 10
1345
 20
375
 30
0
 40
294.999999999997
 50
0
 51
85.18115062646464
  0
ARC
  8
WANNE
 62
7
 10
850.004789999995
 20
-5740.026720000002
 30
0
 40
6430.026719999998
 50
90.00004268205957
 51
94.61722889240376
  0
ARC
  8
WANNE
 62
7
 10
355
 20
375
 30
0
 40
295.0000000002849
 50
180.0000796314232
 51
265.1391091244238
  0
ARC
  8
WANNE
 62
7
 10
850.0131899999981
 20
6490.234269999997
 30
0
 40
6430.234279999997
 50
269.9998824721933
 51
274.630746608792
  0
ARC
  8
TT
 62
7
 10
500
 20
375
 30
0
 40
270.0484699999996
 50
93.25725200000051
 51
266.7427479999995
  0
ARC
  8
TT
 62
7
 10
1200
 20
375
 30
0
 40
270.0484699999993
 50
273.2572520000005
 51
86.74274799999951
  0
ARC
  8
1
 62
7
 10
850
 20
-5774.856707945325
 30
0
 40
6429.856707945325
 50
86.74270424740189
 51
93.25729575259811
  0
ARC
  8
1
 62
7
 10
850
 20
6524.856707945342
 30
0
 40
6429.856707945342
 50
266.742704247402
 51
273.2572957525982
  0
ARC
  8
WANNE
 62
7
 10
850.004789999995
 20
-5740.026720000002
 30
0
 40
6430.02672
 50
85.36338612588421
 51
90.00004268205957
  0
ARC
  8
WANNE
 62
7
 10
850.0131899999981
 20
6490.234269999997
 30
0
 40
6430.234280000001
 50
265.3614472086055
 51
269.9998824721933
  0
ARC
  8
WANNE
 62
7
 10
1345
 20
375
 30
0
 40
294.9999999999973
 50
274.6958426299617
 51
0
  0
ARC
  8
WANNE
 62
7
 10
355
 20
375
 30
0
 40
295.000000000003
 50
94.39446514111832
 51
180.0000796314232
  0
CIRCLE
  8
WANNE
 62
7
 10
849.9999999999941
 20
260
 30
0
 40
26
  0
CIRCLE
  8
WANNE
 62
7
 10
849.9999999999941
 20
260
 30
0
 40
45
  0
POLYLINE
  8
1
 62
7
 66
1
 70
1
  0
VERTEX
  8
1
 10
874.8977139569146
 20
80.88552425796458
 30
0
 42
0.02554356053524508
  0
VERTEX
  8
1
 10
874.6201938253053
 20
81.73648177666921
 30
0
 42
0.06462742901310822
  0
VERTEX
  8
1
 10
874.1258010853285
 20
82.62232388072755
 30
0
 42
0.005951863311208708
  0
VERTEX
  8
1
 10
873.4250231246912
 20
83.49424892301356
 30
0
 42
0.05649085314911811
  0
VERTEX
  8
1
 10
871.650635094611
 20
84.99999999999993
 30
0
 42
0.04609643100353943
  0
VERTEX
  8
1
 10
870.4302666332935
 20
85.7644687484442
 30
0
 42
0.002392690973217467
  0
VERTEX
  8
1
 10
869.0517555164595
 20
86.47522442504649
 30
0
 42
0.03024853640251336
  0
VERTEX
  8
1
 10
866.0696902421635
 20
87.66044443118987
 30
0
 42
0.02631173496291768
  0
VERTEX
  8
1
 10
864.2971435711377
 20
88.20376156109938
 30
0
 42
0.0008773225683052953
  0
VERTEX
  8
1
 10
862.4243501147493
 20
88.67772120041866
 30
0
 42
0.02063410599797692
  0
VERTEX
  8
1
 10
858.5505035831418
 20
89.39692620785895
 30
0
 42
0.01917547846889912
  0
VERTEX
  8
1
 10
856.45008788042
 20
89.66164535409658
 30
0
 42
0.0002287766182033858
  0
VERTEX
  8
1
 10
854.3136588237085
 20
89.85002007777578
 30
0
 42
0.01764819435998059
  0
VERTEX
  8
1
 10
850
 20
89.99999999999996
 30
0
 42
0.01742374092164043
  0
VERTEX
  8
1
 10
845.6863411762907
 20
89.85002007777578
 30
0
 42
0.01753801196291063
  0
VERTEX
  8
1
 10
843.5499121195794
 20
89.66164535409658
 30
0
 42
0.0005014995539205333
  0
VERTEX
  8
1
 10
841.449496416858
 20
89.39692620785901
 30
0
 42
0.01983567315461969
  0
VERTEX
  8
1
 10
837.5756498852499
 20
88.67772120041897
 30
0
 42
0.0209492708253021
  0
VERTEX
  8
1
 10
835.7028564288619
 20
88.2037615610995
 30
0
 42
0.001454134923694772
  0
VERTEX
  8
1
 10
833.9303097578365
 20
87.66044443118976
 30
0
 42
0.02823712120907537
  0
VERTEX
  8
1
 10
830.9482444835411
 20
86.47522442504639
 30
0
 42
0.03131573834283041
  0
VERTEX
  8
1
 10
829.5697333667069
 20
85.76446874844416
 30
0
 42
0.003930929132263262
  0
VERTEX
  8
1
 10
828.3493649053891
 20
84.99999999999993
 30
0
 42
0.05178355066223546
  0
VERTEX
  8
1
 10
826.5749768753086
 20
83.49424892301357
 30
0
 42
0.06052885348732276
  0
VERTEX
  8
1
 10
825.8741989146715
 20
82.62232388072755
 30
0
 42
0.006338419384743676
  0
VERTEX
  8
1
 10
825.3798061746948
 20
81.73648177666922
 30
0
 42
0.09942504263696921
  0
VERTEX
  8
1
 10
825
 20
80.00000000000009
 30
0
 42
0.09983006639772098
  0
VERTEX
  8
1
 10
825.3798061746949
 20
78.26351822333081
 30
0
 42
0.09672807810855726
  0
VERTEX
  8
1
 10
825.8741989146715
 20
77.37767611927239
 30
0
 42
0.005951863310965699
  0
VERTEX
  8
1
 10
826.5749768753086
 20
76.50575107698633
 30
0
 42
0.05649085314909545
  0
VERTEX
  8
1
 10
828.3493649053892
 20
74.99999999999992
 30
0
 42
0.04609643100317763
  0
VERTEX
  8
1
 10
829.5697333667069
 20
74.23553125155578
 30
0
 42
0.002392690973160211
  0
VERTEX
  8
1
 10
830.9482444835412
 20
73.52477557495365
 30
0
 42
0.03024853640244269
  0
VERTEX
  8
1
 10
833.9303097578364
 20
72.3395555688102
 30
0
 42
0.02631173496248786
  0
VERTEX
  8
1
 10
835.7028564288618
 20
71.79623843890045
 30
0
 42
0.0008773225683102498
  0
VERTEX
  8
1
 10
837.5756498852499
 20
71.32227879958103
 30
0
 42
0.02063410599800564
  0
VERTEX
  8
1
 10
841.4494964168581
 20
70.60307379214102
 30
0
 42
0.01917547846926908
  0
VERTEX
  8
1
 10
843.5499121195799
 20
70.33835464590354
 30
0
 42
0.0002287766181916382
  0
VERTEX
  8
1
 10
845.6863411762915
 20
70.14997992222438
 30
0
 42
0.01764819435998822
  0
VERTEX
  8
1
 10
850.0000000000001
 20
70.00000000000011
 30
0
 42
0.01742374092163164
  0
VERTEX
  8
1
 10
854.3136588237092
 20
70.14997992222436
 30
0
 42
0.01753801196235793
  0
VERTEX
  8
1
 10
856.4500878804205
 20
70.33835464590348
 30
0
 42
0.000501499553901192
  0
VERTEX
  8
1
 10
858.550503583142
 20
70.60307379214096
 30
0
 42
0.0198356731546015
  0
VERTEX
  8
1
 10
862.42435011475
 20
71.32227879958124
 30
0
 42
0.0209492708261825
  0
VERTEX
  8
1
 10
864.2971435711382
 20
71.79623843890056
 30
0
 42
0.001454134923696779
  0
VERTEX
  8
1
 10
866.0696902421637
 20
72.33955556881014
 30
0
 42
0.02823712120909613
  0
VERTEX
  8
1
 10
869.0517555164595
 20
73.52477557495367
 30
0
 42
0.03131573834276384
  0
VERTEX
  8
1
 10
870.4302666332935
 20
74.23553125155593
 30
0
 42
0.00393092913234384
  0
VERTEX
  8
1
 10
871.6506350946108
 20
75.00000000000003
 30
0
 42
0.05178355066223253
  0
VERTEX
  8
1
 10
873.4250231246915
 20
76.5057510769862
 30
0
 42
0.06052885348658305
  0
VERTEX
  8
1
 10
874.125801085329
 20
77.37767611927245
 30
0
 42
0.006338419384828658
  0
VERTEX
  8
1
 10
874.6201938253058
 20
78.26351822333089
 30
0
 42
0.09942504263692006
  0
VERTEX
  8
1
 10
875
 20
80.00000000000003
 30
0
  0
VERTEX
  8
1
 10
874.8977139569147
 20
80.88552425796456
 30
0
  0
SEQEND
  8
1
  0
ENDBLK
  8
0
  0
ENDSEC
  0
SECTION
  2
ENTITIES
  0
TEXT
  8
1
 62
2
 10
350
 20
290
 30
0
 40
35
  1
ANCONA 110
 41
0.5993999999999999
  0
TEXT
  8
1
 62
3
 10
900.0000000000001
 20
310.0000000000002
 30
0
 40
35
  1
Ö 52
 41
0.5993999999999999
  0
INSERT
  8
0
  2
DLX
 10
0
 20
0
 30
0
  0
INSERT
  8
0
  2
WANNE_ANCONA_110
 10
551.3288259999999
 20
-205.757901
 30
0
  0
ENDSEC
  0
EOF
