  0
SECTION
  2
HEADER
  9
$ACADVER
  1
AC1009
  9
$INSBASE
 10
0
 20
0
  9
$EXTMIN
 10
0
 20
0
  9
$EXTMAX
 10
1800
 20
800
  9
$LIMMIN
 10
0
 20
0
  9
$LIMMAX
 10
1800
 20
800
  9
$VIEWCTR
 10
10
 20
10
  9
$VIEWSIZE
 40
10
  9
$SNAPMODE
 70
0
  9
$SNAPUNIT
 10
1
 20
1
  9
$SNAPBASE
 10
0
 20
0
  9
$SNAPANG
 50
0
  9
$SNAPSTYLE
 70
0
  9
$SNAPISOPAIR
 70
0
  9
$GRIDMODE
 70
0
  9
$GRIDUNIT
 10
0
 20
0
  9
$ORTHOMODE
 70
0
  9
$REGENMODE
 70
1
  9
$FILLMODE
 70
1
  9
$QTEXTMODE
 70
0
  9
$DRAGMODE
 70
2
  9
$LTSCALE
 40
1
  9
$OSMODE
 70
0
  9
$ATTMODE
 70
1
  9
$TEXTSIZE
 40
3.5
  9
$TRACEWID
 40
0.5
  9
$TEXTSTYLE
  7
STANDARD
  9
$CLAYER
  8
0
  9
$CELTYPE
  6
BYLAYER
  9
$CECOLOR
 62
256
  9
$DIMSCALE
 40
1
  9
$DIMASZ
 40
0.18
  9
$DIMEXO
 40
0.0625
  9
$DIMDLI
 40
0.38
  9
$DIMRND
 40
0
  9
$DIMDLE
 40
0
  9
$DIMEXE
 40
0.18
  9
$DIMTP
 40
0
  9
$DIMTM
 40
0
  9
$DIMTXT
 40
0.18
  9
$DIMCEN
 40
0.09
  9
$DIMTSZ
 40
0
  9
$DIMTOL
 70
0
  9
$DIMLIM
 70
0
  9
$DIMTIH
 70
1
  9
$DIMTOH
 70
1
  9
$DIMSE1
 70
0
  9
$DIMSE2
 70
0
  9
$DIMTAD
 70
0
  9
$DIMZIN
 70
0
  9
$DIMBLK
  1

  9
$DIMASO
 70
1
  9
$DIMSHO
 70
1
  9
$DIMPOST
  1

  9
$DIMAPOST
  1

  9
$DIMALT
 70
0
  9
$DIMALTD
 70
2
  9
$DIMALTF
 40
25.4
  9
$DIMLFAC
 40
1
  9
$DIMTOFL
 70
0
  9
$DIMTVP
 40
0
  9
$DIMTIX
 70
0
  9
$DIMSOXD
 70
0
  9
$DIMSAH
 70
0
  9
$DIMBLK1
  1

  9
$DIMBLK2
  1

  9
$DIMSTYLE
  2
*UNNAMED
  9
$DIMCLRD
 70
0
  9
$DIMCLRE
 70
0
  9
$DIMCLRT
 70
0
  9
$DIMTFAC
 40
1
  9
$DIMGAP
 40
0.09
  9
$LUNITS
 70
2
  9
$LUPREC
 70
4
  9
$AXISMODE
 70
0
  9
$AXISUNIT
 10
0
 20
0
  9
$SKETCHINC
 40
0.1
  9
$FILLETRAD
 40
2
  9
$AUNITS
 70
0
  9
$AUPREC
 70
0
  9
$MENU
  1
ACAD
  9
$ELEVATION
 40
0
  9
$THICKNESS
 40
0
  9
$VIEWDIR
 10
0
 20
0
 30
1
  9
$LIMCHECK
 70
0
  9
$BLIPMODE
 70
1
  9
$CHAMFERA
 40
0
  9
$CHAMFERB
 40
0
  9
$FASTZOOM
 70
1
  9
$SKPOLY
 70
0
  9
$ANGBASE
 50
0
  9
$ANGDIR
 70
0
  9
$PDMODE
 70
0
  9
$PDSIZE
 40
0
  9
$PLINEWID
 40
0
  9
$COORDS
 70
2
  0
ENDSEC
  0
SECTION
  2
TABLES
  0
TABLE
  2
DIMSTYLE
 70
0
  0
ENDTAB
  0
TABLE
  2
LTYPE
 70
9
  0
LTYPE
  2
CONTINUOUS
 70
64
  3
Solid line
 72
65
 73
0
 40
0
  0
LTYPE
  2
BORDER
 70
64
  3
__ __ . __ __ .
 72
65
 73
6
 40
82.89473684210527
 49
23.68421052631579
 49
-11.8421052631579
 49
23.68421052631579
 49
-11.8421052631579
 49
0
 49
-11.8421052631579
  0
LTYPE
  2
CENTER
 70
64
  3
____ _ ____ _
 72
65
 73
4
 40
94.73684210526317
 49
59.21052631578948
 49
-11.8421052631579
 49
11.8421052631579
 49
-11.8421052631579
  0
LTYPE
  2
DASHDOT
 70
64
  3
__ . __ . __ .
 72
65
 73
4
 40
47.36842105263158
 49
23.68421052631579
 49
-11.8421052631579
 49
0
 49
-11.8421052631579
  0
LTYPE
  2
DASHED
 70
64
  3
__ __ __ __ __
 72
65
 73
2
 40
35.52631578947369
 49
23.68421052631579
 49
-11.8421052631579
  0
LTYPE
  2
DIVIDE
 70
64
  3
__ . . __ . . 
 72
65
 73
6
 40
59.21052631578948
 49
23.68421052631579
 49
-11.8421052631579
 49
0
 49
-11.8421052631579
 49
0
 49
-11.8421052631579
  0
LTYPE
  2
DOT
 70
64
  3
..............
 72
65
 73
4
 40
23.68421052631579
 49
0
 49
-11.8421052631579
 49
0
 49
-11.8421052631579
  0
LTYPE
  2
HIDDEN
 70
64
  3
_ _ _ _ _ _ _
 72
65
 73
2
 40
17.76315789473684
 49
11.8421052631579
 49
-5.921052631578948
  0
LTYPE
  2
PHANTOM
 70
64
  3
_____ _ _ _____ _ _ 
 72
65
 73
6
 40
118.421052631579
 49
59.21052631578948
 49
-11.8421052631579
 49
11.8421052631579
 49
-11.8421052631579
 49
11.8421052631579
 49
-11.8421052631579
  0
ENDTAB
  0
TABLE
  2
LAYER
 70
7
  0
LAYER
  2
MITTELLINIEN
 70
0
 62
7
  6
CONTINUOUS
  0
LAYER
  2
BEMASS
 70
0
 62
7
  6
CONTINUOUS
  0
LAYER
  2
1
 70
0
 62
7
  6
CONTINUOUS
  0
LAYER
  2
GEOMETRIE
 70
0
 62
7
  6
CONTINUOUS
  0
LAYER
  2
WANNE
 70
0
 62
7
  6
CONTINUOUS
  0
LAYER
  2
0
 70
0
 62
7
  6
CONTINUOUS
  0
ENDTAB
  0
TABLE
  2
STYLE
 70
4
  0
STYLE
  2
STANDARD
 70
0
 40
0
 41
1
 50
0
 71
0
 42
3.5
  3
txt
  4

  0
STYLE
  2
SIMPLEX
 70
0
 40
0
 41
1
 50
0
 71
0
 42
3.5
  3
simplex
  4

  0
STYLE
  2
COMPLEX
 70
0
 40
0
 41
1
 50
0
 71
0
 42
3.5
  3
complex
  4

  0
STYLE
  2
ITALIC
 70
0
 40
0
 41
1
 50
0
 71
0
 42
3.5
  3
italic
  4

  0
ENDTAB
  0
TABLE
  2
VIEW
 70
0
  0
ENDTAB
  0
ENDSEC
  0
SECTION
  2
BLOCKS
  0
BLOCK
  8
0
  2
DLX
 70
0
 10
0
 20
0
 30
0
  0
LINE
  8
1
 62
3
 10
465.3282234693179
 20
496.979895810782
 30
0
 11
465.0328203819372
 21
497.978447872363
 31
0
  0
LINE
  8
1
 62
3
 10
465.7649031508845
 20
498.7622048583319
 30
0
 11
465.0328203819372
 21
497.978447872363
 31
0
  0
LINE
  8
1
 62
3
 10
500.7959271195539
 20
468.2377087845271
 30
0
 11
504.1803346104349
 21
482.051175145079
 31
0
  0
LINE
  8
1
 62
3
 10
496.6077729643149
 20
468.2377087845271
 30
0
 11
499.9921804553309
 21
482.051175145079
 31
0
  0
LINE
  8
1
 62
3
 10
496.6077729643149
 20
468.2377087845271
 30
0
 11
500.7959271195539
 21
468.2377087845271
 31
0
  0
LINE
  8
1
 62
3
 10
495.5237989051459
 20
463.813466360341
 30
0
 11
499.7119530603339
 21
463.813466360341
 31
0
  0
LINE
  8
1
 62
3
 10
496.3275455694389
 20
450
 30
0
 11
502.6097768023359
 21
450
 31
0
  0
LINE
  8
1
 62
3
 10
499.9921804553309
 20
482.051175145079
 30
0
 11
493.7099492224659
 21
482.051175145079
 31
0
  0
LINE
  8
1
 62
3
 10
531.4033366192889
 20
482.051175145079
 30
0
 11
523.55054757827
 21
450
 31
0
  0
LINE
  8
1
 62
3
 10
524.037131327292
 20
477.6269327208391
 30
0
 11
518.3522904045678
 21
454.424242424182
 31
0
  0
LINE
  8
1
 62
3
 10
519.8489771720419
 20
477.6269327208391
 30
0
 11
524.037131327292
 21
477.6269327208391
 31
0
  0
LINE
  8
1
 62
3
 10
531.4033366192889
 20
482.051175145079
 30
0
 11
514.650719998459
 21
482.051175145079
 31
0
  0
LINE
  8
1
 62
3
 10
514.164136249467
 20
454.424242424182
 30
0
 11
519.8489771720419
 21
477.6269327208391
 31
0
  0
LINE
  8
1
 62
3
 10
514.650719998459
 20
482.051175145079
 30
0
 11
506.7979309574619
 21
450
 31
0
  0
LINE
  8
1
 62
3
 10
518.3522904045678
 20
454.424242424182
 30
0
 11
514.164136249467
 21
454.424242424182
 31
0
  0
LINE
  8
1
 62
3
 10
506.7979309574619
 20
450
 30
0
 11
523.55054757827
 21
450
 31
0
  0
LINE
  8
1
 62
3
 10
510.4625658433508
 20
482.051175145079
 30
0
 11
504.1803346104349
 21
482.051175145079
 31
0
  0
LINE
  8
1
 62
3
 10
493.7099492224659
 20
482.051175145079
 30
0
 11
485.8571601814729
 21
450
 31
0
  0
LINE
  8
1
 62
3
 10
492.1393914142609
 20
450
 30
0
 11
495.5237989051459
 21
463.813466360341
 31
0
  0
LINE
  8
1
 62
3
 10
496.3275455694389
 20
450
 30
0
 11
499.7119530603339
 21
463.813466360341
 31
0
  0
LINE
  8
1
 62
3
 10
502.6097768023359
 20
450
 30
0
 11
510.4625658433508
 21
482.051175145079
 31
0
  0
LINE
  8
1
 62
3
 10
485.8571601814729
 20
450
 30
0
 11
492.1393914142609
 21
450
 31
0
  0
LINE
  8
1
 62
3
 10
480.5296286865159
 20
470.990569084413
 30
0
 11
486.8118599193219
 21
470.990569084413
 31
0
  0
LINE
  8
1
 62
3
 10
482.1555897753099
 20
477.6269327208391
 30
0
 11
480.5296286865159
 21
470.990569084413
 31
0
  0
LINE
  8
1
 62
3
 10
477.9674356201178
 20
477.6269327208391
 30
0
 11
482.1555897753099
 21
477.6269327208391
 31
0
  0
LINE
  8
1
 62
3
 10
472.2825946974881
 20
454.424242424182
 30
0
 11
477.9674356201178
 21
477.6269327208391
 31
0
  0
LINE
  8
1
 62
3
 10
476.4707488526909
 20
454.424242424182
 30
0
 11
472.2825946974881
 21
454.424242424182
 31
0
  0
LINE
  8
1
 62
3
 10
478.0967099414779
 20
461.0606060606081
 30
0
 11
476.4707488526909
 21
454.424242424182
 31
0
  0
LINE
  8
1
 62
3
 10
484.378941174266
 20
461.0606060606081
 30
0
 11
478.0967099414779
 21
461.0606060606081
 31
0
  0
LINE
  8
1
 62
3
 10
481.6690060262919
 20
450
 30
0
 11
484.378941174266
 21
461.0606060606081
 31
0
  0
LINE
  8
1
 62
3
 10
464.9163894055382
 20
450
 30
0
 11
481.6690060262919
 21
450
 31
0
  0
LINE
  8
1
 62
3
 10
472.7691784465314
 20
482.051175145079
 30
0
 11
464.9163894055382
 21
450
 31
0
  0
LINE
  8
1
 62
3
 10
489.5217950672519
 20
482.051175145079
 30
0
 11
472.7691784465314
 21
482.051175145079
 31
0
  0
LINE
  8
1
 62
3
 10
486.8118599193219
 20
470.990569084413
 30
0
 11
489.5217950672519
 21
482.051175145079
 31
0
  0
LINE
  8
1
 62
3
 10
467.4970502321557
 20
477.6269327208391
 30
0
 11
468.581024291314
 21
482.051175145079
 31
0
  0
LINE
  8
1
 62
3
 10
457.0266648441757
 20
477.6269327208391
 30
0
 11
467.4970502321557
 21
477.6269327208391
 31
0
  0
LINE
  8
1
 62
3
 10
454.5937460991627
 20
467.696969696953
 30
0
 11
457.0266648441757
 21
477.6269327208391
 31
0
  0
LINE
  8
1
 62
3
 10
465.0641314872264
 20
467.696969696953
 30
0
 11
454.5937460991627
 21
467.696969696953
 31
0
  0
LINE
  8
1
 62
3
 10
460.7282352503025
 20
450
 30
0
 11
465.0641314872264
 21
467.696969696953
 31
0
  0
LINE
  8
1
 62
3
 10
443.9756186294799
 20
450
 30
0
 11
460.7282352503025
 21
450
 31
0
  0
LINE
  8
1
 62
3
 10
445.0595926887872
 20
454.424242424182
 30
0
 11
443.9756186294799
 21
450
 31
0
  0
LINE
  8
1
 62
3
 10
455.5299780766982
 20
454.424242424182
 30
0
 11
445.0595926887872
 21
454.424242424182
 31
0
  0
LINE
  8
1
 62
3
 10
457.6979261951165
 20
463.2727272727971
 30
0
 11
455.5299780766982
 21
454.424242424182
 31
0
  0
LINE
  8
1
 62
3
 10
447.2275408071509
 20
463.2727272727971
 30
0
 11
457.6979261951165
 21
463.2727272727971
 31
0
  0
LINE
  8
1
 62
3
 10
451.8284076705422
 20
482.051175145079
 30
0
 11
447.2275408071509
 21
463.2727272727971
 31
0
  0
LINE
  8
1
 62
3
 10
468.581024291314
 20
482.051175145079
 30
0
 11
451.8284076705422
 21
482.051175145079
 31
0
  0
LINE
  8
1
 62
3
 10
447.6402535153793
 20
482.051175145079
 30
0
 11
439.7874644743642
 21
450
 31
0
  0
LINE
  8
1
 62
3
 10
441.3580222825731
 20
482.051175145079
 30
0
 11
447.6402535153793
 21
482.051175145079
 31
0
  0
LINE
  8
1
 62
3
 10
439.7874644743642
 20
450
 30
0
 11
421.9878093147745
 21
450
 31
0
  0
LINE
  8
1
 62
3
 10
434.5892073007672
 20
454.424242424182
 30
0
 11
441.3580222825731
 21
482.051175145079
 31
0
  0
LINE
  8
1
 62
3
 10
429.3540146067826
 20
454.424242424182
 30
0
 11
434.5892073007672
 21
454.424242424182
 31
0
  0
LINE
  8
1
 62
3
 10
436.1228295885776
 20
482.051175145079
 30
0
 11
429.3540146067826
 21
454.424242424182
 31
0
  0
LINE
  8
1
 62
3
 10
429.8405983557677
 20
482.051175145079
 30
0
 11
436.1228295885776
 21
482.051175145079
 31
0
  0
LINE
  8
1
 62
3
 10
421.9878093147745
 20
450
 30
0
 11
429.8405983557677
 21
482.051175145079
 31
0
  0
LINE
  8
1
 62
3
 10
417.799655159648
 20
450
 30
0
 11
400
 21
450
 31
0
  0
LINE
  8
1
 62
3
 10
428.3623793485676
 20
493.1117812056621
 30
0
 11
417.799655159648
 21
450
 31
0
  0
LINE
  8
1
 62
3
 10
404.3890522712754
 20
493.1117812056621
 30
0
 11
428.3623793485676
 21
493.1117812056621
 31
0
  0
LINE
  8
1
 62
3
 10
403.0340846972904
 20
487.581478175405
 30
0
 11
404.3890522712754
 21
493.1117812056621
 31
0
  0
LINE
  8
1
 62
3
 10
420.7251805418237
 20
487.581478175405
 30
0
 11
403.0340846972904
 21
487.581478175405
 31
0
  0
LINE
  8
1
 62
3
 10
412.6013979859417
 20
454.424242424182
 30
0
 11
420.7251805418237
 21
487.581478175405
 31
0
  0
LINE
  8
1
 62
3
 10
407.3662052920627
 20
454.424242424182
 30
0
 11
412.6013979859417
 21
454.424242424182
 31
0
  0
LINE
  8
1
 62
3
 10
414.1350202737522
 20
482.051175145079
 30
0
 11
407.3662052920627
 21
454.424242424182
 31
0
  0
LINE
  8
1
 62
3
 10
407.8527890410551
 20
482.051175145079
 30
0
 11
414.1350202737522
 21
482.051175145079
 31
0
  0
LINE
  8
1
 62
3
 10
400
 20
450
 30
0
 11
407.8527890410551
 21
482.051175145079
 31
0
  0
LINE
  8
1
 62
3
 10
535.1196812335149
 20
456.1939393939099
 30
0
 11
544.1648417396059
 21
493.1117812056621
 31
0
  0
LINE
  8
1
 62
3
 10
544.1648417396059
 20
493.1117812056621
 30
0
 11
538.301425922338
 21
493.1117812056621
 31
0
  0
LINE
  8
1
 62
3
 10
538.301425922338
 20
493.1117812056621
 30
0
 11
527.738701733397
 21
450
 31
0
  0
LINE
  8
1
 62
3
 10
545.643060746967
 20
482.051175145079
 30
0
 11
539.958219824279
 21
458.8484848484771
 31
0
  0
LINE
  8
1
 62
3
 10
539.958219824279
 20
458.8484848484771
 30
0
 11
555.6637979062
 21
458.8484848484771
 31
0
  0
LINE
  8
1
 62
3
 10
555.6637979062
 20
458.8484848484771
 30
0
 11
561.3486388288079
 21
482.051175145079
 31
0
  0
LINE
  8
1
 62
3
 10
561.3486388288079
 20
482.051175145079
 30
0
 11
556.113446134885
 21
482.051175145079
 31
0
  0
LINE
  8
1
 62
3
 10
556.113446134885
 20
482.051175145079
 30
0
 11
551.5125792714898
 21
463.2727272727971
 31
0
  0
LINE
  8
1
 62
3
 10
551.5125792714898
 20
463.2727272727971
 30
0
 11
546.277386577538
 21
463.2727272727971
 31
0
  0
LINE
  8
1
 62
3
 10
546.277386577538
 20
463.2727272727971
 30
0
 11
550.878253440889
 21
482.051175145079
 31
0
  0
LINE
  8
1
 62
3
 10
550.878253440889
 20
482.051175145079
 30
0
 11
545.643060746967
 21
482.051175145079
 31
0
  0
LINE
  8
1
 62
3
 10
567.9069775849489
 20
482.051175145079
 30
0
 11
563.8615313219339
 21
482.051175145079
 31
0
  0
LINE
  8
1
 62
3
 10
563.8615313219339
 20
482.051175145079
 30
0
 11
567.9838268441308
 21
471.415301218661
 31
0
  0
LINE
  8
1
 62
3
 10
567.9838268441308
 20
471.415301218661
 30
0
 11
558.1766903993409
 21
458.8484848484771
 31
0
  0
LINE
  8
1
 62
3
 10
558.1766903993409
 20
458.8484848484771
 30
0
 11
562.222136662338
 21
458.8484848484771
 31
0
  0
LINE
  8
1
 62
3
 10
562.222136662338
 20
458.8484848484771
 30
0
 11
569.3262692424398
 21
467.951685370502
 31
0
  0
LINE
  8
1
 62
3
 10
569.3262692424398
 20
467.951685370502
 30
0
 11
572.8545249371239
 21
458.8484848484771
 31
0
  0
LINE
  8
1
 62
3
 10
572.8545249371239
 20
458.8484848484771
 30
0
 11
576.8999712001719
 21
458.8484848484771
 31
0
  0
LINE
  8
1
 62
3
 10
576.8999712001719
 20
458.8484848484771
 30
0
 11
572.0292731071679
 21
471.415301218603
 31
0
  0
LINE
  8
1
 62
3
 10
572.0292731071679
 20
471.415301218603
 30
0
 11
580.32950315225
 21
482.051175145079
 31
0
  0
LINE
  8
1
 62
3
 10
580.32950315225
 20
482.051175145079
 30
0
 11
576.284056889192
 21
482.051175145079
 31
0
  0
LINE
  8
1
 62
3
 10
576.284056889192
 20
482.051175145079
 30
0
 11
570.686830708906
 21
474.878917066824
 31
0
  0
LINE
  8
1
 62
3
 10
570.686830708906
 20
474.878917066824
 30
0
 11
567.9069775849489
 21
482.051175145079
 31
0
  0
LINE
  8
1
 62
3
 10
577.928830785688
 20
456.1939393939099
 30
0
 11
580.3295031522068
 21
450
 31
0
  0
LINE
  8
1
 62
3
 10
577.928830785688
 20
456.1939393939099
 30
0
 11
535.1196812335149
 21
456.1939393939099
 31
0
  0
LINE
  8
1
 62
3
 10
580.3295031522068
 20
450
 30
0
 11
527.738701733397
 21
450
 31
0
  0
LINE
  8
1
 62
3
 10
436.7386876589662
 20
493.1117812056621
 30
0
 11
439.9906098364481
 21
506.38450847832
 31
0
  0
LINE
  8
1
 62
3
 10
439.9906098364481
 20
506.38450847832
 30
0
 11
452.5550723021661
 21
506.38450847832
 31
0
  0
LINE
  8
1
 62
3
 10
452.5550723021661
 20
506.38450847832
 30
0
 11
449.3031501244914
 21
493.1117812056621
 31
0
  0
LINE
  8
1
 62
3
 10
449.3031501244914
 20
493.1117812056621
 30
0
 11
436.7386876589662
 21
493.1117812056621
 31
0
  0
LINE
  8
1
 62
3
 10
447.7510600764872
 20
495.3239024177931
 30
0
 11
439.3747517661323
 21
495.3239024177931
 31
0
  0
LINE
  8
1
 62
3
 10
449.9190081949637
 20
504.172387266269
 30
0
 11
447.7510600764872
 21
495.3239024177931
 31
0
  0
LINE
  8
1
 62
3
 10
441.5426998844741
 20
504.172387266269
 30
0
 11
449.9190081949637
 21
504.172387266269
 31
0
  0
LINE
  8
1
 62
3
 10
439.3747517661323
 20
495.3239024177931
 30
0
 11
441.5426998844741
 21
504.172387266269
 31
0
  0
LINE
  8
1
 62
3
 10
455.0679647951583
 20
506.38450847832
 30
0
 11
451.8160426176219
 21
493.1117812056621
 31
0
  0
LINE
  8
1
 62
3
 10
455.0679647951583
 20
506.38450847832
 30
0
 11
467.632427260738
 21
506.38450847832
 31
0
  0
LINE
  8
1
 62
3
 10
467.632427260738
 20
506.38450847832
 30
0
 11
465.7649031508845
 21
498.7622048583319
 31
0
  0
LINE
  8
1
 62
3
 10
464.3805050832052
 20
493.1117812056621
 30
0
 11
462.2864280055655
 21
493.1117812056621
 31
0
  0
LINE
  8
1
 62
3
 10
462.2864280055655
 20
493.1117812056621
 30
0
 11
463.3704020649384
 21
497.5360236298441
 31
0
  0
LINE
  8
1
 62
3
 10
463.3704020649384
 20
497.5360236298441
 30
0
 11
454.9940937544088
 21
497.5360236298441
 31
0
  0
LINE
  8
1
 62
3
 10
455.5360807840007
 20
499.7481448420331
 30
0
 11
463.9123890943811
 21
499.7481448420331
 31
0
  0
LINE
  8
1
 62
3
 10
463.9123890943811
 20
499.7481448420331
 30
0
 11
464.996363153703
 21
504.172387266269
 31
0
  0
LINE
  8
1
 62
3
 10
464.996363153703
 20
504.172387266269
 30
0
 11
456.6200548431843
 21
504.172387266269
 31
0
  0
LINE
  8
1
 62
3
 10
456.6200548431843
 20
504.172387266269
 30
0
 11
455.5360807840007
 21
499.7481448420331
 31
0
  0
LINE
  8
1
 62
3
 10
465.3282234693179
 20
496.979895810782
 30
0
 11
464.3805050832052
 21
493.1117812056621
 31
0
  0
LINE
  8
1
 62
3
 10
451.8160426176219
 20
493.1117812056621
 30
0
 11
453.9101196952979
 21
493.1117812056621
 31
0
  0
LINE
  8
1
 62
3
 10
453.9101196952979
 20
493.1117812056621
 30
0
 11
454.9940937544088
 21
497.5360236298441
 31
0
  0
LINE
  8
1
 62
3
 10
472.2393968314646
 20
506.38450847832
 30
0
 11
470.1453197539013
 21
506.38450847832
 31
0
  0
LINE
  8
1
 62
3
 10
470.1453197539013
 20
506.38450847832
 30
0
 11
466.8933975763357
 21
493.1117812056621
 31
0
  0
LINE
  8
1
 62
3
 10
466.8933975763357
 20
493.1117812056621
 30
0
 11
468.9874746540554
 21
493.1117812056621
 31
0
  0
LINE
  8
1
 62
3
 10
468.9874746540554
 20
493.1117812056621
 30
0
 11
472.2393968314646
 21
506.38450847832
 31
0
  0
LINE
  8
1
 62
3
 10
471.5003671470404
 20
493.1117812056621
 30
0
 11
474.7522893245841
 21
506.38450847832
 31
0
  0
LINE
  8
1
 62
3
 10
474.7522893245841
 20
506.38450847832
 30
0
 11
487.3167517901749
 21
506.38450847832
 31
0
  0
LINE
  8
1
 62
3
 10
487.3167517901749
 20
506.38450847832
 30
0
 11
486.1785790280479
 21
501.739053932891
 31
0
  0
LINE
  8
1
 62
3
 10
484.0648296126529
 20
493.1117812056621
 30
0
 11
471.5003671470404
 21
493.1117812056621
 31
0
  0
LINE
  8
1
 62
3
 10
482.5127395646049
 20
495.3239024177931
 30
0
 11
474.1364312542755
 21
495.3239024177931
 31
0
  0
LINE
  8
1
 62
3
 10
484.6806876828999
 20
504.172387266269
 30
0
 11
484.0845019505219
 21
501.739053932891
 31
0
  0
LINE
  8
1
 62
3
 10
476.3043793726031
 20
504.172387266269
 30
0
 11
484.6806876828999
 21
504.172387266269
 31
0
  0
LINE
  8
1
 62
3
 10
474.1364312542755
 20
495.3239024177931
 30
0
 11
476.3043793726031
 21
504.172387266269
 31
0
  0
LINE
  8
1
 62
3
 10
485.6907907014249
 20
499.7481448420331
 30
0
 11
479.4085594686189
 21
499.7481448420331
 31
0
  0
LINE
  8
1
 62
3
 10
485.6907907014249
 20
499.7481448420331
 30
0
 11
484.0648296126529
 21
493.1117812056621
 31
0
  0
LINE
  8
1
 62
3
 10
479.4085594686189
 20
499.7481448420331
 30
0
 11
478.8665724389718
 21
497.5360236298441
 31
0
  0
LINE
  8
1
 62
3
 10
478.8665724389718
 20
497.5360236298441
 30
0
 11
483.0547265943719
 21
497.5360236298441
 31
0
  0
LINE
  8
1
 62
3
 10
483.0547265943719
 20
497.5360236298441
 30
0
 11
482.5127395646049
 21
495.3239024177931
 31
0
  0
LINE
  8
1
 62
3
 10
484.0845019505219
 20
501.739053932891
 30
0
 11
486.1785790280479
 21
501.739053932891
 31
0
  0
LINE
  8
1
 62
3
 10
486.5777221057689
 20
493.1117812056621
 30
0
 11
488.671799183329
 21
493.1117812056621
 31
0
  0
LINE
  8
1
 62
3
 10
488.671799183329
 20
493.1117812056621
 30
0
 11
491.923721360898
 21
506.38450847832
 31
0
  0
LINE
  8
1
 62
3
 10
489.8296442833339
 20
506.38450847832
 30
0
 11
486.5777221057689
 21
493.1117812056621
 31
0
  0
LINE
  8
1
 62
3
 10
491.923721360898
 20
506.38450847832
 30
0
 11
489.8296442833339
 21
506.38450847832
 31
0
  0
LINE
  8
1
 62
3
 10
491.1846916764989
 20
493.1117812056621
 30
0
 11
494.4366138540139
 21
506.38450847832
 31
0
  0
LINE
  8
1
 62
3
 10
494.4366138540139
 20
506.38450847832
 30
0
 11
497.5777294703549
 21
506.38450847832
 31
0
  0
LINE
  8
1
 62
3
 10
497.5777294703549
 20
506.38450847832
 30
0
 11
502.0615673366299
 21
494.770872114746
 31
0
  0
LINE
  8
1
 62
3
 10
502.0615673366299
 20
494.770872114746
 30
0
 11
504.9069992419829
 21
506.38450847832
 31
0
  0
LINE
  8
1
 62
3
 10
504.9069992419829
 20
506.38450847832
 30
0
 11
507.0010763195969
 21
506.38450847832
 31
0
  0
LINE
  8
1
 62
3
 10
507.0010763195969
 20
506.38450847832
 30
0
 11
503.7491541419769
 21
493.1117812056621
 31
0
  0
LINE
  8
1
 62
3
 10
503.7491541419769
 20
493.1117812056621
 30
0
 11
500.5064756532079
 21
493.1117812056621
 31
0
  0
LINE
  8
1
 62
3
 10
500.5064756532079
 20
493.1117812056621
 30
0
 11
496.7253193174979
 21
502.9053946295351
 31
0
  0
LINE
  8
1
 62
3
 10
496.7253193174979
 20
502.9053946295351
 30
0
 11
496.0847710509879
 21
504.5644855385979
 31
0
  0
LINE
  8
1
 62
3
 10
496.0847710509879
 20
504.5644855385979
 30
0
 11
493.2787687540589
 21
493.1117812056621
 31
0
  0
LINE
  8
1
 62
3
 10
493.2787687540589
 20
493.1117812056621
 30
0
 11
491.1846916764989
 21
493.1117812056621
 31
0
  0
LINE
  8
1
 62
3
 10
506.2620466350929
 20
493.1117812056621
 30
0
 11
513.77347691399
 21
506.38450847832
 31
0
  0
LINE
  8
1
 62
3
 10
513.77347691399
 20
506.38450847832
 30
0
 11
517.818923176965
 21
506.38450847832
 31
0
  0
LINE
  8
1
 62
3
 10
517.818923176965
 20
506.38450847832
 30
0
 11
518.826509100727
 21
493.1117812056621
 31
0
  0
LINE
  8
1
 62
3
 10
518.826509100727
 20
493.1117812056621
 30
0
 11
516.7968269376579
 21
493.1117812056621
 31
0
  0
LINE
  8
1
 62
3
 10
516.7968269376579
 20
493.1117812056621
 30
0
 11
516.6288959503909
 21
495.3239024177931
 31
0
  0
LINE
  8
1
 62
3
 10
516.6288959503909
 20
495.3239024177931
 30
0
 11
509.892748670027
 21
495.3239024177931
 31
0
  0
LINE
  8
1
 62
3
 10
509.892748670027
 20
495.3239024177931
 30
0
 11
508.6408436236638
 21
493.1117812056621
 31
0
  0
LINE
  8
1
 62
3
 10
508.6408436236638
 20
493.1117812056621
 30
0
 11
506.2620466350929
 21
493.1117812056621
 31
0
  0
LINE
  8
1
 62
3
 10
511.144653716558
 20
497.5360236298441
 30
0
 11
516.4609649630688
 21
497.5360236298441
 31
0
  0
LINE
  8
1
 62
3
 10
516.4609649630688
 20
497.5360236298441
 30
0
 11
515.9571720012139
 21
504.172387266269
 31
0
  0
LINE
  8
1
 62
3
 10
515.9571720012139
 20
504.172387266269
 30
0
 11
514.9003688559239
 21
504.172387266269
 31
0
  0
LINE
  8
1
 62
3
 10
511.144653716558
 20
497.5360236298441
 30
0
 11
514.9003688559239
 21
504.172387266269
 31
0
  0
LINE
  8
1
 62
3
 10
524.591323771416
 20
506.38450847832
 30
0
 11
521.339401593847
 21
493.1117812056621
 31
0
  0
LINE
  8
1
 62
3
 10
521.339401593847
 20
493.1117812056621
 30
0
 11
533.9038640594258
 21
493.1117812056621
 31
0
  0
LINE
  8
1
 62
3
 10
533.9038640594258
 20
493.1117812056621
 30
0
 11
534.445851089087
 21
495.3239024177931
 31
0
  0
LINE
  8
1
 62
3
 10
534.445851089087
 20
495.3239024177931
 30
0
 11
523.9754657010669
 21
495.3239024177931
 31
0
  0
LINE
  8
1
 62
3
 10
523.9754657010669
 20
495.3239024177931
 30
0
 11
526.68540084903
 21
506.38450847832
 31
0
  0
LINE
  8
1
 62
3
 10
526.68540084903
 20
506.38450847832
 30
0
 11
524.591323771416
 21
506.38450847832
 31
0
  0
LINE
  8
1
 62
3
 10
571.206636135699
 20
500.2001112138419
 30
0
 11
571.206636135699
 21
497.4510557882821
 31
0
  0
LINE
  8
1
 62
3
 10
570.3341884365839
 20
497.4510557882821
 30
0
 11
570.3341884365839
 21
504.3095239634561
 31
0
  0
LINE
  8
1
 62
3
 10
570.3341884365839
 20
504.3095239634561
 30
0
 11
572.7761082958239
 21
504.3095239634561
 31
0
  0
LINE
  8
1
 62
3
 10
572.7761082958239
 20
504.3095239634561
 30
0
 11
573.0724648781759
 21
504.3095239634561
 31
0
  0
LINE
  8
1
 62
3
 10
574.9060993927419
 20
499.3306895546259
 30
0
 11
574.9060993927419
 21
497.4510557882821
 31
0
  0
LINE
  8
1
 62
3
 10
574.9060993927419
 20
497.4510557882821
 30
0
 11
573.9449125772369
 21
497.4510557882821
 31
0
  0
LINE
  8
1
 62
3
 10
573.9449125772369
 20
497.4510557882821
 30
0
 11
573.9449125772369
 21
499.0729110559001
 31
0
  0
LINE
  8
1
 62
3
 10
572.931697837317
 20
500.2001112138419
 30
0
 11
571.206636135699
 21
500.2001112138419
 31
0
  0
LINE
  8
1
 62
3
 10
571.206636135699
 20
497.4510557882821
 30
0
 11
570.3341884365839
 21
497.4510557882821
 31
0
  0
LINE
  8
1
 62
3
 10
571.206636135699
 20
501.050334541276
 30
0
 11
573.194119363641
 21
501.050334541276
 31
0
  0
LINE
  8
1
 62
3
 10
573.062609127785
 20
503.5059925312781
 30
0
 11
571.206636135699
 21
503.5059925312781
 31
0
  0
LINE
  8
1
 62
3
 10
571.206636135699
 20
503.5059925312781
 30
0
 11
571.206636135699
 21
501.050334541276
 31
0
  0
ARC
  8
1
 62
3
 10
572.9426940693159
 20
502.3039199213811
 30
0
 40
2.00979800886174
 50
304.0700115354277
 51
86.29788871825861
  0
ARC
  8
1
 62
3
 10
572.8643762433019
 20
502.2640259305511
 30
0
 40
1.257687287767297
 50
285.1995809529421
 51
80.9313952387881
  0
ARC
  8
1
 62
3
 10
572.789193605106
 20
499.0530393898221
 30
0
 40
1.155889798231655
 50
0.9850581704851609
 51
82.91825463293205
  0
ARC
  8
1
 62
3
 10
573.514586791596
 20
499.3622336822259
 30
0
 40
1.39187009132817
 50
358.7013873342734
 51
66.54486649404646
  0
CIRCLE
  8
1
 62
3
 10
572.7358752379369
 20
500.8787878787551
 30
0
 40
5.972862778753957
  0
CIRCLE
  8
1
 62
3
 10
572.7358752379369
 20
500.8787878787551
 30
0
 40
5.530127989695927
  0
ENDBLK
  8
0
  0
BLOCK
  8
0
  2
WANNE_ANCONA_112
 70
0
 10
651.3288259999999
 20
-155.757901
 30
0
  0
LINE
  8
GEOMETRIE
 62
7
 10
1800
 20
0
 30
0
 11
0
 21
0
 31
0
  0
LINE
  8
GEOMETRIE
 62
7
 10
1800
 20
800
 30
0
 11
0
 21
800
 31
0
  0
LINE
  8
GEOMETRIE
 62
7
 10
1800
 20
0
 30
0
 11
1800
 21
800
 31
0
  0
LINE
  8
GEOMETRIE
 62
7
 10
0
 20
0
 30
0
 11
0
 21
800
 31
0
  0
LINE
  8
WANNE
 62
7
 10
400
 20
730
 30
0
 11
1400
 21
730
 31
0
  0
LINE
  8
WANNE
 62
7
 10
400
 20
70
 30
0
 11
1400
 21
70
 31
0
  0
LINE
  8
BEMASS
 62
7
 10
595
 20
680
 30
0
 11
1205
 21
680
 31
0
  0
LINE
  8
BEMASS
 62
7
 10
595
 20
120
 30
0
 11
1205
 21
120
 31
0
  0
LINE
  8
MITTELLINIEN
 62
3
  6
DASHDOT
 10
900
 20
348.9899549999991
 30
0
 11
900
 21
219.3219809999991
 31
0
  0
LINE
  8
MITTELLINIEN
 62
3
  6
DASHDOT
 10
963.989954999998
 20
285
 30
0
 11
834.3219809999871
 21
285
 31
0
  0
ARC
  8
WANNE
 62
7
 10
1400
 20
400
 30
0
 40
330
 50
0
 51
90
  0
ARC
  8
WANNE
 62
7
 10
400
 20
400
 30
0
 40
330
 50
90
 51
180
  0
ARC
  8
WANNE
 62
7
 10
400
 20
400
 30
0
 40
330
 50
180
 51
270
  0
ARC
  8
BEMASS
 62
7
 10
595
 20
400
 30
0
 40
280
 50
90
 51
270
  0
ARC
  8
BEMASS
 62
7
 10
1205
 20
400
 30
0
 40
280
 50
270
 51
90
  0
ARC
  8
WANNE
 62
7
 10
1400
 20
400
 30
0
 40
330
 50
270
 51
0
  0
CIRCLE
  8
WANNE
 62
7
 10
899.9999999999941
 20
285
 30
0
 40
45
  0
CIRCLE
  8
WANNE
 62
7
 10
899.9999999999941
 20
285
 30
0
 40
26
  0
POLYLINE
  8
1
 62
7
 66
1
 70
1
  0
VERTEX
  8
1
 10
924.8977139569151
 20
95.88552425796479
 30
0
 42
0.02554356053525964
  0
VERTEX
  8
1
 10
924.6201938253055
 20
96.73648177666966
 30
0
 42
0.06462742901288145
  0
VERTEX
  8
1
 10
924.1258010853289
 20
97.62232388072837
 30
0
 42
0.005951863311011519
  0
VERTEX
  8
1
 10
923.425023124692
 20
98.4942489230145
 30
0
 42
0.05649085314914092
  0
VERTEX
  8
1
 10
921.6506350946111
 20
99.99999999999983
 30
0
 42
0.0460964310035146
  0
VERTEX
  8
1
 10
920.4302666332935
 20
100.7644687484442
 30
0
 42
0.002392690973194583
  0
VERTEX
  8
1
 10
919.0517555164595
 20
101.4752244250468
 30
0
 42
0.03024853640245492
  0
VERTEX
  8
1
 10
916.0696902421629
 20
102.6604444311897
 30
0
 42
0.02631173496147758
  0
VERTEX
  8
1
 10
914.2971435711377
 20
103.2037615610994
 30
0
 42
0.0008773225683164465
  0
VERTEX
  8
1
 10
912.42435011475
 20
103.6777212004189
 30
0
 42
0.02063410599801566
  0
VERTEX
  8
1
 10
908.550503583142
 20
104.396926207859
 30
0
 42
0.01917547846887258
  0
VERTEX
  8
1
 10
906.4500878804201
 20
104.6616453540967
 30
0
 42
0.0002287766181881868
  0
VERTEX
  8
1
 10
904.3136588237087
 20
104.8500200777761
 30
0
 42
0.01764819436000235
  0
VERTEX
  8
1
 10
900.0000000000007
 20
105.0000000000003
 30
0
 42
0.01742374092164186
  0
VERTEX
  8
1
 10
895.686341176291
 20
104.8500200777761
 30
0
 42
0.01753801196275685
  0
VERTEX
  8
1
 10
893.5499121195794
 20
104.6616453540967
 30
0
 42
0.0005014995539120885
  0
VERTEX
  8
1
 10
891.449496416858
 20
104.396926207859
 30
0
 42
0.01983567315461283
  0
VERTEX
  8
1
 10
887.5756498852499
 20
103.6777212004189
 30
0
 42
0.02094927082550299
  0
VERTEX
  8
1
 10
885.7028564288619
 20
103.2037615610994
 30
0
 42
0.001454134923696757
  0
VERTEX
  8
1
 10
883.9303097578364
 20
102.6604444311895
 30
0
 42
0.02823712120905225
  0
VERTEX
  8
1
 10
880.9482444835411
 20
101.4752244250463
 30
0
 42
0.03131573834212949
  0
VERTEX
  8
1
 10
879.5697333667069
 20
100.7644687484443
 30
0
 42
0.003930929132290993
  0
VERTEX
  8
1
 10
878.3493649053891
 20
100.0000000000003
 30
0
 42
0.05178355066227811
  0
VERTEX
  8
1
 10
876.5749768753085
 20
98.49424892301381
 30
0
 42
0.06052885348654349
  0
VERTEX
  8
1
 10
875.874198914671
 20
97.62232388072746
 30
0
 42
0.006338419384852808
  0
VERTEX
  8
1
 10
875.3798061746942
 20
96.73648177666908
 30
0
 42
0.09942504263724934
  0
VERTEX
  8
1
 10
875
 20
95.00000000000081
 30
0
 42
0.09983006639750804
  0
VERTEX
  8
1
 10
875.3798061746946
 20
93.26351822333
 30
0
 42
0.09672807810552983
  0
VERTEX
  8
1
 10
875.8741989146714
 20
92.37767611927177
 30
0
 42
0.005951863311061991
  0
VERTEX
  8
1
 10
876.5749768753086
 20
91.5057510769864
 30
0
 42
0.05649085314904764
  0
VERTEX
  8
1
 10
878.3493649053891
 20
90.00000000000043
 30
0
 42
0.046096431003242
  0
VERTEX
  8
1
 10
879.5697333667069
 20
89.23553125155598
 30
0
 42
0.002392690973123772
  0
VERTEX
  8
1
 10
880.9482444835411
 20
88.52477557495351
 30
0
 42
0.030248536402454
  0
VERTEX
  8
1
 10
883.9303097578364
 20
87.33955556881038
 30
0
 42
0.02631173496251668
  0
VERTEX
  8
1
 10
885.7028564288618
 20
86.79623843890042
 30
0
 42
0.0008773225683193873
  0
VERTEX
  8
1
 10
887.57564988525
 20
86.32227879958089
 30
0
 42
0.02063410599794629
  0
VERTEX
  8
1
 10
891.4494964168589
 20
85.6030737921418
 30
0
 42
0.01917547846885612
  0
VERTEX
  8
1
 10
893.5499121195801
 20
85.33835464590351
 30
0
 42
0.0002287766181818388
  0
VERTEX
  8
1
 10
895.6863411762909
 20
85.1499799222234
 30
0
 42
0.01764819436006271
  0
VERTEX
  8
1
 10
900
 20
84.9999999999996
 30
0
 42
0.0174237409216262
  0
VERTEX
  8
1
 10
904.3136588237086
 20
85.14997992222396
 30
0
 42
0.01753801196202023
  0
VERTEX
  8
1
 10
906.4500878804201
 20
85.33835464590348
 30
0
 42
0.0005014995539042887
  0
VERTEX
  8
1
 10
908.550503583142
 20
85.6030737921413
 30
0
 42
0.01983567315462284
  0
VERTEX
  8
1
 10
912.42435011475
 20
86.32227879958113
 30
0
 42
0.0209492708258165
  0
VERTEX
  8
1
 10
914.2971435711381
 20
86.79623843890064
 30
0
 42
0.001454134923682866
  0
VERTEX
  8
1
 10
916.0696902421637
 20
87.33955556881035
 30
0
 42
0.02823712120909069
  0
VERTEX
  8
1
 10
919.0517555164589
 20
88.52477557495313
 30
0
 42
0.03131573834260066
  0
VERTEX
  8
1
 10
920.4302666332931
 20
89.23553125155553
 30
0
 42
0.003930929132286782
  0
VERTEX
  8
1
 10
921.6506350946111
 20
90.00000000000007
 30
0
 42
0.05178355066225689
  0
VERTEX
  8
1
 10
923.4250231246921
 20
91.50575107698657
 30
0
 42
0.06052885348785237
  0
VERTEX
  8
1
 10
924.1258010853289
 20
92.37767611927275
 30
0
 42
0.006338419384743288
  0
VERTEX
  8
1
 10
924.6201938253055
 20
93.26351822333116
 30
0
 42
0.09942504263692527
  0
VERTEX
  8
1
 10
925.0000000000006
 20
95.00000000000011
 30
0
  0
VERTEX
  8
1
 10
924.8977139569151
 20
95.88552425796479
 30
0
  0
SEQEND
  8
1
  0
ENDBLK
  8
0
  0
ENDSEC
  0
SECTION
  2
ENTITIES
  0
TEXT
  8
1
 62
3
 10
975
 20
267.5
 30
0
 40
35
  1
Ö 52
 41
0.5993999999999999
 73
2
 11
975
 21
285
 31
0
  0
TEXT
  8
1
 62
2
 10
400
 20
315
 30
0
 40
35
  1
ANCONA 112
 41
0.5993999999999999
  0
INSERT
  8
0
  2
DLX
 10
0
 20
0
 30
0
  0
INSERT
  8
0
  2
WANNE_ANCONA_112
 10
651.3288259999999
 20
-155.757901
 30
0
  0
ENDSEC
  0
EOF
