  0
SECTION
  2
HEADER
  9
$ACADVER
  1
AC1009
  9
$INSBASE
 10
0
 20
0
  9
$EXTMIN
 10
0
 20
0
  9
$EXTMAX
 10
1800
 20
610
  9
$LIMMIN
 10
0
 20
0
  9
$LIMMAX
 10
1800
 20
610
  9
$VIEWCTR
 10
10
 20
10
  9
$VIEWSIZE
 40
10
  9
$SNAPMODE
 70
0
  9
$SNAPUNIT
 10
1
 20
1
  9
$SNAPBASE
 10
0
 20
0
  9
$SNAPANG
 50
0
  9
$SNAPSTYLE
 70
0
  9
$SNAPISOPAIR
 70
0
  9
$GRIDMODE
 70
0
  9
$GRIDUNIT
 10
0
 20
0
  9
$ORTHOMODE
 70
0
  9
$REGENMODE
 70
1
  9
$FILLMODE
 70
1
  9
$QTEXTMODE
 70
0
  9
$DRAGMODE
 70
2
  9
$LTSCALE
 40
1
  9
$OSMODE
 70
0
  9
$ATTMODE
 70
1
  9
$TEXTSIZE
 40
3.5
  9
$TRACEWID
 40
0.5
  9
$TEXTSTYLE
  7
STANDARD
  9
$CLAYER
  8
0
  9
$CELTYPE
  6
BYLAYER
  9
$CECOLOR
 62
256
  9
$DIMSCALE
 40
1
  9
$DIMASZ
 40
0.18
  9
$DIMEXO
 40
0.0625
  9
$DIMDLI
 40
0.38
  9
$DIMRND
 40
0
  9
$DIMDLE
 40
0
  9
$DIMEXE
 40
0.18
  9
$DIMTP
 40
0
  9
$DIMTM
 40
0
  9
$DIMTXT
 40
0.18
  9
$DIMCEN
 40
0.09
  9
$DIMTSZ
 40
0
  9
$DIMTOL
 70
0
  9
$DIMLIM
 70
0
  9
$DIMTIH
 70
1
  9
$DIMTOH
 70
1
  9
$DIMSE1
 70
0
  9
$DIMSE2
 70
0
  9
$DIMTAD
 70
0
  9
$DIMZIN
 70
0
  9
$DIMBLK
  1

  9
$DIMASO
 70
1
  9
$DIMSHO
 70
1
  9
$DIMPOST
  1

  9
$DIMAPOST
  1

  9
$DIMALT
 70
0
  9
$DIMALTD
 70
2
  9
$DIMALTF
 40
25.4
  9
$DIMLFAC
 40
1
  9
$DIMTOFL
 70
0
  9
$DIMTVP
 40
0
  9
$DIMTIX
 70
0
  9
$DIMSOXD
 70
0
  9
$DIMSAH
 70
0
  9
$DIMBLK1
  1

  9
$DIMBLK2
  1

  9
$DIMSTYLE
  2
*UNNAMED
  9
$DIMCLRD
 70
0
  9
$DIMCLRE
 70
0
  9
$DIMCLRT
 70
0
  9
$DIMTFAC
 40
1
  9
$DIMGAP
 40
0.09
  9
$LUNITS
 70
2
  9
$LUPREC
 70
4
  9
$AXISMODE
 70
0
  9
$AXISUNIT
 10
0
 20
0
  9
$SKETCHINC
 40
0.1
  9
$FILLETRAD
 40
2
  9
$AUNITS
 70
0
  9
$AUPREC
 70
0
  9
$MENU
  1
ACAD
  9
$ELEVATION
 40
0
  9
$THICKNESS
 40
0
  9
$VIEWDIR
 10
0
 20
0
 30
1
  9
$LIMCHECK
 70
0
  9
$BLIPMODE
 70
1
  9
$CHAMFERA
 40
0
  9
$CHAMFERB
 40
0
  9
$FASTZOOM
 70
1
  9
$SKPOLY
 70
0
  9
$ANGBASE
 50
0
  9
$ANGDIR
 70
0
  9
$PDMODE
 70
0
  9
$PDSIZE
 40
0
  9
$PLINEWID
 40
0
  9
$COORDS
 70
2
  0
ENDSEC
  0
SECTION
  2
TABLES
  0
TABLE
  2
DIMSTYLE
 70
0
  0
ENDTAB
  0
TABLE
  2
LTYPE
 70
9
  0
LTYPE
  2
CONTINUOUS
 70
64
  3
Solid line
 72
65
 73
0
 40
0
  0
LTYPE
  2
BORDER
 70
64
  3
__ __ . __ __ .
 72
65
 73
6
 40
82.89473684210527
 49
23.68421052631579
 49
-11.8421052631579
 49
23.68421052631579
 49
-11.8421052631579
 49
0
 49
-11.8421052631579
  0
LTYPE
  2
CENTER
 70
64
  3
____ _ ____ _
 72
65
 73
4
 40
94.73684210526317
 49
59.21052631578948
 49
-11.8421052631579
 49
11.8421052631579
 49
-11.8421052631579
  0
LTYPE
  2
DASHDOT
 70
64
  3
__ . __ . __ .
 72
65
 73
4
 40
47.36842105263158
 49
23.68421052631579
 49
-11.8421052631579
 49
0
 49
-11.8421052631579
  0
LTYPE
  2
DASHED
 70
64
  3
__ __ __ __ __
 72
65
 73
2
 40
35.52631578947369
 49
23.68421052631579
 49
-11.8421052631579
  0
LTYPE
  2
DIVIDE
 70
64
  3
__ . . __ . . 
 72
65
 73
6
 40
59.21052631578948
 49
23.68421052631579
 49
-11.8421052631579
 49
0
 49
-11.8421052631579
 49
0
 49
-11.8421052631579
  0
LTYPE
  2
DOT
 70
64
  3
..............
 72
65
 73
4
 40
23.68421052631579
 49
0
 49
-11.8421052631579
 49
0
 49
-11.8421052631579
  0
LTYPE
  2
HIDDEN
 70
64
  3
_ _ _ _ _ _ _
 72
65
 73
2
 40
17.76315789473684
 49
11.8421052631579
 49
-5.921052631578948
  0
LTYPE
  2
PHANTOM
 70
64
  3
_____ _ _ _____ _ _ 
 72
65
 73
6
 40
118.421052631579
 49
59.21052631578948
 49
-11.8421052631579
 49
11.8421052631579
 49
-11.8421052631579
 49
11.8421052631579
 49
-11.8421052631579
  0
ENDTAB
  0
TABLE
  2
LAYER
 70
5
  0
LAYER
  2
MITTELLINIEN
 70
0
 62
7
  6
CONTINUOUS
  0
LAYER
  2
1
 70
0
 62
7
  6
CONTINUOUS
  0
LAYER
  2
WANNE
 70
0
 62
7
  6
CONTINUOUS
  0
LAYER
  2
0
 70
0
 62
7
  6
CONTINUOUS
  0
ENDTAB
  0
TABLE
  2
STYLE
 70
4
  0
STYLE
  2
STANDARD
 70
0
 40
0
 41
1
 50
0
 71
0
 42
3.5
  3
txt
  4

  0
STYLE
  2
SIMPLEX
 70
0
 40
0
 41
1
 50
0
 71
0
 42
3.5
  3
simplex
  4

  0
STYLE
  2
COMPLEX
 70
0
 40
0
 41
1
 50
0
 71
0
 42
3.5
  3
complex
  4

  0
STYLE
  2
ITALIC
 70
0
 40
0
 41
1
 50
0
 71
0
 42
3.5
  3
italic
  4

  0
ENDTAB
  0
TABLE
  2
VIEW
 70
0
  0
ENDTAB
  0
ENDSEC
  0
SECTION
  2
BLOCKS
  0
BLOCK
  8
0
  2
DLX
 70
0
 10
-50
 20
-125
 30
0
  0
LINE
  8
1
 62
3
 10
415.3282234693179
 20
371.979895810782
 30
0
 11
415.0328203819372
 21
372.978447872363
 31
0
  0
LINE
  8
1
 62
3
 10
415.7649031508845
 20
373.7622048583319
 30
0
 11
415.0328203819372
 21
372.978447872363
 31
0
  0
LINE
  8
1
 62
3
 10
450.7959271195539
 20
343.2377087845271
 30
0
 11
454.1803346104349
 21
357.051175145079
 31
0
  0
LINE
  8
1
 62
3
 10
446.6077729643149
 20
343.2377087845271
 30
0
 11
449.9921804553309
 21
357.051175145079
 31
0
  0
LINE
  8
1
 62
3
 10
446.6077729643149
 20
343.2377087845271
 30
0
 11
450.7959271195539
 21
343.2377087845271
 31
0
  0
LINE
  8
1
 62
3
 10
445.5237989051459
 20
338.813466360341
 30
0
 11
449.7119530603339
 21
338.813466360341
 31
0
  0
LINE
  8
1
 62
3
 10
446.3275455694389
 20
325
 30
0
 11
452.6097768023359
 21
325
 31
0
  0
LINE
  8
1
 62
3
 10
449.9921804553309
 20
357.051175145079
 30
0
 11
443.7099492224659
 21
357.051175145079
 31
0
  0
LINE
  8
1
 62
3
 10
481.4033366192889
 20
357.051175145079
 30
0
 11
473.55054757827
 21
325
 31
0
  0
LINE
  8
1
 62
3
 10
474.037131327292
 20
352.6269327208391
 30
0
 11
468.3522904045678
 21
329.424242424182
 31
0
  0
LINE
  8
1
 62
3
 10
469.8489771720419
 20
352.6269327208391
 30
0
 11
474.037131327292
 21
352.6269327208391
 31
0
  0
LINE
  8
1
 62
3
 10
481.4033366192889
 20
357.051175145079
 30
0
 11
464.650719998459
 21
357.051175145079
 31
0
  0
LINE
  8
1
 62
3
 10
464.164136249467
 20
329.424242424182
 30
0
 11
469.8489771720419
 21
352.6269327208391
 31
0
  0
LINE
  8
1
 62
3
 10
464.650719998459
 20
357.051175145079
 30
0
 11
456.7979309574619
 21
325
 31
0
  0
LINE
  8
1
 62
3
 10
468.3522904045678
 20
329.424242424182
 30
0
 11
464.164136249467
 21
329.424242424182
 31
0
  0
LINE
  8
1
 62
3
 10
456.7979309574619
 20
325
 30
0
 11
473.55054757827
 21
325
 31
0
  0
LINE
  8
1
 62
3
 10
460.4625658433508
 20
357.051175145079
 30
0
 11
454.1803346104349
 21
357.051175145079
 31
0
  0
LINE
  8
1
 62
3
 10
443.7099492224659
 20
357.051175145079
 30
0
 11
435.8571601814729
 21
325
 31
0
  0
LINE
  8
1
 62
3
 10
442.1393914142609
 20
325
 30
0
 11
445.5237989051459
 21
338.813466360341
 31
0
  0
LINE
  8
1
 62
3
 10
446.3275455694389
 20
325
 30
0
 11
449.7119530603339
 21
338.813466360341
 31
0
  0
LINE
  8
1
 62
3
 10
452.6097768023359
 20
325
 30
0
 11
460.4625658433508
 21
357.051175145079
 31
0
  0
LINE
  8
1
 62
3
 10
435.8571601814729
 20
325
 30
0
 11
442.1393914142609
 21
325
 31
0
  0
LINE
  8
1
 62
3
 10
430.5296286865159
 20
345.990569084413
 30
0
 11
436.8118599193219
 21
345.990569084413
 31
0
  0
LINE
  8
1
 62
3
 10
432.1555897753099
 20
352.6269327208391
 30
0
 11
430.5296286865159
 21
345.990569084413
 31
0
  0
LINE
  8
1
 62
3
 10
427.9674356201178
 20
352.6269327208391
 30
0
 11
432.1555897753099
 21
352.6269327208391
 31
0
  0
LINE
  8
1
 62
3
 10
422.2825946974881
 20
329.424242424182
 30
0
 11
427.9674356201178
 21
352.6269327208391
 31
0
  0
LINE
  8
1
 62
3
 10
426.4707488526909
 20
329.424242424182
 30
0
 11
422.2825946974881
 21
329.424242424182
 31
0
  0
LINE
  8
1
 62
3
 10
428.0967099414779
 20
336.0606060606081
 30
0
 11
426.4707488526909
 21
329.424242424182
 31
0
  0
LINE
  8
1
 62
3
 10
434.378941174266
 20
336.0606060606081
 30
0
 11
428.0967099414779
 21
336.0606060606081
 31
0
  0
LINE
  8
1
 62
3
 10
431.6690060262919
 20
325
 30
0
 11
434.378941174266
 21
336.0606060606081
 31
0
  0
LINE
  8
1
 62
3
 10
414.9163894055382
 20
325
 30
0
 11
431.6690060262919
 21
325
 31
0
  0
LINE
  8
1
 62
3
 10
422.7691784465314
 20
357.051175145079
 30
0
 11
414.9163894055382
 21
325
 31
0
  0
LINE
  8
1
 62
3
 10
439.5217950672519
 20
357.051175145079
 30
0
 11
422.7691784465314
 21
357.051175145079
 31
0
  0
LINE
  8
1
 62
3
 10
436.8118599193219
 20
345.990569084413
 30
0
 11
439.5217950672519
 21
357.051175145079
 31
0
  0
LINE
  8
1
 62
3
 10
417.4970502321557
 20
352.6269327208391
 30
0
 11
418.581024291314
 21
357.051175145079
 31
0
  0
LINE
  8
1
 62
3
 10
407.0266648441757
 20
352.6269327208391
 30
0
 11
417.4970502321557
 21
352.6269327208391
 31
0
  0
LINE
  8
1
 62
3
 10
404.5937460991627
 20
342.696969696953
 30
0
 11
407.0266648441757
 21
352.6269327208391
 31
0
  0
LINE
  8
1
 62
3
 10
415.0641314872264
 20
342.696969696953
 30
0
 11
404.5937460991627
 21
342.696969696953
 31
0
  0
LINE
  8
1
 62
3
 10
410.7282352503025
 20
325
 30
0
 11
415.0641314872264
 21
342.696969696953
 31
0
  0
LINE
  8
1
 62
3
 10
393.9756186294799
 20
325
 30
0
 11
410.7282352503025
 21
325
 31
0
  0
LINE
  8
1
 62
3
 10
395.0595926887872
 20
329.424242424182
 30
0
 11
393.9756186294799
 21
325
 31
0
  0
LINE
  8
1
 62
3
 10
405.5299780766982
 20
329.424242424182
 30
0
 11
395.0595926887872
 21
329.424242424182
 31
0
  0
LINE
  8
1
 62
3
 10
407.6979261951165
 20
338.2727272727971
 30
0
 11
405.5299780766982
 21
329.424242424182
 31
0
  0
LINE
  8
1
 62
3
 10
397.2275408071509
 20
338.2727272727971
 30
0
 11
407.6979261951165
 21
338.2727272727971
 31
0
  0
LINE
  8
1
 62
3
 10
401.8284076705422
 20
357.051175145079
 30
0
 11
397.2275408071509
 21
338.2727272727971
 31
0
  0
LINE
  8
1
 62
3
 10
418.581024291314
 20
357.051175145079
 30
0
 11
401.8284076705422
 21
357.051175145079
 31
0
  0
LINE
  8
1
 62
3
 10
397.6402535153793
 20
357.051175145079
 30
0
 11
389.7874644743642
 21
325
 31
0
  0
LINE
  8
1
 62
3
 10
391.3580222825731
 20
357.051175145079
 30
0
 11
397.6402535153793
 21
357.051175145079
 31
0
  0
LINE
  8
1
 62
3
 10
389.7874644743642
 20
325
 30
0
 11
371.9878093147745
 21
325
 31
0
  0
LINE
  8
1
 62
3
 10
384.5892073007672
 20
329.424242424182
 30
0
 11
391.3580222825731
 21
357.051175145079
 31
0
  0
LINE
  8
1
 62
3
 10
379.3540146067826
 20
329.424242424182
 30
0
 11
384.5892073007672
 21
329.424242424182
 31
0
  0
LINE
  8
1
 62
3
 10
386.1228295885776
 20
357.051175145079
 30
0
 11
379.3540146067826
 21
329.424242424182
 31
0
  0
LINE
  8
1
 62
3
 10
379.8405983557677
 20
357.051175145079
 30
0
 11
386.1228295885776
 21
357.051175145079
 31
0
  0
LINE
  8
1
 62
3
 10
371.9878093147745
 20
325
 30
0
 11
379.8405983557677
 21
357.051175145079
 31
0
  0
LINE
  8
1
 62
3
 10
367.799655159648
 20
325
 30
0
 11
350
 21
325
 31
0
  0
LINE
  8
1
 62
3
 10
378.3623793485676
 20
368.1117812056621
 30
0
 11
367.799655159648
 21
325
 31
0
  0
LINE
  8
1
 62
3
 10
354.3890522712754
 20
368.1117812056621
 30
0
 11
378.3623793485676
 21
368.1117812056621
 31
0
  0
LINE
  8
1
 62
3
 10
353.0340846972904
 20
362.581478175405
 30
0
 11
354.3890522712754
 21
368.1117812056621
 31
0
  0
LINE
  8
1
 62
3
 10
370.7251805418237
 20
362.581478175405
 30
0
 11
353.0340846972904
 21
362.581478175405
 31
0
  0
LINE
  8
1
 62
3
 10
362.6013979859417
 20
329.424242424182
 30
0
 11
370.7251805418237
 21
362.581478175405
 31
0
  0
LINE
  8
1
 62
3
 10
357.3662052920627
 20
329.424242424182
 30
0
 11
362.6013979859417
 21
329.424242424182
 31
0
  0
LINE
  8
1
 62
3
 10
364.1350202737522
 20
357.051175145079
 30
0
 11
357.3662052920627
 21
329.424242424182
 31
0
  0
LINE
  8
1
 62
3
 10
357.8527890410551
 20
357.051175145079
 30
0
 11
364.1350202737522
 21
357.051175145079
 31
0
  0
LINE
  8
1
 62
3
 10
350
 20
325
 30
0
 11
357.8527890410551
 21
357.051175145079
 31
0
  0
LINE
  8
1
 62
3
 10
485.1196812335149
 20
331.1939393939099
 30
0
 11
494.1648417396059
 21
368.1117812056621
 31
0
  0
LINE
  8
1
 62
3
 10
494.1648417396059
 20
368.1117812056621
 30
0
 11
488.301425922338
 21
368.1117812056621
 31
0
  0
LINE
  8
1
 62
3
 10
488.301425922338
 20
368.1117812056621
 30
0
 11
477.738701733397
 21
325
 31
0
  0
LINE
  8
1
 62
3
 10
495.643060746967
 20
357.051175145079
 30
0
 11
489.958219824279
 21
333.8484848484771
 31
0
  0
LINE
  8
1
 62
3
 10
489.958219824279
 20
333.8484848484771
 30
0
 11
505.6637979062
 21
333.8484848484771
 31
0
  0
LINE
  8
1
 62
3
 10
505.6637979062
 20
333.8484848484771
 30
0
 11
511.3486388288079
 21
357.051175145079
 31
0
  0
LINE
  8
1
 62
3
 10
511.3486388288079
 20
357.051175145079
 30
0
 11
506.113446134885
 21
357.051175145079
 31
0
  0
LINE
  8
1
 62
3
 10
506.113446134885
 20
357.051175145079
 30
0
 11
501.5125792714898
 21
338.2727272727971
 31
0
  0
LINE
  8
1
 62
3
 10
501.5125792714898
 20
338.2727272727971
 30
0
 11
496.277386577538
 21
338.2727272727971
 31
0
  0
LINE
  8
1
 62
3
 10
496.277386577538
 20
338.2727272727971
 30
0
 11
500.878253440889
 21
357.051175145079
 31
0
  0
LINE
  8
1
 62
3
 10
500.878253440889
 20
357.051175145079
 30
0
 11
495.643060746967
 21
357.051175145079
 31
0
  0
LINE
  8
1
 62
3
 10
517.9069775849489
 20
357.051175145079
 30
0
 11
513.8615313219339
 21
357.051175145079
 31
0
  0
LINE
  8
1
 62
3
 10
513.8615313219339
 20
357.051175145079
 30
0
 11
517.9838268441308
 21
346.415301218661
 31
0
  0
LINE
  8
1
 62
3
 10
517.9838268441308
 20
346.415301218661
 30
0
 11
508.1766903993409
 21
333.8484848484771
 31
0
  0
LINE
  8
1
 62
3
 10
508.1766903993409
 20
333.8484848484771
 30
0
 11
512.222136662338
 21
333.8484848484771
 31
0
  0
LINE
  8
1
 62
3
 10
512.222136662338
 20
333.8484848484771
 30
0
 11
519.3262692424398
 21
342.951685370502
 31
0
  0
LINE
  8
1
 62
3
 10
519.3262692424398
 20
342.951685370502
 30
0
 11
522.8545249371239
 21
333.8484848484771
 31
0
  0
LINE
  8
1
 62
3
 10
522.8545249371239
 20
333.8484848484771
 30
0
 11
526.8999712001719
 21
333.8484848484771
 31
0
  0
LINE
  8
1
 62
3
 10
526.8999712001719
 20
333.8484848484771
 30
0
 11
522.0292731071679
 21
346.415301218603
 31
0
  0
LINE
  8
1
 62
3
 10
522.0292731071679
 20
346.415301218603
 30
0
 11
530.32950315225
 21
357.051175145079
 31
0
  0
LINE
  8
1
 62
3
 10
530.32950315225
 20
357.051175145079
 30
0
 11
526.284056889192
 21
357.051175145079
 31
0
  0
LINE
  8
1
 62
3
 10
526.284056889192
 20
357.051175145079
 30
0
 11
520.686830708906
 21
349.878917066824
 31
0
  0
LINE
  8
1
 62
3
 10
520.686830708906
 20
349.878917066824
 30
0
 11
517.9069775849489
 21
357.051175145079
 31
0
  0
LINE
  8
1
 62
3
 10
527.928830785688
 20
331.1939393939099
 30
0
 11
530.3295031522068
 21
325
 31
0
  0
LINE
  8
1
 62
3
 10
527.928830785688
 20
331.1939393939099
 30
0
 11
485.1196812335149
 21
331.1939393939099
 31
0
  0
LINE
  8
1
 62
3
 10
530.3295031522068
 20
325
 30
0
 11
477.738701733397
 21
325
 31
0
  0
LINE
  8
1
 62
3
 10
386.7386876589662
 20
368.1117812056621
 30
0
 11
389.9906098364481
 21
381.38450847832
 31
0
  0
LINE
  8
1
 62
3
 10
389.9906098364481
 20
381.38450847832
 30
0
 11
402.5550723021661
 21
381.38450847832
 31
0
  0
LINE
  8
1
 62
3
 10
402.5550723021661
 20
381.38450847832
 30
0
 11
399.3031501244914
 21
368.1117812056621
 31
0
  0
LINE
  8
1
 62
3
 10
399.3031501244914
 20
368.1117812056621
 30
0
 11
386.7386876589662
 21
368.1117812056621
 31
0
  0
LINE
  8
1
 62
3
 10
397.7510600764872
 20
370.3239024177931
 30
0
 11
389.3747517661323
 21
370.3239024177931
 31
0
  0
LINE
  8
1
 62
3
 10
399.9190081949637
 20
379.172387266269
 30
0
 11
397.7510600764872
 21
370.3239024177931
 31
0
  0
LINE
  8
1
 62
3
 10
391.5426998844741
 20
379.172387266269
 30
0
 11
399.9190081949637
 21
379.172387266269
 31
0
  0
LINE
  8
1
 62
3
 10
389.3747517661323
 20
370.3239024177931
 30
0
 11
391.5426998844741
 21
379.172387266269
 31
0
  0
LINE
  8
1
 62
3
 10
405.0679647951583
 20
381.38450847832
 30
0
 11
401.8160426176219
 21
368.1117812056621
 31
0
  0
LINE
  8
1
 62
3
 10
405.0679647951583
 20
381.38450847832
 30
0
 11
417.632427260738
 21
381.38450847832
 31
0
  0
LINE
  8
1
 62
3
 10
417.632427260738
 20
381.38450847832
 30
0
 11
415.7649031508845
 21
373.7622048583319
 31
0
  0
LINE
  8
1
 62
3
 10
414.3805050832052
 20
368.1117812056621
 30
0
 11
412.2864280055655
 21
368.1117812056621
 31
0
  0
LINE
  8
1
 62
3
 10
412.2864280055655
 20
368.1117812056621
 30
0
 11
413.3704020649384
 21
372.5360236298441
 31
0
  0
LINE
  8
1
 62
3
 10
413.3704020649384
 20
372.5360236298441
 30
0
 11
404.9940937544088
 21
372.5360236298441
 31
0
  0
LINE
  8
1
 62
3
 10
405.5360807840007
 20
374.7481448420331
 30
0
 11
413.9123890943811
 21
374.7481448420331
 31
0
  0
LINE
  8
1
 62
3
 10
413.9123890943811
 20
374.7481448420331
 30
0
 11
414.996363153703
 21
379.172387266269
 31
0
  0
LINE
  8
1
 62
3
 10
414.996363153703
 20
379.172387266269
 30
0
 11
406.6200548431843
 21
379.172387266269
 31
0
  0
LINE
  8
1
 62
3
 10
406.6200548431843
 20
379.172387266269
 30
0
 11
405.5360807840007
 21
374.7481448420331
 31
0
  0
LINE
  8
1
 62
3
 10
415.3282234693179
 20
371.979895810782
 30
0
 11
414.3805050832052
 21
368.1117812056621
 31
0
  0
LINE
  8
1
 62
3
 10
401.8160426176219
 20
368.1117812056621
 30
0
 11
403.9101196952979
 21
368.1117812056621
 31
0
  0
LINE
  8
1
 62
3
 10
403.9101196952979
 20
368.1117812056621
 30
0
 11
404.9940937544088
 21
372.5360236298441
 31
0
  0
LINE
  8
1
 62
3
 10
422.2393968314646
 20
381.38450847832
 30
0
 11
420.1453197539013
 21
381.38450847832
 31
0
  0
LINE
  8
1
 62
3
 10
420.1453197539013
 20
381.38450847832
 30
0
 11
416.8933975763357
 21
368.1117812056621
 31
0
  0
LINE
  8
1
 62
3
 10
416.8933975763357
 20
368.1117812056621
 30
0
 11
418.9874746540554
 21
368.1117812056621
 31
0
  0
LINE
  8
1
 62
3
 10
418.9874746540554
 20
368.1117812056621
 30
0
 11
422.2393968314646
 21
381.38450847832
 31
0
  0
LINE
  8
1
 62
3
 10
421.5003671470404
 20
368.1117812056621
 30
0
 11
424.7522893245841
 21
381.38450847832
 31
0
  0
LINE
  8
1
 62
3
 10
424.7522893245841
 20
381.38450847832
 30
0
 11
437.3167517901749
 21
381.38450847832
 31
0
  0
LINE
  8
1
 62
3
 10
437.3167517901749
 20
381.38450847832
 30
0
 11
436.1785790280479
 21
376.739053932891
 31
0
  0
LINE
  8
1
 62
3
 10
434.0648296126529
 20
368.1117812056621
 30
0
 11
421.5003671470404
 21
368.1117812056621
 31
0
  0
LINE
  8
1
 62
3
 10
432.5127395646049
 20
370.3239024177931
 30
0
 11
424.1364312542755
 21
370.3239024177931
 31
0
  0
LINE
  8
1
 62
3
 10
434.6806876828999
 20
379.172387266269
 30
0
 11
434.0845019505219
 21
376.739053932891
 31
0
  0
LINE
  8
1
 62
3
 10
426.3043793726031
 20
379.172387266269
 30
0
 11
434.6806876828999
 21
379.172387266269
 31
0
  0
LINE
  8
1
 62
3
 10
424.1364312542755
 20
370.3239024177931
 30
0
 11
426.3043793726031
 21
379.172387266269
 31
0
  0
LINE
  8
1
 62
3
 10
435.6907907014249
 20
374.7481448420331
 30
0
 11
429.4085594686189
 21
374.7481448420331
 31
0
  0
LINE
  8
1
 62
3
 10
435.6907907014249
 20
374.7481448420331
 30
0
 11
434.0648296126529
 21
368.1117812056621
 31
0
  0
LINE
  8
1
 62
3
 10
429.4085594686189
 20
374.7481448420331
 30
0
 11
428.8665724389718
 21
372.5360236298441
 31
0
  0
LINE
  8
1
 62
3
 10
428.8665724389718
 20
372.5360236298441
 30
0
 11
433.0547265943719
 21
372.5360236298441
 31
0
  0
LINE
  8
1
 62
3
 10
433.0547265943719
 20
372.5360236298441
 30
0
 11
432.5127395646049
 21
370.3239024177931
 31
0
  0
LINE
  8
1
 62
3
 10
434.0845019505219
 20
376.739053932891
 30
0
 11
436.1785790280479
 21
376.739053932891
 31
0
  0
LINE
  8
1
 62
3
 10
436.5777221057689
 20
368.1117812056621
 30
0
 11
438.671799183329
 21
368.1117812056621
 31
0
  0
LINE
  8
1
 62
3
 10
438.671799183329
 20
368.1117812056621
 30
0
 11
441.923721360898
 21
381.38450847832
 31
0
  0
LINE
  8
1
 62
3
 10
439.8296442833339
 20
381.38450847832
 30
0
 11
436.5777221057689
 21
368.1117812056621
 31
0
  0
LINE
  8
1
 62
3
 10
441.923721360898
 20
381.38450847832
 30
0
 11
439.8296442833339
 21
381.38450847832
 31
0
  0
LINE
  8
1
 62
3
 10
441.1846916764989
 20
368.1117812056621
 30
0
 11
444.4366138540139
 21
381.38450847832
 31
0
  0
LINE
  8
1
 62
3
 10
444.4366138540139
 20
381.38450847832
 30
0
 11
447.5777294703549
 21
381.38450847832
 31
0
  0
LINE
  8
1
 62
3
 10
447.5777294703549
 20
381.38450847832
 30
0
 11
452.0615673366299
 21
369.770872114746
 31
0
  0
LINE
  8
1
 62
3
 10
452.0615673366299
 20
369.770872114746
 30
0
 11
454.9069992419829
 21
381.38450847832
 31
0
  0
LINE
  8
1
 62
3
 10
454.9069992419829
 20
381.38450847832
 30
0
 11
457.0010763195969
 21
381.38450847832
 31
0
  0
LINE
  8
1
 62
3
 10
457.0010763195969
 20
381.38450847832
 30
0
 11
453.7491541419769
 21
368.1117812056621
 31
0
  0
LINE
  8
1
 62
3
 10
453.7491541419769
 20
368.1117812056621
 30
0
 11
450.5064756532079
 21
368.1117812056621
 31
0
  0
LINE
  8
1
 62
3
 10
450.5064756532079
 20
368.1117812056621
 30
0
 11
446.7253193174979
 21
377.9053946295351
 31
0
  0
LINE
  8
1
 62
3
 10
446.7253193174979
 20
377.9053946295351
 30
0
 11
446.0847710509879
 21
379.5644855385979
 31
0
  0
LINE
  8
1
 62
3
 10
446.0847710509879
 20
379.5644855385979
 30
0
 11
443.2787687540589
 21
368.1117812056621
 31
0
  0
LINE
  8
1
 62
3
 10
443.2787687540589
 20
368.1117812056621
 30
0
 11
441.1846916764989
 21
368.1117812056621
 31
0
  0
LINE
  8
1
 62
3
 10
456.2620466350929
 20
368.1117812056621
 30
0
 11
463.77347691399
 21
381.38450847832
 31
0
  0
LINE
  8
1
 62
3
 10
463.77347691399
 20
381.38450847832
 30
0
 11
467.818923176965
 21
381.38450847832
 31
0
  0
LINE
  8
1
 62
3
 10
467.818923176965
 20
381.38450847832
 30
0
 11
468.826509100727
 21
368.1117812056621
 31
0
  0
LINE
  8
1
 62
3
 10
468.826509100727
 20
368.1117812056621
 30
0
 11
466.7968269376579
 21
368.1117812056621
 31
0
  0
LINE
  8
1
 62
3
 10
466.7968269376579
 20
368.1117812056621
 30
0
 11
466.6288959503909
 21
370.3239024177931
 31
0
  0
LINE
  8
1
 62
3
 10
466.6288959503909
 20
370.3239024177931
 30
0
 11
459.892748670027
 21
370.3239024177931
 31
0
  0
LINE
  8
1
 62
3
 10
459.892748670027
 20
370.3239024177931
 30
0
 11
458.6408436236638
 21
368.1117812056621
 31
0
  0
LINE
  8
1
 62
3
 10
458.6408436236638
 20
368.1117812056621
 30
0
 11
456.2620466350929
 21
368.1117812056621
 31
0
  0
LINE
  8
1
 62
3
 10
461.144653716558
 20
372.5360236298441
 30
0
 11
466.4609649630688
 21
372.5360236298441
 31
0
  0
LINE
  8
1
 62
3
 10
466.4609649630688
 20
372.5360236298441
 30
0
 11
465.9571720012139
 21
379.172387266269
 31
0
  0
LINE
  8
1
 62
3
 10
465.9571720012139
 20
379.172387266269
 30
0
 11
464.9003688559239
 21
379.172387266269
 31
0
  0
LINE
  8
1
 62
3
 10
461.144653716558
 20
372.5360236298441
 30
0
 11
464.9003688559239
 21
379.172387266269
 31
0
  0
LINE
  8
1
 62
3
 10
474.591323771416
 20
381.38450847832
 30
0
 11
471.339401593847
 21
368.1117812056621
 31
0
  0
LINE
  8
1
 62
3
 10
471.339401593847
 20
368.1117812056621
 30
0
 11
483.9038640594258
 21
368.1117812056621
 31
0
  0
LINE
  8
1
 62
3
 10
483.9038640594258
 20
368.1117812056621
 30
0
 11
484.445851089087
 21
370.3239024177931
 31
0
  0
LINE
  8
1
 62
3
 10
484.445851089087
 20
370.3239024177931
 30
0
 11
473.9754657010669
 21
370.3239024177931
 31
0
  0
LINE
  8
1
 62
3
 10
473.9754657010669
 20
370.3239024177931
 30
0
 11
476.68540084903
 21
381.38450847832
 31
0
  0
LINE
  8
1
 62
3
 10
476.68540084903
 20
381.38450847832
 30
0
 11
474.591323771416
 21
381.38450847832
 31
0
  0
LINE
  8
1
 62
3
 10
521.206636135699
 20
375.2001112138419
 30
0
 11
521.206636135699
 21
372.4510557882821
 31
0
  0
LINE
  8
1
 62
3
 10
520.3341884365839
 20
372.4510557882821
 30
0
 11
520.3341884365839
 21
379.3095239634561
 31
0
  0
LINE
  8
1
 62
3
 10
520.3341884365839
 20
379.3095239634561
 30
0
 11
522.7761082958239
 21
379.3095239634561
 31
0
  0
LINE
  8
1
 62
3
 10
522.7761082958239
 20
379.3095239634561
 30
0
 11
523.0724648781759
 21
379.3095239634561
 31
0
  0
LINE
  8
1
 62
3
 10
524.9060993927419
 20
374.3306895546259
 30
0
 11
524.9060993927419
 21
372.4510557882821
 31
0
  0
LINE
  8
1
 62
3
 10
524.9060993927419
 20
372.4510557882821
 30
0
 11
523.9449125772369
 21
372.4510557882821
 31
0
  0
LINE
  8
1
 62
3
 10
523.9449125772369
 20
372.4510557882821
 30
0
 11
523.9449125772369
 21
374.0729110559001
 31
0
  0
LINE
  8
1
 62
3
 10
522.931697837317
 20
375.2001112138419
 30
0
 11
521.206636135699
 21
375.2001112138419
 31
0
  0
LINE
  8
1
 62
3
 10
521.206636135699
 20
372.4510557882821
 30
0
 11
520.3341884365839
 21
372.4510557882821
 31
0
  0
LINE
  8
1
 62
3
 10
521.206636135699
 20
376.050334541276
 30
0
 11
523.194119363641
 21
376.050334541276
 31
0
  0
LINE
  8
1
 62
3
 10
523.062609127785
 20
378.5059925312781
 30
0
 11
521.206636135699
 21
378.5059925312781
 31
0
  0
LINE
  8
1
 62
3
 10
521.206636135699
 20
378.5059925312781
 30
0
 11
521.206636135699
 21
376.050334541276
 31
0
  0
ARC
  8
1
 62
3
 10
522.9426940693159
 20
377.3039199213811
 30
0
 40
2.00979800886174
 50
304.0700115354277
 51
86.29788871825861
  0
ARC
  8
1
 62
3
 10
522.8643762433019
 20
377.2640259305511
 30
0
 40
1.257687287767297
 50
285.1995809529421
 51
80.9313952387881
  0
ARC
  8
1
 62
3
 10
522.789193605106
 20
374.0530393898221
 30
0
 40
1.155889798231655
 50
0.9850581704851609
 51
82.91825463293205
  0
ARC
  8
1
 62
3
 10
523.514586791596
 20
374.3622336822259
 30
0
 40
1.39187009132817
 50
358.7013873342734
 51
66.54486649404646
  0
CIRCLE
  8
1
 62
3
 10
522.7358752379369
 20
375.8787878787551
 30
0
 40
5.972862778753957
  0
CIRCLE
  8
1
 62
3
 10
522.7358752379369
 20
375.8787878787551
 30
0
 40
5.530127989695927
  0
ENDBLK
  8
0
  0
BLOCK
  8
0
  2
WANNENF_SSE
 70
0
 10
465
 20
0
 30
0
  0
LINE
  8
1
 62
2
 10
1295
 20
25
 30
0
 11
1335
 21
25
 31
0
  0
LINE
  8
1
 62
2
 10
1300
 20
55
 30
0
 11
1330
 21
55
 31
0
  0
LINE
  8
1
 62
2
 10
1305
 20
85
 30
0
 11
1325
 21
85
 31
0
  0
LINE
  8
1
 62
2
 10
1295.538080823754
 20
148.4298963165811
 30
0
 11
1335.524695330924
 21
149.4646234569218
 31
0
  0
LINE
  8
1
 62
2
 10
1335.395354438382
 20
154.4629502703183
 30
0
 11
1340.393681251778
 21
154.5922911628604
 31
0
  0
LINE
  8
1
 62
2
 10
1300.407066744609
 20
153.5575640225197
 30
0
 11
1330.397027624985
 21
154.3336093777762
 31
0
  0
LINE
  8
1
 62
2
 10
1290.410413117816
 20
153.2988822374355
 30
0
 11
1295.408739931211
 21
153.4282231299776
 31
0
  0
LINE
  8
1
 62
2
 10
1340.134999466693
 20
164.5889447896534
 30
0
 11
1355.129979906882
 21
164.9769674672807
 31
0
  0
LINE
  8
1
 62
2
 10
1275.156750892541
 20
162.9075131865993
 30
0
 11
1290.15173133273
 21
163.2955358642275
 31
0
  0
LINE
  8
1
 62
2
 10
1330.267686732443
 20
159.3319361911717
 30
0
 11
1335.266013545839
 21
159.4612770837139
 31
0
  0
LINE
  8
1
 62
2
 10
1295.279399038669
 20
158.4265499433732
 30
0
 11
1300.277725852066
 21
158.5558908359162
 31
0
  0
LINE
  8
1
 62
2
 10
1335
 20
25
 30
0
 11
1335
 21
0
 31
0
  0
LINE
  8
1
 62
2
 10
1295
 20
25
 30
0
 11
1295
 21
0
 31
0
  0
LINE
  8
1
 62
2
 10
1300
 20
55
 30
0
 11
1300
 21
25
 31
0
  0
LINE
  8
1
 62
2
 10
1330
 20
55
 30
0
 11
1330
 21
25
 31
0
  0
LINE
  8
1
 62
2
 10
1325
 20
85
 30
0
 11
1330
 21
55
 31
0
  0
LINE
  8
1
 62
2
 10
1305
 20
85
 30
0
 11
1300
 21
55
 31
0
  0
LINE
  8
1
 62
2
 10
1320
 20
149.062893432952
 30
0
 11
1320
 21
85
 31
0
  0
LINE
  8
1
 62
2
 10
1310
 20
148.8041250543101
 30
0
 11
1310
 21
85
 31
0
  0
LINE
  8
1
 62
2
 10
1355.000639014339
 20
169.9752942806772
 30
0
 11
1355.129979906882
 21
164.9769674672807
 31
0
  0
LINE
  8
1
 62
2
 10
1335.007331760754
 20
169.4579307105068
 30
0
 11
1355.000639014339
 21
169.9752942806772
 31
0
  0
LINE
  8
1
 62
2
 10
1335.266013545839
 20
159.4612770837139
 30
0
 11
1335.007331760754
 21
169.4579307105068
 31
0
  0
LINE
  8
1
 62
2
 10
1340.393681251778
 20
154.5922911628604
 30
0
 11
1340.134999466693
 21
164.5889447896534
 31
0
  0
LINE
  8
1
 62
2
 10
1330.397027624985
 20
154.3336093777762
 30
0
 11
1330.267686732443
 21
159.3319361911717
 31
0
  0
LINE
  8
1
 62
2
 10
1335.524695330924
 20
149.4646234569218
 30
0
 11
1335.395354438382
 21
154.4629502703183
 31
0
  0
LINE
  8
1
 62
2
 10
1300.277725852066
 20
158.5558908359162
 30
0
 11
1300.407066744609
 21
153.5575640225197
 31
0
  0
LINE
  8
1
 62
2
 10
1295.020717253584
 20
168.4232035701662
 30
0
 11
1295.279399038669
 21
158.4265499433732
 31
0
  0
LINE
  8
1
 62
2
 10
1275.027409999999
 20
167.9058399999958
 30
0
 11
1295.020717253584
 21
168.4232035701662
 31
0
  0
LINE
  8
1
 62
2
 10
1275.027409999999
 20
167.9058399999958
 30
0
 11
1275.156750892541
 21
162.9075131865993
 31
0
  0
LINE
  8
1
 62
2
 10
1290.410413117816
 20
153.2988822374355
 30
0
 11
1290.15173133273
 21
163.2955358642275
 31
0
  0
LINE
  8
1
 62
2
 10
1295.538080823754
 20
148.4298963165811
 30
0
 11
1295.408739931211
 21
153.4282231299776
 31
0
  0
LINE
  8
1
 62
2
 10
465
 20
25
 30
0
 11
505
 21
25
 31
0
  0
LINE
  8
1
 62
2
 10
470
 20
55
 30
0
 11
500
 21
55
 31
0
  0
LINE
  8
1
 62
2
 10
475
 20
85
 30
0
 11
495
 21
85
 31
0
  0
LINE
  8
1
 62
2
 10
464.4753046690757
 20
149.4646234569218
 30
0
 11
504.4619191762461
 21
148.4298963165811
 31
0
  0
LINE
  8
1
 62
2
 10
459.6063187482223
 20
154.5922911628604
 30
0
 11
464.6046455616179
 21
154.4629502703183
 31
0
  0
LINE
  8
1
 62
2
 10
469.6029723750153
 20
154.3336093777762
 30
0
 11
499.5929332553915
 21
153.5575640225197
 31
0
  0
LINE
  8
1
 62
2
 10
504.591260068789
 20
153.4282231299776
 30
0
 11
509.589586882184
 21
153.2988822374355
 31
0
  0
LINE
  8
1
 62
2
 10
444.870020093118
 20
164.9769674672807
 30
0
 11
459.865000533307
 21
164.5889447896534
 31
0
  0
LINE
  8
1
 62
2
 10
509.848268667271
 20
163.2955358642275
 30
0
 11
524.8432491074591
 21
162.9075131865993
 31
0
  0
LINE
  8
1
 62
2
 10
464.7339864541609
 20
159.4612770837139
 30
0
 11
469.7323132675574
 21
159.3319361911717
 31
0
  0
LINE
  8
1
 62
2
 10
499.7222741479345
 20
158.5558908359162
 30
0
 11
504.720600961331
 21
158.4265499433732
 31
0
  0
LINE
  8
1
 62
2
 10
465
 20
0
 30
0
 11
465
 21
25
 31
0
  0
LINE
  8
1
 62
2
 10
505
 20
0
 30
0
 11
505
 21
25
 31
0
  0
LINE
  8
1
 62
2
 10
500
 20
25
 30
0
 11
500
 21
55
 31
0
  0
LINE
  8
1
 62
2
 10
470
 20
25
 30
0
 11
470
 21
55
 31
0
  0
LINE
  8
1
 62
2
 10
470
 20
55
 30
0
 11
475
 21
85
 31
0
  0
LINE
  8
1
 62
2
 10
500
 20
55
 30
0
 11
495
 21
85
 31
0
  0
LINE
  8
1
 62
2
 10
480
 20
85
 30
0
 11
480
 21
149.062893432952
 31
0
  0
LINE
  8
1
 62
2
 10
490
 20
85
 30
0
 11
490
 21
148.8041250543101
 31
0
  0
LINE
  8
1
 62
2
 10
444.870020093118
 20
164.9769674672807
 30
0
 11
444.999360985661
 21
169.9752942806772
 31
0
  0
LINE
  8
1
 62
2
 10
444.999360985661
 20
169.9752942806772
 30
0
 11
464.9926682392461
 21
169.4579307105068
 31
0
  0
LINE
  8
1
 62
2
 10
464.9926682392461
 20
169.4579307105068
 30
0
 11
464.7339864541609
 21
159.4612770837139
 31
0
  0
LINE
  8
1
 62
2
 10
459.865000533307
 20
164.5889447896534
 30
0
 11
459.6063187482223
 21
154.5922911628604
 31
0
  0
LINE
  8
1
 62
2
 10
469.7323132675574
 20
159.3319361911717
 30
0
 11
469.6029723750153
 21
154.3336093777762
 31
0
  0
LINE
  8
1
 62
2
 10
464.6046455616179
 20
154.4629502703183
 30
0
 11
464.4753046690757
 21
149.4646234569218
 31
0
  0
LINE
  8
1
 62
2
 10
499.5929332553915
 20
153.5575640225197
 30
0
 11
499.7222741479345
 21
158.5558908359162
 31
0
  0
LINE
  8
1
 62
2
 10
504.720600961331
 20
158.4265499433732
 30
0
 11
504.979282746416
 21
168.4232035701662
 31
0
  0
LINE
  8
1
 62
2
 10
504.979282746416
 20
168.4232035701662
 30
0
 11
524.972590000001
 21
167.9058399999958
 31
0
  0
LINE
  8
1
 62
2
 10
524.8432491074591
 20
162.9075131865993
 30
0
 11
524.972590000001
 21
167.9058399999958
 31
0
  0
LINE
  8
1
 62
2
 10
509.848268667271
 20
163.2955358642275
 30
0
 11
509.589586882184
 21
153.2988822374355
 31
0
  0
LINE
  8
1
 62
2
 10
504.591260068789
 20
153.4282231299776
 30
0
 11
504.4619191762461
 21
148.4298963165811
 31
0
  0
ENDBLK
  8
0
  0
BLOCK
  8
0
  2
WANNE_ANCONA_112
 70
0
 10
651.3288259999999
 20
-55.75790099999995
 30
0
  0
LINE
  8
1
 62
7
 10
1403.987049999999
 20
173.1973699999944
 30
0
 11
980.740670000002
 21
160.9008900000008
 31
0
  0
LINE
  8
1
 62
7
 10
962.7148497999831
 20
180.4288702166846
 30
0
 11
980.740670000002
 21
160.9008900000008
 31
0
  0
LINE
  8
1
 62
7
 10
947.801151873856
 20
180
 30
0
 11
1434.683919999999
 21
194.0011899999954
 31
0
  0
LINE
  8
1
 62
7
 10
1403.987049999999
 20
173.1973699999944
 30
0
 11
1434.68589
 21
194.0012399999978
 31
0
  0
LINE
  8
1
 62
7
 10
819.2593299999969
 20
160.9008900000008
 30
0
 11
396.0129500000003
 21
173.1973699999944
 31
0
  0
LINE
  8
1
 62
7
 10
819.2593299999969
 20
160.9008900000008
 30
0
 11
837.2851502000169
 21
180.4288702166846
 31
0
  0
LINE
  8
1
 62
7
 10
365.3160800000005
 20
194.0011899999954
 30
0
 11
852.198848126144
 21
180
 31
0
  0
LINE
  8
1
 62
7
 10
365.3141099999994
 20
194.0012399999978
 30
0
 11
396.0129500000003
 21
173.1973699999944
 31
0
  0
LINE
  8
1
 62
7
 10
855
 20
180
 30
0
 11
874
 21
160
 31
0
  0
LINE
  8
1
 62
7
 10
945
 20
180
 30
0
 11
926
 21
160
 31
0
  0
LINE
  8
1
 62
7
 10
852.198848126144
 20
180
 30
0
 11
947.801151873856
 21
180
 31
0
  0
LINE
  8
1
 62
7
 10
874
 20
160
 30
0
 11
926
 21
160
 31
0
  0
LINE
  8
1
 62
3
  6
DASHDOT
 10
900
 20
205
 30
0
 11
900
 21
135
 31
0
  0
LINE
  8
1
 62
7
 10
1800
 20
610
 30
0
 11
1800
 21
575
 31
0
  0
LINE
  8
1
 62
7
 10
0
 20
610
 30
0
 11
1800
 21
610
 31
0
  0
LINE
  8
1
 62
7
 10
0
 20
575
 30
0
 11
1800
 21
575
 31
0
  0
LINE
  8
1
 62
7
 10
0
 20
610
 30
0
 11
0
 21
575
 31
0
  0
LINE
  8
MITTELLINIEN
 62
3
  6
DASHDOT
 10
900
 20
593.9899549999991
 30
0
 11
900
 21
464.3219809999989
 31
0
  0
LINE
  8
MITTELLINIEN
 62
3
  6
DASHDOT
 10
963.989954999998
 20
530
 30
0
 11
834.3219809999871
 21
530
 31
0
  0
ARC
  8
1
 62
7
 10
1432.066251579356
 20
293.9668923930294
 30
0
 40
99.99996921446063
 50
271.499985324799
 51
330.3161981845413
  0
ARC
  8
1
 62
7
 10
2344.272537030703
 20
-226.0043347378923
 30
0
 40
949.9954518522163
 50
140.9130722557724
 51
150.3162145350931
  0
ARC
  8
1
 62
7
 10
1218.801039499739
 20
688.2151931233479
 30
0
 40
499.9988301330887
 50
320.9130774459372
 51
330.5377097368834
  0
ARC
  8
1
 62
7
 10
896.36783711473
 20
868.0605312615139
 30
0
 40
869.1941871869428
 50
330.6696323347895
 51
340.2958485325657
  0
ARC
  8
1
 62
7
 10
367.9337484206433
 20
293.9668923930294
 30
0
 40
99.99996921446056
 50
209.6838018154587
 51
268.5000146752011
  0
ARC
  8
1
 62
7
 10
-544.2725370307035
 20
-226.0043347378923
 30
0
 40
949.9954518522163
 50
29.68378546490694
 51
39.08692774422759
  0
ARC
  8
1
 62
7
 10
581.1989605002609
 20
688.2151931233479
 30
0
 40
499.9988301330886
 50
209.4622902631166
 51
219.0869225540627
  0
ARC
  8
1
 62
7
 10
903.63216288527
 20
868.0605312615139
 30
0
 40
869.1941871869433
 50
199.7041514674342
 51
209.3303676652105
  0
CIRCLE
  8
WANNE
 62
7
 10
899.9999999999941
 20
530
 30
0
 40
26
  0
INSERT
  8
0
  2
WANNENF_SSE
 10
465
 20
0
 30
0
  0
ENDBLK
  8
0
  0
ENDSEC
  0
SECTION
  2
ENTITIES
  0
TEXT
  8
1
 62
2
 10
350
 20
250
 30
0
 40
35
  1
ANCONA 112
 41
0.5993999999999999
  0
TEXT
  8
1
 62
3
 10
766.0840000000001
 20
445
 30
0
 40
35
  1
Ö 52
 41
0.5993999999999999
 72
2
 73
3
 11
850
 21
480
 31
0
  0
TEXT
  8
1
 62
3
 10
858.042
 20
75
 30
0
 40
35
  1
Ö 52
 41
0.5993999999999999
 72
1
 73
3
 11
900
 21
110
 31
0
  0
INSERT
  8
0
  2
DLX
 10
-50
 20
-125
 30
0
  0
INSERT
  8
0
  2
WANNE_ANCONA_112
 10
651.3288259999999
 20
-55.75790099999995
 30
0
  0
ENDSEC
  0
EOF
