  0
SECTION
  2
HEADER
  9
$ACADVER
  1
AC1009
  9
$INSBASE
 10
0
 20
0
  9
$EXTMIN
 10
0
 20
0
  9
$EXTMAX
 10
1800
 20
800
  9
$LIMMIN
 10
0
 20
0
  9
$LIMMAX
 10
1800
 20
800
  9
$VIEWCTR
 10
10
 20
10
  9
$VIEWSIZE
 40
10
  9
$SNAPMODE
 70
0
  9
$SNAPUNIT
 10
1
 20
1
  9
$SNAPBASE
 10
0
 20
0
  9
$SNAPANG
 50
0
  9
$SNAPSTYLE
 70
0
  9
$SNAPISOPAIR
 70
0
  9
$GRIDMODE
 70
0
  9
$GRIDUNIT
 10
0
 20
0
  9
$ORTHOMODE
 70
0
  9
$REGENMODE
 70
1
  9
$FILLMODE
 70
1
  9
$QTEXTMODE
 70
0
  9
$DRAGMODE
 70
2
  9
$LTSCALE
 40
1
  9
$OSMODE
 70
0
  9
$ATTMODE
 70
1
  9
$TEXTSIZE
 40
3.5
  9
$TRACEWID
 40
0.5
  9
$TEXTSTYLE
  7
STANDARD
  9
$CLAYER
  8
0
  9
$CELTYPE
  6
BYLAYER
  9
$CECOLOR
 62
256
  9
$DIMSCALE
 40
1
  9
$DIMASZ
 40
0.18
  9
$DIMEXO
 40
0.0625
  9
$DIMDLI
 40
0.38
  9
$DIMRND
 40
0
  9
$DIMDLE
 40
0
  9
$DIMEXE
 40
0.18
  9
$DIMTP
 40
0
  9
$DIMTM
 40
0
  9
$DIMTXT
 40
0.18
  9
$DIMCEN
 40
0.09
  9
$DIMTSZ
 40
0
  9
$DIMTOL
 70
0
  9
$DIMLIM
 70
0
  9
$DIMTIH
 70
1
  9
$DIMTOH
 70
1
  9
$DIMSE1
 70
0
  9
$DIMSE2
 70
0
  9
$DIMTAD
 70
0
  9
$DIMZIN
 70
0
  9
$DIMBLK
  1

  9
$DIMASO
 70
1
  9
$DIMSHO
 70
1
  9
$DIMPOST
  1

  9
$DIMAPOST
  1

  9
$DIMALT
 70
0
  9
$DIMALTD
 70
2
  9
$DIMALTF
 40
25.4
  9
$DIMLFAC
 40
1
  9
$DIMTOFL
 70
0
  9
$DIMTVP
 40
0
  9
$DIMTIX
 70
0
  9
$DIMSOXD
 70
0
  9
$DIMSAH
 70
0
  9
$DIMBLK1
  1

  9
$DIMBLK2
  1

  9
$DIMSTYLE
  2
*UNNAMED
  9
$DIMCLRD
 70
0
  9
$DIMCLRE
 70
0
  9
$DIMCLRT
 70
0
  9
$DIMTFAC
 40
1
  9
$DIMGAP
 40
0.09
  9
$LUNITS
 70
2
  9
$LUPREC
 70
4
  9
$AXISMODE
 70
0
  9
$AXISUNIT
 10
0
 20
0
  9
$SKETCHINC
 40
0.1
  9
$FILLETRAD
 40
2
  9
$AUNITS
 70
0
  9
$AUPREC
 70
0
  9
$MENU
  1
ACAD
  9
$ELEVATION
 40
0
  9
$THICKNESS
 40
0
  9
$VIEWDIR
 10
0
 20
0
 30
1
  9
$LIMCHECK
 70
0
  9
$BLIPMODE
 70
1
  9
$CHAMFERA
 40
0
  9
$CHAMFERB
 40
0
  9
$FASTZOOM
 70
1
  9
$SKPOLY
 70
0
  9
$ANGBASE
 50
0
  9
$ANGDIR
 70
0
  9
$PDMODE
 70
0
  9
$PDSIZE
 40
0
  9
$PLINEWID
 40
0
  9
$COORDS
 70
2
  0
ENDSEC
  0
SECTION
  2
TABLES
  0
TABLE
  2
DIMSTYLE
 70
0
  0
ENDTAB
  0
TABLE
  2
LTYPE
 70
9
  0
LTYPE
  2
CONTINUOUS
 70
64
  3
Solid line
 72
65
 73
0
 40
0
  0
LTYPE
  2
BORDER
 70
64
  3
__ __ . __ __ .
 72
65
 73
6
 40
82.89473684210527
 49
23.68421052631579
 49
-11.8421052631579
 49
23.68421052631579
 49
-11.8421052631579
 49
0
 49
-11.8421052631579
  0
LTYPE
  2
CENTER
 70
64
  3
____ _ ____ _
 72
65
 73
4
 40
94.73684210526317
 49
59.21052631578948
 49
-11.8421052631579
 49
11.8421052631579
 49
-11.8421052631579
  0
LTYPE
  2
DASHDOT
 70
64
  3
__ . __ . __ .
 72
65
 73
4
 40
47.36842105263158
 49
23.68421052631579
 49
-11.8421052631579
 49
0
 49
-11.8421052631579
  0
LTYPE
  2
DASHED
 70
64
  3
__ __ __ __ __
 72
65
 73
2
 40
35.52631578947369
 49
23.68421052631579
 49
-11.8421052631579
  0
LTYPE
  2
DIVIDE
 70
64
  3
__ . . __ . . 
 72
65
 73
6
 40
59.21052631578948
 49
23.68421052631579
 49
-11.8421052631579
 49
0
 49
-11.8421052631579
 49
0
 49
-11.8421052631579
  0
LTYPE
  2
DOT
 70
64
  3
..............
 72
65
 73
4
 40
23.68421052631579
 49
0
 49
-11.8421052631579
 49
0
 49
-11.8421052631579
  0
LTYPE
  2
HIDDEN
 70
64
  3
_ _ _ _ _ _ _
 72
65
 73
2
 40
17.76315789473684
 49
11.8421052631579
 49
-5.921052631578948
  0
LTYPE
  2
PHANTOM
 70
64
  3
_____ _ _ _____ _ _ 
 72
65
 73
6
 40
118.421052631579
 49
59.21052631578948
 49
-11.8421052631579
 49
11.8421052631579
 49
-11.8421052631579
 49
11.8421052631579
 49
-11.8421052631579
  0
ENDTAB
  0
TABLE
  2
LAYER
 70
6
  0
LAYER
  2
MITTELLINIEN
 70
0
 62
7
  6
CONTINUOUS
  0
LAYER
  2
HILFSLINIEN
 70
0
 62
7
  6
CONTINUOUS
  0
LAYER
  2
1
 70
0
 62
7
  6
CONTINUOUS
  0
LAYER
  2
GEOMETRIE
 70
0
 62
7
  6
CONTINUOUS
  0
LAYER
  2
0
 70
0
 62
7
  6
CONTINUOUS
  0
ENDTAB
  0
TABLE
  2
STYLE
 70
4
  0
STYLE
  2
STANDARD
 70
0
 40
0
 41
1
 50
0
 71
0
 42
3.5
  3
txt
  4

  0
STYLE
  2
SIMPLEX
 70
0
 40
0
 41
1
 50
0
 71
0
 42
3.5
  3
simplex
  4

  0
STYLE
  2
COMPLEX
 70
0
 40
0
 41
1
 50
0
 71
0
 42
3.5
  3
complex
  4

  0
STYLE
  2
ITALIC
 70
0
 40
0
 41
1
 50
0
 71
0
 42
3.5
  3
italic
  4

  0
ENDTAB
  0
TABLE
  2
VIEW
 70
0
  0
ENDTAB
  0
ENDSEC
  0
SECTION
  2
BLOCKS
  0
BLOCK
  8
0
  2
DLX
 70
0
 10
350
 20
450
 30
0
  0
LINE
  8
1
 62
3
 10
521.206636135699
 20
503.505992531278
 30
0
 11
521.206636135699
 21
501.050334541276
 31
0
  0
LINE
  8
1
 62
3
 10
523.062609127785
 20
503.505992531278
 30
0
 11
521.206636135699
 21
503.505992531278
 31
0
  0
LINE
  8
1
 62
3
 10
521.206636135699
 20
501.050334541276
 30
0
 11
523.194119363641
 21
501.050334541276
 31
0
  0
LINE
  8
1
 62
3
 10
521.206636135699
 20
497.451055788282
 30
0
 11
520.3341884365839
 21
497.451055788282
 31
0
  0
LINE
  8
1
 62
3
 10
522.931697837317
 20
500.2001112138419
 30
0
 11
521.206636135699
 21
500.2001112138419
 31
0
  0
LINE
  8
1
 62
3
 10
523.9449125772369
 20
497.451055788282
 30
0
 11
523.9449125772369
 21
499.0729110559
 31
0
  0
LINE
  8
1
 62
3
 10
524.9060993927419
 20
497.451055788282
 30
0
 11
523.9449125772369
 21
497.451055788282
 31
0
  0
LINE
  8
1
 62
3
 10
524.9060993927419
 20
499.3306895546259
 30
0
 11
524.9060993927419
 21
497.451055788282
 31
0
  0
LINE
  8
1
 62
3
 10
522.7761082958239
 20
504.3095239634561
 30
0
 11
523.0724648781759
 21
504.3095239634561
 31
0
  0
LINE
  8
1
 62
3
 10
520.3341884365839
 20
504.3095239634561
 30
0
 11
522.7761082958239
 21
504.3095239634561
 31
0
  0
LINE
  8
1
 62
3
 10
520.3341884365839
 20
497.451055788282
 30
0
 11
520.3341884365839
 21
504.3095239634561
 31
0
  0
LINE
  8
1
 62
3
 10
521.206636135699
 20
500.2001112138419
 30
0
 11
521.206636135699
 21
497.451055788282
 31
0
  0
LINE
  8
1
 62
3
 10
476.68540084903
 20
506.38450847832
 30
0
 11
474.591323771416
 21
506.38450847832
 31
0
  0
LINE
  8
1
 62
3
 10
473.9754657010669
 20
495.3239024177931
 30
0
 11
476.68540084903
 21
506.38450847832
 31
0
  0
LINE
  8
1
 62
3
 10
484.445851089087
 20
495.3239024177931
 30
0
 11
473.9754657010669
 21
495.3239024177931
 31
0
  0
LINE
  8
1
 62
3
 10
483.9038640594258
 20
493.1117812056621
 30
0
 11
484.445851089087
 21
495.3239024177931
 31
0
  0
LINE
  8
1
 62
3
 10
471.339401593847
 20
493.1117812056621
 30
0
 11
483.9038640594258
 21
493.1117812056621
 31
0
  0
LINE
  8
1
 62
3
 10
474.591323771416
 20
506.38450847832
 30
0
 11
471.339401593847
 21
493.1117812056621
 31
0
  0
LINE
  8
1
 62
3
 10
461.144653716558
 20
497.5360236298441
 30
0
 11
464.9003688559239
 21
504.172387266269
 31
0
  0
LINE
  8
1
 62
3
 10
465.9571720012139
 20
504.172387266269
 30
0
 11
464.9003688559239
 21
504.172387266269
 31
0
  0
LINE
  8
1
 62
3
 10
466.4609649630688
 20
497.5360236298441
 30
0
 11
465.9571720012139
 21
504.172387266269
 31
0
  0
LINE
  8
1
 62
3
 10
461.144653716558
 20
497.5360236298441
 30
0
 11
466.4609649630688
 21
497.5360236298441
 31
0
  0
LINE
  8
1
 62
3
 10
458.6408436236638
 20
493.1117812056621
 30
0
 11
456.2620466350929
 21
493.1117812056621
 31
0
  0
LINE
  8
1
 62
3
 10
459.892748670027
 20
495.3239024177931
 30
0
 11
458.6408436236638
 21
493.1117812056621
 31
0
  0
LINE
  8
1
 62
3
 10
466.6288959503909
 20
495.3239024177931
 30
0
 11
459.892748670027
 21
495.3239024177931
 31
0
  0
LINE
  8
1
 62
3
 10
466.7968269376579
 20
493.1117812056621
 30
0
 11
466.6288959503909
 21
495.3239024177931
 31
0
  0
LINE
  8
1
 62
3
 10
468.826509100727
 20
493.1117812056621
 30
0
 11
466.7968269376579
 21
493.1117812056621
 31
0
  0
LINE
  8
1
 62
3
 10
467.818923176965
 20
506.38450847832
 30
0
 11
468.826509100727
 21
493.1117812056621
 31
0
  0
LINE
  8
1
 62
3
 10
463.77347691399
 20
506.38450847832
 30
0
 11
467.818923176965
 21
506.38450847832
 31
0
  0
LINE
  8
1
 62
3
 10
456.2620466350929
 20
493.1117812056621
 30
0
 11
463.77347691399
 21
506.38450847832
 31
0
  0
LINE
  8
1
 62
3
 10
443.2787687540589
 20
493.1117812056621
 30
0
 11
441.1846916764989
 21
493.1117812056621
 31
0
  0
LINE
  8
1
 62
3
 10
446.0847710509879
 20
504.5644855385979
 30
0
 11
443.2787687540589
 21
493.1117812056621
 31
0
  0
LINE
  8
1
 62
3
 10
446.7253193174979
 20
502.9053946295351
 30
0
 11
446.0847710509879
 21
504.5644855385979
 31
0
  0
LINE
  8
1
 62
3
 10
450.5064756532079
 20
493.1117812056621
 30
0
 11
446.7253193174979
 21
502.9053946295351
 31
0
  0
LINE
  8
1
 62
3
 10
453.7491541419769
 20
493.1117812056621
 30
0
 11
450.5064756532079
 21
493.1117812056621
 31
0
  0
LINE
  8
1
 62
3
 10
457.0010763195969
 20
506.38450847832
 30
0
 11
453.7491541419769
 21
493.1117812056621
 31
0
  0
LINE
  8
1
 62
3
 10
454.9069992419829
 20
506.38450847832
 30
0
 11
457.0010763195969
 21
506.38450847832
 31
0
  0
LINE
  8
1
 62
3
 10
452.0615673366299
 20
494.770872114746
 30
0
 11
454.9069992419829
 21
506.38450847832
 31
0
  0
LINE
  8
1
 62
3
 10
447.5777294703548
 20
506.38450847832
 30
0
 11
452.0615673366299
 21
494.770872114746
 31
0
  0
LINE
  8
1
 62
3
 10
444.4366138540139
 20
506.38450847832
 30
0
 11
447.5777294703548
 21
506.38450847832
 31
0
  0
LINE
  8
1
 62
3
 10
441.1846916764989
 20
493.1117812056621
 30
0
 11
444.4366138540139
 21
506.38450847832
 31
0
  0
LINE
  8
1
 62
3
 10
441.9237213608981
 20
506.38450847832
 30
0
 11
439.8296442833339
 21
506.38450847832
 31
0
  0
LINE
  8
1
 62
3
 10
439.8296442833339
 20
506.38450847832
 30
0
 11
436.5777221057689
 21
493.1117812056621
 31
0
  0
LINE
  8
1
 62
3
 10
438.671799183329
 20
493.1117812056621
 30
0
 11
441.9237213608981
 21
506.38450847832
 31
0
  0
LINE
  8
1
 62
3
 10
436.5777221057689
 20
493.1117812056621
 30
0
 11
438.671799183329
 21
493.1117812056621
 31
0
  0
LINE
  8
1
 62
3
 10
434.0845019505218
 20
501.739053932891
 30
0
 11
436.1785790280479
 21
501.739053932891
 31
0
  0
LINE
  8
1
 62
3
 10
433.0547265943719
 20
497.5360236298441
 30
0
 11
432.5127395646049
 21
495.3239024177931
 31
0
  0
LINE
  8
1
 62
3
 10
428.8665724389718
 20
497.5360236298441
 30
0
 11
433.0547265943719
 21
497.5360236298441
 31
0
  0
LINE
  8
1
 62
3
 10
429.4085594686189
 20
499.7481448420331
 30
0
 11
428.8665724389718
 21
497.5360236298441
 31
0
  0
LINE
  8
1
 62
3
 10
435.6907907014249
 20
499.7481448420331
 30
0
 11
434.0648296126528
 21
493.1117812056621
 31
0
  0
LINE
  8
1
 62
3
 10
435.6907907014249
 20
499.7481448420331
 30
0
 11
429.4085594686189
 21
499.7481448420331
 31
0
  0
LINE
  8
1
 62
3
 10
424.1364312542755
 20
495.3239024177931
 30
0
 11
426.3043793726031
 21
504.172387266269
 31
0
  0
LINE
  8
1
 62
3
 10
426.3043793726031
 20
504.172387266269
 30
0
 11
434.6806876828998
 21
504.172387266269
 31
0
  0
LINE
  8
1
 62
3
 10
434.6806876828998
 20
504.172387266269
 30
0
 11
434.0845019505218
 21
501.739053932891
 31
0
  0
LINE
  8
1
 62
3
 10
432.5127395646049
 20
495.3239024177931
 30
0
 11
424.1364312542755
 21
495.3239024177931
 31
0
  0
LINE
  8
1
 62
3
 10
434.0648296126528
 20
493.1117812056621
 30
0
 11
421.5003671470404
 21
493.1117812056621
 31
0
  0
LINE
  8
1
 62
3
 10
437.316751790175
 20
506.38450847832
 30
0
 11
436.1785790280479
 21
501.739053932891
 31
0
  0
LINE
  8
1
 62
3
 10
424.7522893245841
 20
506.38450847832
 30
0
 11
437.316751790175
 21
506.38450847832
 31
0
  0
LINE
  8
1
 62
3
 10
421.5003671470404
 20
493.1117812056621
 30
0
 11
424.7522893245841
 21
506.38450847832
 31
0
  0
LINE
  8
1
 62
3
 10
418.9874746540554
 20
493.1117812056621
 30
0
 11
422.2393968314646
 21
506.38450847832
 31
0
  0
LINE
  8
1
 62
3
 10
416.8933975763357
 20
493.1117812056621
 30
0
 11
418.9874746540554
 21
493.1117812056621
 31
0
  0
LINE
  8
1
 62
3
 10
420.1453197539013
 20
506.38450847832
 30
0
 11
416.8933975763357
 21
493.1117812056621
 31
0
  0
LINE
  8
1
 62
3
 10
422.2393968314646
 20
506.38450847832
 30
0
 11
420.1453197539013
 21
506.38450847832
 31
0
  0
LINE
  8
1
 62
3
 10
403.9101196952979
 20
493.1117812056621
 30
0
 11
404.9940937544088
 21
497.5360236298441
 31
0
  0
LINE
  8
1
 62
3
 10
401.8160426176219
 20
493.1117812056621
 30
0
 11
403.9101196952979
 21
493.1117812056621
 31
0
  0
LINE
  8
1
 62
3
 10
415.3282234693179
 20
496.979895810782
 30
0
 11
414.3805050832052
 21
493.1117812056621
 31
0
  0
LINE
  8
1
 62
3
 10
406.6200548431843
 20
504.172387266269
 30
0
 11
405.5360807840007
 21
499.7481448420331
 31
0
  0
LINE
  8
1
 62
3
 10
414.996363153703
 20
504.172387266269
 30
0
 11
406.6200548431843
 21
504.172387266269
 31
0
  0
LINE
  8
1
 62
3
 10
413.9123890943812
 20
499.7481448420331
 30
0
 11
414.996363153703
 21
504.172387266269
 31
0
  0
LINE
  8
1
 62
3
 10
405.5360807840007
 20
499.7481448420331
 30
0
 11
413.9123890943812
 21
499.7481448420331
 31
0
  0
LINE
  8
1
 62
3
 10
413.3704020649384
 20
497.5360236298441
 30
0
 11
404.9940937544088
 21
497.5360236298441
 31
0
  0
LINE
  8
1
 62
3
 10
412.2864280055655
 20
493.1117812056621
 30
0
 11
413.3704020649384
 21
497.5360236298441
 31
0
  0
LINE
  8
1
 62
3
 10
414.3805050832052
 20
493.1117812056621
 30
0
 11
412.2864280055655
 21
493.1117812056621
 31
0
  0
LINE
  8
1
 62
3
 10
417.632427260738
 20
506.38450847832
 30
0
 11
415.7649031508845
 21
498.7622048583319
 31
0
  0
LINE
  8
1
 62
3
 10
405.0679647951583
 20
506.38450847832
 30
0
 11
417.632427260738
 21
506.38450847832
 31
0
  0
LINE
  8
1
 62
3
 10
405.0679647951583
 20
506.38450847832
 30
0
 11
401.8160426176219
 21
493.1117812056621
 31
0
  0
LINE
  8
1
 62
3
 10
389.3747517661324
 20
495.3239024177931
 30
0
 11
391.5426998844741
 21
504.172387266269
 31
0
  0
LINE
  8
1
 62
3
 10
391.5426998844741
 20
504.172387266269
 30
0
 11
399.9190081949637
 21
504.172387266269
 31
0
  0
LINE
  8
1
 62
3
 10
399.9190081949637
 20
504.172387266269
 30
0
 11
397.7510600764872
 21
495.3239024177931
 31
0
  0
LINE
  8
1
 62
3
 10
397.7510600764872
 20
495.3239024177931
 30
0
 11
389.3747517661324
 21
495.3239024177931
 31
0
  0
LINE
  8
1
 62
3
 10
399.3031501244914
 20
493.1117812056621
 30
0
 11
386.7386876589662
 21
493.1117812056621
 31
0
  0
LINE
  8
1
 62
3
 10
402.5550723021661
 20
506.38450847832
 30
0
 11
399.3031501244914
 21
493.1117812056621
 31
0
  0
LINE
  8
1
 62
3
 10
389.9906098364481
 20
506.38450847832
 30
0
 11
402.5550723021661
 21
506.38450847832
 31
0
  0
LINE
  8
1
 62
3
 10
386.7386876589662
 20
493.1117812056621
 30
0
 11
389.9906098364481
 21
506.38450847832
 31
0
  0
LINE
  8
1
 62
3
 10
530.3295031522068
 20
450
 30
0
 11
477.738701733397
 21
450
 31
0
  0
LINE
  8
1
 62
3
 10
527.928830785688
 20
456.1939393939099
 30
0
 11
485.1196812335149
 21
456.1939393939099
 31
0
  0
LINE
  8
1
 62
3
 10
527.928830785688
 20
456.1939393939099
 30
0
 11
530.3295031522068
 21
450
 31
0
  0
LINE
  8
1
 62
3
 10
520.686830708906
 20
474.878917066824
 30
0
 11
517.9069775849489
 21
482.051175145079
 31
0
  0
LINE
  8
1
 62
3
 10
526.284056889192
 20
482.051175145079
 30
0
 11
520.686830708906
 21
474.878917066824
 31
0
  0
LINE
  8
1
 62
3
 10
530.32950315225
 20
482.051175145079
 30
0
 11
526.284056889192
 21
482.051175145079
 31
0
  0
LINE
  8
1
 62
3
 10
522.0292731071679
 20
471.415301218603
 30
0
 11
530.32950315225
 21
482.051175145079
 31
0
  0
LINE
  8
1
 62
3
 10
526.8999712001719
 20
458.848484848477
 30
0
 11
522.0292731071679
 21
471.415301218603
 31
0
  0
LINE
  8
1
 62
3
 10
522.8545249371239
 20
458.848484848477
 30
0
 11
526.8999712001719
 21
458.848484848477
 31
0
  0
LINE
  8
1
 62
3
 10
519.3262692424398
 20
467.951685370502
 30
0
 11
522.8545249371239
 21
458.848484848477
 31
0
  0
LINE
  8
1
 62
3
 10
512.222136662338
 20
458.848484848477
 30
0
 11
519.3262692424398
 21
467.951685370502
 31
0
  0
LINE
  8
1
 62
3
 10
508.1766903993409
 20
458.848484848477
 30
0
 11
512.222136662338
 21
458.848484848477
 31
0
  0
LINE
  8
1
 62
3
 10
517.9838268441308
 20
471.4153012186609
 30
0
 11
508.1766903993409
 21
458.848484848477
 31
0
  0
LINE
  8
1
 62
3
 10
513.8615313219339
 20
482.051175145079
 30
0
 11
517.9838268441308
 21
471.4153012186609
 31
0
  0
LINE
  8
1
 62
3
 10
517.9069775849489
 20
482.051175145079
 30
0
 11
513.8615313219339
 21
482.051175145079
 31
0
  0
LINE
  8
1
 62
3
 10
500.878253440889
 20
482.051175145079
 30
0
 11
495.643060746967
 21
482.051175145079
 31
0
  0
LINE
  8
1
 62
3
 10
496.277386577538
 20
463.2727272727971
 30
0
 11
500.878253440889
 21
482.051175145079
 31
0
  0
LINE
  8
1
 62
3
 10
501.5125792714898
 20
463.2727272727971
 30
0
 11
496.277386577538
 21
463.2727272727971
 31
0
  0
LINE
  8
1
 62
3
 10
506.113446134885
 20
482.051175145079
 30
0
 11
501.5125792714898
 21
463.2727272727971
 31
0
  0
LINE
  8
1
 62
3
 10
511.3486388288079
 20
482.051175145079
 30
0
 11
506.113446134885
 21
482.051175145079
 31
0
  0
LINE
  8
1
 62
3
 10
505.6637979062
 20
458.848484848477
 30
0
 11
511.3486388288079
 21
482.051175145079
 31
0
  0
LINE
  8
1
 62
3
 10
489.958219824279
 20
458.848484848477
 30
0
 11
505.6637979062
 21
458.848484848477
 31
0
  0
LINE
  8
1
 62
3
 10
495.643060746967
 20
482.051175145079
 30
0
 11
489.958219824279
 21
458.848484848477
 31
0
  0
LINE
  8
1
 62
3
 10
488.301425922338
 20
493.1117812056621
 30
0
 11
477.738701733397
 21
450
 31
0
  0
LINE
  8
1
 62
3
 10
494.1648417396059
 20
493.1117812056621
 30
0
 11
488.301425922338
 21
493.1117812056621
 31
0
  0
LINE
  8
1
 62
3
 10
485.1196812335149
 20
456.1939393939099
 30
0
 11
494.1648417396059
 21
493.1117812056621
 31
0
  0
LINE
  8
1
 62
3
 10
350
 20
450
 30
0
 11
357.8527890410551
 21
482.051175145079
 31
0
  0
LINE
  8
1
 62
3
 10
357.8527890410551
 20
482.051175145079
 30
0
 11
364.1350202737523
 21
482.051175145079
 31
0
  0
LINE
  8
1
 62
3
 10
364.1350202737523
 20
482.051175145079
 30
0
 11
357.3662052920627
 21
454.424242424182
 31
0
  0
LINE
  8
1
 62
3
 10
357.3662052920627
 20
454.424242424182
 30
0
 11
362.6013979859416
 21
454.424242424182
 31
0
  0
LINE
  8
1
 62
3
 10
362.6013979859416
 20
454.424242424182
 30
0
 11
370.7251805418237
 21
487.581478175405
 31
0
  0
LINE
  8
1
 62
3
 10
370.7251805418237
 20
487.581478175405
 30
0
 11
353.0340846972904
 21
487.581478175405
 31
0
  0
LINE
  8
1
 62
3
 10
353.0340846972904
 20
487.581478175405
 30
0
 11
354.3890522712754
 21
493.1117812056621
 31
0
  0
LINE
  8
1
 62
3
 10
354.3890522712754
 20
493.1117812056621
 30
0
 11
378.3623793485675
 21
493.1117812056621
 31
0
  0
LINE
  8
1
 62
3
 10
378.3623793485675
 20
493.1117812056621
 30
0
 11
367.799655159648
 21
450
 31
0
  0
LINE
  8
1
 62
3
 10
367.799655159648
 20
450
 30
0
 11
350
 21
450
 31
0
  0
LINE
  8
1
 62
3
 10
371.9878093147745
 20
450
 30
0
 11
379.8405983557677
 21
482.051175145079
 31
0
  0
LINE
  8
1
 62
3
 10
379.8405983557677
 20
482.051175145079
 30
0
 11
386.1228295885776
 21
482.051175145079
 31
0
  0
LINE
  8
1
 62
3
 10
386.1228295885776
 20
482.051175145079
 30
0
 11
379.3540146067826
 21
454.424242424182
 31
0
  0
LINE
  8
1
 62
3
 10
379.3540146067826
 20
454.424242424182
 30
0
 11
384.5892073007672
 21
454.424242424182
 31
0
  0
LINE
  8
1
 62
3
 10
384.5892073007672
 20
454.424242424182
 30
0
 11
391.3580222825731
 21
482.051175145079
 31
0
  0
LINE
  8
1
 62
3
 10
389.7874644743642
 20
450
 30
0
 11
371.9878093147745
 21
450
 31
0
  0
LINE
  8
1
 62
3
 10
391.3580222825731
 20
482.051175145079
 30
0
 11
397.6402535153793
 21
482.051175145079
 31
0
  0
LINE
  8
1
 62
3
 10
397.6402535153793
 20
482.051175145079
 30
0
 11
389.7874644743642
 21
450
 31
0
  0
LINE
  8
1
 62
3
 10
418.581024291314
 20
482.051175145079
 30
0
 11
401.8284076705422
 21
482.051175145079
 31
0
  0
LINE
  8
1
 62
3
 10
401.8284076705422
 20
482.051175145079
 30
0
 11
397.2275408071509
 21
463.2727272727971
 31
0
  0
LINE
  8
1
 62
3
 10
397.2275408071509
 20
463.2727272727971
 30
0
 11
407.6979261951165
 21
463.2727272727971
 31
0
  0
LINE
  8
1
 62
3
 10
407.6979261951165
 20
463.2727272727971
 30
0
 11
405.5299780766982
 21
454.424242424182
 31
0
  0
LINE
  8
1
 62
3
 10
405.5299780766982
 20
454.424242424182
 30
0
 11
395.0595926887872
 21
454.424242424182
 31
0
  0
LINE
  8
1
 62
3
 10
395.0595926887872
 20
454.424242424182
 30
0
 11
393.97561862948
 21
450
 31
0
  0
LINE
  8
1
 62
3
 10
393.97561862948
 20
450
 30
0
 11
410.7282352503025
 21
450
 31
0
  0
LINE
  8
1
 62
3
 10
410.7282352503025
 20
450
 30
0
 11
415.0641314872264
 21
467.6969696969529
 31
0
  0
LINE
  8
1
 62
3
 10
415.0641314872264
 20
467.6969696969529
 30
0
 11
404.5937460991627
 21
467.6969696969529
 31
0
  0
LINE
  8
1
 62
3
 10
404.5937460991627
 20
467.6969696969529
 30
0
 11
407.0266648441757
 21
477.626932720839
 31
0
  0
LINE
  8
1
 62
3
 10
407.0266648441757
 20
477.626932720839
 30
0
 11
417.4970502321557
 21
477.626932720839
 31
0
  0
LINE
  8
1
 62
3
 10
417.4970502321557
 20
477.626932720839
 30
0
 11
418.581024291314
 21
482.051175145079
 31
0
  0
LINE
  8
1
 62
3
 10
436.8118599193219
 20
470.990569084413
 30
0
 11
439.5217950672519
 21
482.051175145079
 31
0
  0
LINE
  8
1
 62
3
 10
439.5217950672519
 20
482.051175145079
 30
0
 11
422.7691784465314
 21
482.051175145079
 31
0
  0
LINE
  8
1
 62
3
 10
422.7691784465314
 20
482.051175145079
 30
0
 11
414.9163894055382
 21
450
 31
0
  0
LINE
  8
1
 62
3
 10
414.9163894055382
 20
450
 30
0
 11
431.669006026292
 21
450
 31
0
  0
LINE
  8
1
 62
3
 10
431.669006026292
 20
450
 30
0
 11
434.378941174266
 21
461.0606060606081
 31
0
  0
LINE
  8
1
 62
3
 10
434.378941174266
 20
461.0606060606081
 30
0
 11
428.0967099414779
 21
461.0606060606081
 31
0
  0
LINE
  8
1
 62
3
 10
428.0967099414779
 20
461.0606060606081
 30
0
 11
426.4707488526909
 21
454.424242424182
 31
0
  0
LINE
  8
1
 62
3
 10
426.4707488526909
 20
454.424242424182
 30
0
 11
422.2825946974881
 21
454.424242424182
 31
0
  0
LINE
  8
1
 62
3
 10
422.2825946974881
 20
454.424242424182
 30
0
 11
427.9674356201178
 21
477.626932720839
 31
0
  0
LINE
  8
1
 62
3
 10
427.9674356201178
 20
477.626932720839
 30
0
 11
432.1555897753099
 21
477.626932720839
 31
0
  0
LINE
  8
1
 62
3
 10
432.1555897753099
 20
477.626932720839
 30
0
 11
430.5296286865159
 21
470.990569084413
 31
0
  0
LINE
  8
1
 62
3
 10
430.5296286865159
 20
470.990569084413
 30
0
 11
436.8118599193219
 21
470.990569084413
 31
0
  0
LINE
  8
1
 62
3
 10
435.8571601814729
 20
450
 30
0
 11
442.1393914142609
 21
450
 31
0
  0
LINE
  8
1
 62
3
 10
452.6097768023359
 20
450
 30
0
 11
460.4625658433508
 21
482.051175145079
 31
0
  0
LINE
  8
1
 62
3
 10
446.3275455694388
 20
450
 30
0
 11
449.7119530603338
 21
463.813466360341
 31
0
  0
LINE
  8
1
 62
3
 10
442.1393914142609
 20
450
 30
0
 11
445.5237989051459
 21
463.813466360341
 31
0
  0
LINE
  8
1
 62
3
 10
443.7099492224659
 20
482.051175145079
 30
0
 11
435.8571601814729
 21
450
 31
0
  0
LINE
  8
1
 62
3
 10
460.4625658433508
 20
482.051175145079
 30
0
 11
454.1803346104349
 21
482.051175145079
 31
0
  0
LINE
  8
1
 62
3
 10
456.7979309574619
 20
450
 30
0
 11
473.55054757827
 21
450
 31
0
  0
LINE
  8
1
 62
3
 10
468.3522904045678
 20
454.424242424182
 30
0
 11
464.164136249467
 21
454.424242424182
 31
0
  0
LINE
  8
1
 62
3
 10
464.650719998459
 20
482.051175145079
 30
0
 11
456.7979309574619
 21
450
 31
0
  0
LINE
  8
1
 62
3
 10
464.164136249467
 20
454.424242424182
 30
0
 11
469.8489771720419
 21
477.626932720839
 31
0
  0
LINE
  8
1
 62
3
 10
481.4033366192889
 20
482.051175145079
 30
0
 11
464.650719998459
 21
482.051175145079
 31
0
  0
LINE
  8
1
 62
3
 10
469.8489771720419
 20
477.626932720839
 30
0
 11
474.037131327292
 21
477.626932720839
 31
0
  0
LINE
  8
1
 62
3
 10
474.037131327292
 20
477.626932720839
 30
0
 11
468.3522904045678
 21
454.424242424182
 31
0
  0
LINE
  8
1
 62
3
 10
481.4033366192889
 20
482.051175145079
 30
0
 11
473.55054757827
 21
450
 31
0
  0
LINE
  8
1
 62
3
 10
449.992180455331
 20
482.051175145079
 30
0
 11
443.7099492224659
 21
482.051175145079
 31
0
  0
LINE
  8
1
 62
3
 10
446.3275455694388
 20
450
 30
0
 11
452.6097768023359
 21
450
 31
0
  0
LINE
  8
1
 62
3
 10
445.5237989051459
 20
463.813466360341
 30
0
 11
449.7119530603338
 21
463.813466360341
 31
0
  0
LINE
  8
1
 62
3
 10
446.6077729643149
 20
468.2377087845271
 30
0
 11
450.7959271195539
 21
468.2377087845271
 31
0
  0
LINE
  8
1
 62
3
 10
446.6077729643149
 20
468.2377087845271
 30
0
 11
449.992180455331
 21
482.051175145079
 31
0
  0
LINE
  8
1
 62
3
 10
450.7959271195539
 20
468.2377087845271
 30
0
 11
454.1803346104349
 21
482.051175145079
 31
0
  0
LINE
  8
1
 62
3
 10
415.7649031508845
 20
498.7622048583319
 30
0
 11
415.0328203819372
 21
497.978447872363
 31
0
  0
LINE
  8
1
 62
3
 10
415.3282234693179
 20
496.979895810782
 30
0
 11
415.0328203819372
 21
497.978447872363
 31
0
  0
ARC
  8
1
 62
3
 10
523.514586791596
 20
499.3622336822259
 30
0
 40
1.39187009132817
 50
358.7013873342734
 51
66.54486649404458
  0
ARC
  8
1
 62
3
 10
522.789193605106
 20
499.0530393898221
 30
0
 40
1.155889798231653
 50
0.9850581704823435
 51
82.91825463293205
  0
ARC
  8
1
 62
3
 10
522.8643762433019
 20
502.264025930551
 30
0
 40
1.257687287767188
 50
285.1995809529435
 51
80.93139523878851
  0
ARC
  8
1
 62
3
 10
522.9426940693159
 20
502.3039199213811
 30
0
 40
2.009798008861834
 50
304.0700115354259
 51
86.29788871825861
  0
CIRCLE
  8
1
 62
3
 10
522.7358752379369
 20
500.878787878755
 30
0
 40
5.530127989695984
  0
CIRCLE
  8
1
 62
3
 10
522.7358752379369
 20
500.878787878755
 30
0
 40
5.972862778753957
  0
ENDBLK
  8
0
  0
BLOCK
  8
0
  2
WANNE_ANCONA_TREND_225
 70
0
 10
651.3288259999999
 20
-155.757901
 30
0
  0
LINE
  8
MITTELLINIEN
 62
3
  6
DASHDOT
 10
993.989955
 20
400
 30
0
 11
804.3219810000001
 21
400
 31
0
  0
LINE
  8
MITTELLINIEN
 62
3
  6
DASHDOT
 10
900
 20
493.989955
 30
0
 11
900
 21
304.3219810000001
 31
0
  0
LINE
  8
GEOMETRIE
 62
7
 10
10
 20
95
 30
0
 11
1790
 21
95
 31
0
  0
LINE
  8
HILFSLINIEN
 62
7
 10
10
 20
95
 30
0
 11
318.9704029999998
 21
134.8358499999999
 31
0
  0
LINE
  8
HILFSLINIEN
 62
7
 10
318.9704029999998
 20
665.164149
 30
0
 11
10
 21
740
 31
0
  0
LINE
  8
HILFSLINIEN
 62
7
 10
1790
 20
740
 30
0
 11
1481.029597
 21
665.164149
 31
0
  0
LINE
  8
HILFSLINIEN
 62
7
 10
1481.029597
 20
134.8358499999999
 30
0
 11
1790
 21
95
 31
0
  0
LINE
  8
HILFSLINIEN
 62
7
 10
318.9704029999998
 20
665.164149
 30
0
 11
1481.029597
 21
665.164149
 31
0
  0
LINE
  8
HILFSLINIEN
 62
7
 10
318.9704029999998
 20
134.8358499999999
 30
0
 11
1481.029597
 21
134.8358499999999
 31
0
  0
LINE
  8
GEOMETRIE
 62
7
 10
1790
 20
740
 30
0
 11
10
 21
740
 31
0
  0
LINE
  8
GEOMETRIE
 62
7
 10
1800
 20
0
 30
0
 11
0
 21
0
 31
0
  0
LINE
  8
GEOMETRIE
 62
7
 10
1800
 20
800
 30
0
 11
0
 21
800
 31
0
  0
LINE
  8
GEOMETRIE
 62
7
 10
1800
 20
0
 30
0
 11
1800
 21
800
 31
0
  0
LINE
  8
GEOMETRIE
 62
7
 10
0
 20
0
 30
0
 11
0
 21
800
 31
0
  0
ARC
  8
GEOMETRIE
 62
7
 10
766.6752369999999
 20
90
 30
0
 40
5.000000000000803
 50
23.67417600000282
 51
90
  0
ARC
  8
GEOMETRIE
 62
7
 10
1033.324763
 20
90
 30
0
 40
5
 50
90
 51
156.3258239999972
  0
ARC
  8
GEOMETRIE
 62
7
 10
900
 20
225
 30
0
 40
200.0000000000004
 50
248.1849459999998
 51
291.815054
  0
ARC
  8
GEOMETRIE
 62
7
 10
862.8388219999999
 20
132.1611780000001
 30
0
 40
99.99999999999993
 50
203.6741759999999
 51
248.184946
  0
ARC
  8
GEOMETRIE
 62
7
 10
937.1611780000001
 20
132.1611780000001
 30
0
 40
100.0000000000001
 50
291.815054
 51
336.3258240000001
  0
ARC
  8
HILFSLINIEN
 62
7
 10
2301.314464
 20
400
 30
0
 40
2000.000000000001
 50
172.381174
 51
187.618826
  0
ARC
  8
HILFSLINIEN
 62
7
 10
-501.3144630000002
 20
400
 30
0
 40
2000
 50
352.3811739999999
 51
7.618825999999992
  0
CIRCLE
  8
GEOMETRIE
 62
7
 10
900
 20
400
 30
0
 40
45
  0
CIRCLE
  8
GEOMETRIE
 62
7
 10
900
 20
400
 30
0
 40
54.96428900000001
  0
CIRCLE
  8
GEOMETRIE
 62
7
 10
900
 20
400
 30
0
 40
68.39577899999995
  0
CIRCLE
  8
GEOMETRIE
 62
7
 10
900
 20
400
 30
0
 40
75.67802000000006
  0
ENDBLK
  8
0
  0
ENDSEC
  0
SECTION
  2
ENTITIES
  0
TEXT
  8
1
 62
2
 10
350
 20
285
 30
0
 40
35
  1
ANCONA Trend 225
 41
0.5993999999999999
  0
TEXT
  8
1
 62
3
 10
741.0840000000001
 20
475
 30
0
 40
35
  1
Ö 90
 41
0.5993999999999999
 72
2
 11
825
 21
475
 31
0
  0
INSERT
  8
0
  2
DLX
 10
350
 20
450
 30
0
  0
INSERT
  8
0
  2
WANNE_ANCONA_TREND_225
 10
651.3288259999999
 20
-155.757901
 30
0
  0
ENDSEC
  0
EOF
