  0
SECTION
  2
HEADER
  9
$ACADVER
  1
AC1009
  9
$INSBASE
 10
0
 20
0
  9
$EXTMIN
 10
0
 20
0
  9
$EXTMAX
 10
1800
 20
640
  9
$LIMMIN
 10
0
 20
0
  9
$LIMMAX
 10
1800
 20
640
  9
$VIEWCTR
 10
10
 20
10
  9
$VIEWSIZE
 40
10
  9
$SNAPMODE
 70
0
  9
$SNAPUNIT
 10
1
 20
1
  9
$SNAPBASE
 10
0
 20
0
  9
$SNAPANG
 50
0
  9
$SNAPSTYLE
 70
0
  9
$SNAPISOPAIR
 70
0
  9
$GRIDMODE
 70
0
  9
$GRIDUNIT
 10
0
 20
0
  9
$ORTHOMODE
 70
0
  9
$REGENMODE
 70
1
  9
$FILLMODE
 70
1
  9
$QTEXTMODE
 70
0
  9
$DRAGMODE
 70
2
  9
$LTSCALE
 40
1
  9
$OSMODE
 70
0
  9
$ATTMODE
 70
1
  9
$TEXTSIZE
 40
3.5
  9
$TRACEWID
 40
0.5
  9
$TEXTSTYLE
  7
STANDARD
  9
$CLAYER
  8
0
  9
$CELTYPE
  6
BYLAYER
  9
$CECOLOR
 62
256
  9
$DIMSCALE
 40
1
  9
$DIMASZ
 40
0.18
  9
$DIMEXO
 40
0.0625
  9
$DIMDLI
 40
0.38
  9
$DIMRND
 40
0
  9
$DIMDLE
 40
0
  9
$DIMEXE
 40
0.18
  9
$DIMTP
 40
0
  9
$DIMTM
 40
0
  9
$DIMTXT
 40
0.18
  9
$DIMCEN
 40
0.09
  9
$DIMTSZ
 40
0
  9
$DIMTOL
 70
0
  9
$DIMLIM
 70
0
  9
$DIMTIH
 70
1
  9
$DIMTOH
 70
1
  9
$DIMSE1
 70
0
  9
$DIMSE2
 70
0
  9
$DIMTAD
 70
0
  9
$DIMZIN
 70
0
  9
$DIMBLK
  1

  9
$DIMASO
 70
1
  9
$DIMSHO
 70
1
  9
$DIMPOST
  1

  9
$DIMAPOST
  1

  9
$DIMALT
 70
0
  9
$DIMALTD
 70
2
  9
$DIMALTF
 40
25.4
  9
$DIMLFAC
 40
1
  9
$DIMTOFL
 70
0
  9
$DIMTVP
 40
0
  9
$DIMTIX
 70
0
  9
$DIMSOXD
 70
0
  9
$DIMSAH
 70
0
  9
$DIMBLK1
  1

  9
$DIMBLK2
  1

  9
$DIMSTYLE
  2
*UNNAMED
  9
$DIMCLRD
 70
0
  9
$DIMCLRE
 70
0
  9
$DIMCLRT
 70
0
  9
$DIMTFAC
 40
1
  9
$DIMGAP
 40
0.09
  9
$LUNITS
 70
2
  9
$LUPREC
 70
4
  9
$AXISMODE
 70
0
  9
$AXISUNIT
 10
0
 20
0
  9
$SKETCHINC
 40
0.1
  9
$FILLETRAD
 40
2
  9
$AUNITS
 70
0
  9
$AUPREC
 70
0
  9
$MENU
  1
ACAD
  9
$ELEVATION
 40
0
  9
$THICKNESS
 40
0
  9
$VIEWDIR
 10
0
 20
0
 30
1
  9
$LIMCHECK
 70
0
  9
$BLIPMODE
 70
1
  9
$CHAMFERA
 40
0
  9
$CHAMFERB
 40
0
  9
$FASTZOOM
 70
1
  9
$SKPOLY
 70
0
  9
$ANGBASE
 50
0
  9
$ANGDIR
 70
0
  9
$PDMODE
 70
0
  9
$PDSIZE
 40
0
  9
$PLINEWID
 40
0
  9
$COORDS
 70
2
  0
ENDSEC
  0
SECTION
  2
TABLES
  0
TABLE
  2
DIMSTYLE
 70
0
  0
ENDTAB
  0
TABLE
  2
LTYPE
 70
9
  0
LTYPE
  2
CONTINUOUS
 70
64
  3
Solid line
 72
65
 73
0
 40
0
  0
LTYPE
  2
BORDER
 70
64
  3
__ __ . __ __ .
 72
65
 73
6
 40
82.89473684210527
 49
23.68421052631579
 49
-11.8421052631579
 49
23.68421052631579
 49
-11.8421052631579
 49
0
 49
-11.8421052631579
  0
LTYPE
  2
CENTER
 70
64
  3
____ _ ____ _
 72
65
 73
4
 40
94.73684210526317
 49
59.21052631578948
 49
-11.8421052631579
 49
11.8421052631579
 49
-11.8421052631579
  0
LTYPE
  2
DASHDOT
 70
64
  3
__ . __ . __ .
 72
65
 73
4
 40
47.36842105263158
 49
23.68421052631579
 49
-11.8421052631579
 49
0
 49
-11.8421052631579
  0
LTYPE
  2
DASHED
 70
64
  3
__ __ __ __ __
 72
65
 73
2
 40
35.52631578947369
 49
23.68421052631579
 49
-11.8421052631579
  0
LTYPE
  2
DIVIDE
 70
64
  3
__ . . __ . . 
 72
65
 73
6
 40
59.21052631578948
 49
23.68421052631579
 49
-11.8421052631579
 49
0
 49
-11.8421052631579
 49
0
 49
-11.8421052631579
  0
LTYPE
  2
DOT
 70
64
  3
..............
 72
65
 73
4
 40
23.68421052631579
 49
0
 49
-11.8421052631579
 49
0
 49
-11.8421052631579
  0
LTYPE
  2
HIDDEN
 70
64
  3
_ _ _ _ _ _ _
 72
65
 73
2
 40
17.76315789473684
 49
11.8421052631579
 49
-5.921052631578948
  0
LTYPE
  2
PHANTOM
 70
64
  3
_____ _ _ _____ _ _ 
 72
65
 73
6
 40
118.421052631579
 49
59.21052631578948
 49
-11.8421052631579
 49
11.8421052631579
 49
-11.8421052631579
 49
11.8421052631579
 49
-11.8421052631579
  0
ENDTAB
  0
TABLE
  2
LAYER
 70
3
  0
LAYER
  2
1
 70
0
 62
7
  6
CONTINUOUS
  0
LAYER
  2
0
 70
0
 62
7
  6
CONTINUOUS
  0
ENDTAB
  0
TABLE
  2
STYLE
 70
4
  0
STYLE
  2
STANDARD
 70
0
 40
0
 41
1
 50
0
 71
0
 42
3.5
  3
txt
  4

  0
STYLE
  2
SIMPLEX
 70
0
 40
0
 41
1
 50
0
 71
0
 42
3.5
  3
simplex
  4

  0
STYLE
  2
COMPLEX
 70
0
 40
0
 41
1
 50
0
 71
0
 42
3.5
  3
complex
  4

  0
STYLE
  2
ITALIC
 70
0
 40
0
 41
1
 50
0
 71
0
 42
3.5
  3
italic
  4

  0
ENDTAB
  0
TABLE
  2
VIEW
 70
0
  0
ENDTAB
  0
ENDSEC
  0
SECTION
  2
BLOCKS
  0
BLOCK
  8
0
  2
DLX
 70
0
 10
350
 20
340
 30
0
  0
LINE
  8
1
 62
3
 10
521.206636135699
 20
393.505992531278
 30
0
 11
521.206636135699
 21
391.050334541276
 31
0
  0
LINE
  8
1
 62
3
 10
523.062609127785
 20
393.505992531278
 30
0
 11
521.206636135699
 21
393.505992531278
 31
0
  0
LINE
  8
1
 62
3
 10
521.206636135699
 20
391.050334541276
 30
0
 11
523.194119363641
 21
391.050334541276
 31
0
  0
LINE
  8
1
 62
3
 10
521.206636135699
 20
387.4510557882821
 30
0
 11
520.3341884365839
 21
387.4510557882821
 31
0
  0
LINE
  8
1
 62
3
 10
522.931697837317
 20
390.2001112138419
 30
0
 11
521.206636135699
 21
390.2001112138419
 31
0
  0
LINE
  8
1
 62
3
 10
523.9449125772369
 20
387.4510557882821
 30
0
 11
523.9449125772369
 21
389.0729110559
 31
0
  0
LINE
  8
1
 62
3
 10
524.9060993927419
 20
387.4510557882821
 30
0
 11
523.9449125772369
 21
387.4510557882821
 31
0
  0
LINE
  8
1
 62
3
 10
524.9060993927419
 20
389.3306895546259
 30
0
 11
524.9060993927419
 21
387.4510557882821
 31
0
  0
LINE
  8
1
 62
3
 10
522.7761082958239
 20
394.3095239634562
 30
0
 11
523.0724648781759
 21
394.3095239634562
 31
0
  0
LINE
  8
1
 62
3
 10
520.3341884365839
 20
394.3095239634562
 30
0
 11
522.7761082958239
 21
394.3095239634562
 31
0
  0
LINE
  8
1
 62
3
 10
520.3341884365839
 20
387.4510557882821
 30
0
 11
520.3341884365839
 21
394.3095239634562
 31
0
  0
LINE
  8
1
 62
3
 10
521.206636135699
 20
390.2001112138419
 30
0
 11
521.206636135699
 21
387.4510557882821
 31
0
  0
LINE
  8
1
 62
3
 10
476.68540084903
 20
396.3845084783201
 30
0
 11
474.591323771416
 21
396.3845084783201
 31
0
  0
LINE
  8
1
 62
3
 10
473.9754657010669
 20
385.3239024177931
 30
0
 11
476.68540084903
 21
396.3845084783201
 31
0
  0
LINE
  8
1
 62
3
 10
484.445851089087
 20
385.3239024177931
 30
0
 11
473.9754657010669
 21
385.3239024177931
 31
0
  0
LINE
  8
1
 62
3
 10
483.9038640594258
 20
383.1117812056621
 30
0
 11
484.445851089087
 21
385.3239024177931
 31
0
  0
LINE
  8
1
 62
3
 10
471.339401593847
 20
383.1117812056621
 30
0
 11
483.9038640594258
 21
383.1117812056621
 31
0
  0
LINE
  8
1
 62
3
 10
474.591323771416
 20
396.3845084783201
 30
0
 11
471.339401593847
 21
383.1117812056621
 31
0
  0
LINE
  8
1
 62
3
 10
461.144653716558
 20
387.5360236298441
 30
0
 11
464.9003688559239
 21
394.172387266269
 31
0
  0
LINE
  8
1
 62
3
 10
465.9571720012139
 20
394.172387266269
 30
0
 11
464.9003688559239
 21
394.172387266269
 31
0
  0
LINE
  8
1
 62
3
 10
466.4609649630688
 20
387.5360236298441
 30
0
 11
465.9571720012139
 21
394.172387266269
 31
0
  0
LINE
  8
1
 62
3
 10
461.144653716558
 20
387.5360236298441
 30
0
 11
466.4609649630688
 21
387.5360236298441
 31
0
  0
LINE
  8
1
 62
3
 10
458.6408436236638
 20
383.1117812056621
 30
0
 11
456.2620466350929
 21
383.1117812056621
 31
0
  0
LINE
  8
1
 62
3
 10
459.892748670027
 20
385.3239024177931
 30
0
 11
458.6408436236638
 21
383.1117812056621
 31
0
  0
LINE
  8
1
 62
3
 10
466.6288959503909
 20
385.3239024177931
 30
0
 11
459.892748670027
 21
385.3239024177931
 31
0
  0
LINE
  8
1
 62
3
 10
466.7968269376579
 20
383.1117812056621
 30
0
 11
466.6288959503909
 21
385.3239024177931
 31
0
  0
LINE
  8
1
 62
3
 10
468.826509100727
 20
383.1117812056621
 30
0
 11
466.7968269376579
 21
383.1117812056621
 31
0
  0
LINE
  8
1
 62
3
 10
467.818923176965
 20
396.3845084783201
 30
0
 11
468.826509100727
 21
383.1117812056621
 31
0
  0
LINE
  8
1
 62
3
 10
463.77347691399
 20
396.3845084783201
 30
0
 11
467.818923176965
 21
396.3845084783201
 31
0
  0
LINE
  8
1
 62
3
 10
456.2620466350929
 20
383.1117812056621
 30
0
 11
463.77347691399
 21
396.3845084783201
 31
0
  0
LINE
  8
1
 62
3
 10
443.2787687540589
 20
383.1117812056621
 30
0
 11
441.1846916764989
 21
383.1117812056621
 31
0
  0
LINE
  8
1
 62
3
 10
446.0847710509879
 20
394.5644855385979
 30
0
 11
443.2787687540589
 21
383.1117812056621
 31
0
  0
LINE
  8
1
 62
3
 10
446.7253193174979
 20
392.9053946295351
 30
0
 11
446.0847710509879
 21
394.5644855385979
 31
0
  0
LINE
  8
1
 62
3
 10
450.5064756532079
 20
383.1117812056621
 30
0
 11
446.7253193174979
 21
392.9053946295351
 31
0
  0
LINE
  8
1
 62
3
 10
453.7491541419769
 20
383.1117812056621
 30
0
 11
450.5064756532079
 21
383.1117812056621
 31
0
  0
LINE
  8
1
 62
3
 10
457.0010763195969
 20
396.3845084783201
 30
0
 11
453.7491541419769
 21
383.1117812056621
 31
0
  0
LINE
  8
1
 62
3
 10
454.9069992419829
 20
396.3845084783201
 30
0
 11
457.0010763195969
 21
396.3845084783201
 31
0
  0
LINE
  8
1
 62
3
 10
452.0615673366299
 20
384.770872114746
 30
0
 11
454.9069992419829
 21
396.3845084783201
 31
0
  0
LINE
  8
1
 62
3
 10
447.5777294703548
 20
396.3845084783201
 30
0
 11
452.0615673366299
 21
384.770872114746
 31
0
  0
LINE
  8
1
 62
3
 10
444.4366138540139
 20
396.3845084783201
 30
0
 11
447.5777294703548
 21
396.3845084783201
 31
0
  0
LINE
  8
1
 62
3
 10
441.1846916764989
 20
383.1117812056621
 30
0
 11
444.4366138540139
 21
396.3845084783201
 31
0
  0
LINE
  8
1
 62
3
 10
441.9237213608981
 20
396.3845084783201
 30
0
 11
439.8296442833339
 21
396.3845084783201
 31
0
  0
LINE
  8
1
 62
3
 10
439.8296442833339
 20
396.3845084783201
 30
0
 11
436.5777221057689
 21
383.1117812056621
 31
0
  0
LINE
  8
1
 62
3
 10
438.671799183329
 20
383.1117812056621
 30
0
 11
441.9237213608981
 21
396.3845084783201
 31
0
  0
LINE
  8
1
 62
3
 10
436.5777221057689
 20
383.1117812056621
 30
0
 11
438.671799183329
 21
383.1117812056621
 31
0
  0
LINE
  8
1
 62
3
 10
434.0845019505218
 20
391.739053932891
 30
0
 11
436.1785790280479
 21
391.739053932891
 31
0
  0
LINE
  8
1
 62
3
 10
433.0547265943719
 20
387.5360236298441
 30
0
 11
432.5127395646049
 21
385.3239024177931
 31
0
  0
LINE
  8
1
 62
3
 10
428.8665724389718
 20
387.5360236298441
 30
0
 11
433.0547265943719
 21
387.5360236298441
 31
0
  0
LINE
  8
1
 62
3
 10
429.4085594686189
 20
389.7481448420331
 30
0
 11
428.8665724389718
 21
387.5360236298441
 31
0
  0
LINE
  8
1
 62
3
 10
435.6907907014249
 20
389.7481448420331
 30
0
 11
434.0648296126528
 21
383.1117812056621
 31
0
  0
LINE
  8
1
 62
3
 10
435.6907907014249
 20
389.7481448420331
 30
0
 11
429.4085594686189
 21
389.7481448420331
 31
0
  0
LINE
  8
1
 62
3
 10
424.1364312542755
 20
385.3239024177931
 30
0
 11
426.3043793726031
 21
394.172387266269
 31
0
  0
LINE
  8
1
 62
3
 10
426.3043793726031
 20
394.172387266269
 30
0
 11
434.6806876828998
 21
394.172387266269
 31
0
  0
LINE
  8
1
 62
3
 10
434.6806876828998
 20
394.172387266269
 30
0
 11
434.0845019505218
 21
391.739053932891
 31
0
  0
LINE
  8
1
 62
3
 10
432.5127395646049
 20
385.3239024177931
 30
0
 11
424.1364312542755
 21
385.3239024177931
 31
0
  0
LINE
  8
1
 62
3
 10
434.0648296126528
 20
383.1117812056621
 30
0
 11
421.5003671470404
 21
383.1117812056621
 31
0
  0
LINE
  8
1
 62
3
 10
437.316751790175
 20
396.3845084783201
 30
0
 11
436.1785790280479
 21
391.739053932891
 31
0
  0
LINE
  8
1
 62
3
 10
424.7522893245841
 20
396.3845084783201
 30
0
 11
437.316751790175
 21
396.3845084783201
 31
0
  0
LINE
  8
1
 62
3
 10
421.5003671470404
 20
383.1117812056621
 30
0
 11
424.7522893245841
 21
396.3845084783201
 31
0
  0
LINE
  8
1
 62
3
 10
418.9874746540554
 20
383.1117812056621
 30
0
 11
422.2393968314646
 21
396.3845084783201
 31
0
  0
LINE
  8
1
 62
3
 10
416.8933975763357
 20
383.1117812056621
 30
0
 11
418.9874746540554
 21
383.1117812056621
 31
0
  0
LINE
  8
1
 62
3
 10
420.1453197539013
 20
396.3845084783201
 30
0
 11
416.8933975763357
 21
383.1117812056621
 31
0
  0
LINE
  8
1
 62
3
 10
422.2393968314646
 20
396.3845084783201
 30
0
 11
420.1453197539013
 21
396.3845084783201
 31
0
  0
LINE
  8
1
 62
3
 10
403.9101196952979
 20
383.1117812056621
 30
0
 11
404.9940937544088
 21
387.5360236298441
 31
0
  0
LINE
  8
1
 62
3
 10
401.8160426176219
 20
383.1117812056621
 30
0
 11
403.9101196952979
 21
383.1117812056621
 31
0
  0
LINE
  8
1
 62
3
 10
415.3282234693179
 20
386.979895810782
 30
0
 11
414.3805050832052
 21
383.1117812056621
 31
0
  0
LINE
  8
1
 62
3
 10
406.6200548431843
 20
394.172387266269
 30
0
 11
405.5360807840007
 21
389.7481448420331
 31
0
  0
LINE
  8
1
 62
3
 10
414.996363153703
 20
394.172387266269
 30
0
 11
406.6200548431843
 21
394.172387266269
 31
0
  0
LINE
  8
1
 62
3
 10
413.9123890943812
 20
389.7481448420331
 30
0
 11
414.996363153703
 21
394.172387266269
 31
0
  0
LINE
  8
1
 62
3
 10
405.5360807840007
 20
389.7481448420331
 30
0
 11
413.9123890943812
 21
389.7481448420331
 31
0
  0
LINE
  8
1
 62
3
 10
413.3704020649384
 20
387.5360236298441
 30
0
 11
404.9940937544088
 21
387.5360236298441
 31
0
  0
LINE
  8
1
 62
3
 10
412.2864280055655
 20
383.1117812056621
 30
0
 11
413.3704020649384
 21
387.5360236298441
 31
0
  0
LINE
  8
1
 62
3
 10
414.3805050832052
 20
383.1117812056621
 30
0
 11
412.2864280055655
 21
383.1117812056621
 31
0
  0
LINE
  8
1
 62
3
 10
417.632427260738
 20
396.3845084783201
 30
0
 11
415.7649031508845
 21
388.7622048583319
 31
0
  0
LINE
  8
1
 62
3
 10
405.0679647951583
 20
396.3845084783201
 30
0
 11
417.632427260738
 21
396.3845084783201
 31
0
  0
LINE
  8
1
 62
3
 10
405.0679647951583
 20
396.3845084783201
 30
0
 11
401.8160426176219
 21
383.1117812056621
 31
0
  0
LINE
  8
1
 62
3
 10
389.3747517661324
 20
385.3239024177931
 30
0
 11
391.5426998844741
 21
394.172387266269
 31
0
  0
LINE
  8
1
 62
3
 10
391.5426998844741
 20
394.172387266269
 30
0
 11
399.9190081949637
 21
394.172387266269
 31
0
  0
LINE
  8
1
 62
3
 10
399.9190081949637
 20
394.172387266269
 30
0
 11
397.7510600764872
 21
385.3239024177931
 31
0
  0
LINE
  8
1
 62
3
 10
397.7510600764872
 20
385.3239024177931
 30
0
 11
389.3747517661324
 21
385.3239024177931
 31
0
  0
LINE
  8
1
 62
3
 10
399.3031501244914
 20
383.1117812056621
 30
0
 11
386.7386876589662
 21
383.1117812056621
 31
0
  0
LINE
  8
1
 62
3
 10
402.5550723021661
 20
396.3845084783201
 30
0
 11
399.3031501244914
 21
383.1117812056621
 31
0
  0
LINE
  8
1
 62
3
 10
389.9906098364481
 20
396.3845084783201
 30
0
 11
402.5550723021661
 21
396.3845084783201
 31
0
  0
LINE
  8
1
 62
3
 10
386.7386876589662
 20
383.1117812056621
 30
0
 11
389.9906098364481
 21
396.3845084783201
 31
0
  0
LINE
  8
1
 62
3
 10
530.3295031522068
 20
340
 30
0
 11
477.738701733397
 21
340
 31
0
  0
LINE
  8
1
 62
3
 10
527.928830785688
 20
346.1939393939099
 30
0
 11
485.1196812335149
 21
346.1939393939099
 31
0
  0
LINE
  8
1
 62
3
 10
527.928830785688
 20
346.1939393939099
 30
0
 11
530.3295031522068
 21
340
 31
0
  0
LINE
  8
1
 62
3
 10
520.686830708906
 20
364.878917066824
 30
0
 11
517.9069775849489
 21
372.051175145079
 31
0
  0
LINE
  8
1
 62
3
 10
526.284056889192
 20
372.051175145079
 30
0
 11
520.686830708906
 21
364.878917066824
 31
0
  0
LINE
  8
1
 62
3
 10
530.32950315225
 20
372.051175145079
 30
0
 11
526.284056889192
 21
372.051175145079
 31
0
  0
LINE
  8
1
 62
3
 10
522.0292731071679
 20
361.415301218603
 30
0
 11
530.32950315225
 21
372.051175145079
 31
0
  0
LINE
  8
1
 62
3
 10
526.8999712001719
 20
348.848484848477
 30
0
 11
522.0292731071679
 21
361.415301218603
 31
0
  0
LINE
  8
1
 62
3
 10
522.8545249371239
 20
348.848484848477
 30
0
 11
526.8999712001719
 21
348.848484848477
 31
0
  0
LINE
  8
1
 62
3
 10
519.3262692424398
 20
357.951685370502
 30
0
 11
522.8545249371239
 21
348.848484848477
 31
0
  0
LINE
  8
1
 62
3
 10
512.222136662338
 20
348.848484848477
 30
0
 11
519.3262692424398
 21
357.951685370502
 31
0
  0
LINE
  8
1
 62
3
 10
508.1766903993409
 20
348.848484848477
 30
0
 11
512.222136662338
 21
348.848484848477
 31
0
  0
LINE
  8
1
 62
3
 10
517.9838268441308
 20
361.4153012186609
 30
0
 11
508.1766903993409
 21
348.848484848477
 31
0
  0
LINE
  8
1
 62
3
 10
513.8615313219339
 20
372.051175145079
 30
0
 11
517.9838268441308
 21
361.4153012186609
 31
0
  0
LINE
  8
1
 62
3
 10
517.9069775849489
 20
372.051175145079
 30
0
 11
513.8615313219339
 21
372.051175145079
 31
0
  0
LINE
  8
1
 62
3
 10
500.878253440889
 20
372.051175145079
 30
0
 11
495.643060746967
 21
372.051175145079
 31
0
  0
LINE
  8
1
 62
3
 10
496.277386577538
 20
353.2727272727971
 30
0
 11
500.878253440889
 21
372.051175145079
 31
0
  0
LINE
  8
1
 62
3
 10
501.5125792714898
 20
353.2727272727971
 30
0
 11
496.277386577538
 21
353.2727272727971
 31
0
  0
LINE
  8
1
 62
3
 10
506.113446134885
 20
372.051175145079
 30
0
 11
501.5125792714898
 21
353.2727272727971
 31
0
  0
LINE
  8
1
 62
3
 10
511.3486388288079
 20
372.051175145079
 30
0
 11
506.113446134885
 21
372.051175145079
 31
0
  0
LINE
  8
1
 62
3
 10
505.6637979062
 20
348.848484848477
 30
0
 11
511.3486388288079
 21
372.051175145079
 31
0
  0
LINE
  8
1
 62
3
 10
489.958219824279
 20
348.848484848477
 30
0
 11
505.6637979062
 21
348.848484848477
 31
0
  0
LINE
  8
1
 62
3
 10
495.643060746967
 20
372.051175145079
 30
0
 11
489.958219824279
 21
348.848484848477
 31
0
  0
LINE
  8
1
 62
3
 10
488.301425922338
 20
383.1117812056621
 30
0
 11
477.738701733397
 21
340
 31
0
  0
LINE
  8
1
 62
3
 10
494.1648417396059
 20
383.1117812056621
 30
0
 11
488.301425922338
 21
383.1117812056621
 31
0
  0
LINE
  8
1
 62
3
 10
485.1196812335149
 20
346.1939393939099
 30
0
 11
494.1648417396059
 21
383.1117812056621
 31
0
  0
LINE
  8
1
 62
3
 10
350
 20
340
 30
0
 11
357.8527890410551
 21
372.051175145079
 31
0
  0
LINE
  8
1
 62
3
 10
357.8527890410551
 20
372.051175145079
 30
0
 11
364.1350202737523
 21
372.051175145079
 31
0
  0
LINE
  8
1
 62
3
 10
364.1350202737523
 20
372.051175145079
 30
0
 11
357.3662052920627
 21
344.424242424182
 31
0
  0
LINE
  8
1
 62
3
 10
357.3662052920627
 20
344.424242424182
 30
0
 11
362.6013979859416
 21
344.424242424182
 31
0
  0
LINE
  8
1
 62
3
 10
362.6013979859416
 20
344.424242424182
 30
0
 11
370.7251805418237
 21
377.581478175405
 31
0
  0
LINE
  8
1
 62
3
 10
370.7251805418237
 20
377.581478175405
 30
0
 11
353.0340846972904
 21
377.581478175405
 31
0
  0
LINE
  8
1
 62
3
 10
353.0340846972904
 20
377.581478175405
 30
0
 11
354.3890522712754
 21
383.1117812056621
 31
0
  0
LINE
  8
1
 62
3
 10
354.3890522712754
 20
383.1117812056621
 30
0
 11
378.3623793485675
 21
383.1117812056621
 31
0
  0
LINE
  8
1
 62
3
 10
378.3623793485675
 20
383.1117812056621
 30
0
 11
367.799655159648
 21
340
 31
0
  0
LINE
  8
1
 62
3
 10
367.799655159648
 20
340
 30
0
 11
350
 21
340
 31
0
  0
LINE
  8
1
 62
3
 10
371.9878093147745
 20
340
 30
0
 11
379.8405983557677
 21
372.051175145079
 31
0
  0
LINE
  8
1
 62
3
 10
379.8405983557677
 20
372.051175145079
 30
0
 11
386.1228295885776
 21
372.051175145079
 31
0
  0
LINE
  8
1
 62
3
 10
386.1228295885776
 20
372.051175145079
 30
0
 11
379.3540146067826
 21
344.424242424182
 31
0
  0
LINE
  8
1
 62
3
 10
379.3540146067826
 20
344.424242424182
 30
0
 11
384.5892073007672
 21
344.424242424182
 31
0
  0
LINE
  8
1
 62
3
 10
384.5892073007672
 20
344.424242424182
 30
0
 11
391.3580222825731
 21
372.051175145079
 31
0
  0
LINE
  8
1
 62
3
 10
389.7874644743642
 20
340
 30
0
 11
371.9878093147745
 21
340
 31
0
  0
LINE
  8
1
 62
3
 10
391.3580222825731
 20
372.051175145079
 30
0
 11
397.6402535153793
 21
372.051175145079
 31
0
  0
LINE
  8
1
 62
3
 10
397.6402535153793
 20
372.051175145079
 30
0
 11
389.7874644743642
 21
340
 31
0
  0
LINE
  8
1
 62
3
 10
418.581024291314
 20
372.051175145079
 30
0
 11
401.8284076705422
 21
372.051175145079
 31
0
  0
LINE
  8
1
 62
3
 10
401.8284076705422
 20
372.051175145079
 30
0
 11
397.2275408071509
 21
353.2727272727971
 31
0
  0
LINE
  8
1
 62
3
 10
397.2275408071509
 20
353.2727272727971
 30
0
 11
407.6979261951165
 21
353.2727272727971
 31
0
  0
LINE
  8
1
 62
3
 10
407.6979261951165
 20
353.2727272727971
 30
0
 11
405.5299780766982
 21
344.424242424182
 31
0
  0
LINE
  8
1
 62
3
 10
405.5299780766982
 20
344.424242424182
 30
0
 11
395.0595926887872
 21
344.424242424182
 31
0
  0
LINE
  8
1
 62
3
 10
395.0595926887872
 20
344.424242424182
 30
0
 11
393.97561862948
 21
340
 31
0
  0
LINE
  8
1
 62
3
 10
393.97561862948
 20
340
 30
0
 11
410.7282352503025
 21
340
 31
0
  0
LINE
  8
1
 62
3
 10
410.7282352503025
 20
340
 30
0
 11
415.0641314872264
 21
357.696969696953
 31
0
  0
LINE
  8
1
 62
3
 10
415.0641314872264
 20
357.696969696953
 30
0
 11
404.5937460991627
 21
357.696969696953
 31
0
  0
LINE
  8
1
 62
3
 10
404.5937460991627
 20
357.696969696953
 30
0
 11
407.0266648441757
 21
367.626932720839
 31
0
  0
LINE
  8
1
 62
3
 10
407.0266648441757
 20
367.626932720839
 30
0
 11
417.4970502321557
 21
367.626932720839
 31
0
  0
LINE
  8
1
 62
3
 10
417.4970502321557
 20
367.626932720839
 30
0
 11
418.581024291314
 21
372.051175145079
 31
0
  0
LINE
  8
1
 62
3
 10
436.8118599193219
 20
360.990569084413
 30
0
 11
439.5217950672519
 21
372.051175145079
 31
0
  0
LINE
  8
1
 62
3
 10
439.5217950672519
 20
372.051175145079
 30
0
 11
422.7691784465314
 21
372.051175145079
 31
0
  0
LINE
  8
1
 62
3
 10
422.7691784465314
 20
372.051175145079
 30
0
 11
414.9163894055382
 21
340
 31
0
  0
LINE
  8
1
 62
3
 10
414.9163894055382
 20
340
 30
0
 11
431.669006026292
 21
340
 31
0
  0
LINE
  8
1
 62
3
 10
431.669006026292
 20
340
 30
0
 11
434.378941174266
 21
351.0606060606082
 31
0
  0
LINE
  8
1
 62
3
 10
434.378941174266
 20
351.0606060606082
 30
0
 11
428.0967099414779
 21
351.0606060606082
 31
0
  0
LINE
  8
1
 62
3
 10
428.0967099414779
 20
351.0606060606082
 30
0
 11
426.4707488526909
 21
344.424242424182
 31
0
  0
LINE
  8
1
 62
3
 10
426.4707488526909
 20
344.424242424182
 30
0
 11
422.2825946974881
 21
344.424242424182
 31
0
  0
LINE
  8
1
 62
3
 10
422.2825946974881
 20
344.424242424182
 30
0
 11
427.9674356201178
 21
367.626932720839
 31
0
  0
LINE
  8
1
 62
3
 10
427.9674356201178
 20
367.626932720839
 30
0
 11
432.1555897753099
 21
367.626932720839
 31
0
  0
LINE
  8
1
 62
3
 10
432.1555897753099
 20
367.626932720839
 30
0
 11
430.5296286865159
 21
360.990569084413
 31
0
  0
LINE
  8
1
 62
3
 10
430.5296286865159
 20
360.990569084413
 30
0
 11
436.8118599193219
 21
360.990569084413
 31
0
  0
LINE
  8
1
 62
3
 10
435.8571601814729
 20
340
 30
0
 11
442.1393914142609
 21
340
 31
0
  0
LINE
  8
1
 62
3
 10
452.6097768023359
 20
340
 30
0
 11
460.4625658433508
 21
372.051175145079
 31
0
  0
LINE
  8
1
 62
3
 10
446.3275455694388
 20
340
 30
0
 11
449.7119530603338
 21
353.813466360341
 31
0
  0
LINE
  8
1
 62
3
 10
442.1393914142609
 20
340
 30
0
 11
445.5237989051459
 21
353.813466360341
 31
0
  0
LINE
  8
1
 62
3
 10
443.7099492224659
 20
372.051175145079
 30
0
 11
435.8571601814729
 21
340
 31
0
  0
LINE
  8
1
 62
3
 10
460.4625658433508
 20
372.051175145079
 30
0
 11
454.1803346104349
 21
372.051175145079
 31
0
  0
LINE
  8
1
 62
3
 10
456.7979309574619
 20
340
 30
0
 11
473.55054757827
 21
340
 31
0
  0
LINE
  8
1
 62
3
 10
468.3522904045678
 20
344.424242424182
 30
0
 11
464.164136249467
 21
344.424242424182
 31
0
  0
LINE
  8
1
 62
3
 10
464.650719998459
 20
372.051175145079
 30
0
 11
456.7979309574619
 21
340
 31
0
  0
LINE
  8
1
 62
3
 10
464.164136249467
 20
344.424242424182
 30
0
 11
469.8489771720419
 21
367.626932720839
 31
0
  0
LINE
  8
1
 62
3
 10
481.4033366192889
 20
372.051175145079
 30
0
 11
464.650719998459
 21
372.051175145079
 31
0
  0
LINE
  8
1
 62
3
 10
469.8489771720419
 20
367.626932720839
 30
0
 11
474.037131327292
 21
367.626932720839
 31
0
  0
LINE
  8
1
 62
3
 10
474.037131327292
 20
367.626932720839
 30
0
 11
468.3522904045678
 21
344.424242424182
 31
0
  0
LINE
  8
1
 62
3
 10
481.4033366192889
 20
372.051175145079
 30
0
 11
473.55054757827
 21
340
 31
0
  0
LINE
  8
1
 62
3
 10
449.992180455331
 20
372.051175145079
 30
0
 11
443.7099492224659
 21
372.051175145079
 31
0
  0
LINE
  8
1
 62
3
 10
446.3275455694388
 20
340
 30
0
 11
452.6097768023359
 21
340
 31
0
  0
LINE
  8
1
 62
3
 10
445.5237989051459
 20
353.813466360341
 30
0
 11
449.7119530603338
 21
353.813466360341
 31
0
  0
LINE
  8
1
 62
3
 10
446.6077729643149
 20
358.2377087845272
 30
0
 11
450.7959271195539
 21
358.2377087845272
 31
0
  0
LINE
  8
1
 62
3
 10
446.6077729643149
 20
358.2377087845272
 30
0
 11
449.992180455331
 21
372.051175145079
 31
0
  0
LINE
  8
1
 62
3
 10
450.7959271195539
 20
358.2377087845272
 30
0
 11
454.1803346104349
 21
372.051175145079
 31
0
  0
LINE
  8
1
 62
3
 10
415.7649031508845
 20
388.7622048583319
 30
0
 11
415.0328203819372
 21
387.9784478723631
 31
0
  0
LINE
  8
1
 62
3
 10
415.3282234693179
 20
386.979895810782
 30
0
 11
415.0328203819372
 21
387.9784478723631
 31
0
  0
ARC
  8
1
 62
3
 10
523.514586791596
 20
389.3622336822259
 30
0
 40
1.39187009132817
 50
358.7013873342734
 51
66.54486649404458
  0
ARC
  8
1
 62
3
 10
522.789193605106
 20
389.0530393898221
 30
0
 40
1.155889798231653
 50
0.9850581704823435
 51
82.91825463293205
  0
ARC
  8
1
 62
3
 10
522.8643762433019
 20
392.264025930551
 30
0
 40
1.257687287767188
 50
285.1995809529435
 51
80.93139523878851
  0
ARC
  8
1
 62
3
 10
522.9426940693159
 20
392.3039199213811
 30
0
 40
2.009798008861834
 50
304.0700115354259
 51
86.2978887182587
  0
CIRCLE
  8
1
 62
3
 10
522.7358752379369
 20
390.878787878755
 30
0
 40
5.530127989695984
  0
CIRCLE
  8
1
 62
3
 10
522.7358752379369
 20
390.878787878755
 30
0
 40
5.972862778753957
  0
ENDBLK
  8
0
  0
BLOCK
  8
0
  2
WANNENF_SSE
 70
0
 10
595
 20
0
 30
0
  0
LINE
  8
1
 62
2
 10
439.0347690000003
 20
25
 30
0
 11
479.0347690000003
 21
25
 31
0
  0
LINE
  8
1
 62
2
 10
444.0347690000003
 20
55
 30
0
 11
474.0347690000003
 21
55
 31
0
  0
LINE
  8
1
 62
2
 10
449.0347690000003
 20
85
 30
0
 11
469.0347690000003
 21
85
 31
0
  0
LINE
  8
1
 62
2
 10
438.5100736690761
 20
144.5515768959431
 30
0
 11
478.4966881762462
 21
143.5168497556024
 31
0
  0
LINE
  8
1
 62
2
 10
433.6410877482226
 20
149.6792446018817
 30
0
 11
438.6394145616182
 21
149.5499037093396
 31
0
  0
LINE
  8
1
 62
2
 10
443.6377413750156
 20
149.4205628167974
 30
0
 11
473.6277022553918
 21
148.644517461541
 31
0
  0
LINE
  8
1
 62
2
 10
478.6260290687892
 20
148.5151765689989
 30
0
 11
483.6243558821848
 21
148.3858356764567
 31
0
  0
LINE
  8
1
 62
2
 10
418.9047890931183
 20
160.063920906302
 30
0
 11
433.8997695333073
 21
159.6758982286747
 31
0
  0
LINE
  8
1
 62
2
 10
483.8830376672709
 20
158.3824893032488
 30
0
 11
498.8780181074594
 21
157.9944666256206
 31
0
  0
LINE
  8
1
 62
2
 10
438.7687554541612
 20
154.5482305227351
 30
0
 11
443.7670822675577
 21
154.418889630193
 31
0
  0
LINE
  8
1
 62
2
 10
473.7570431479348
 20
153.6428442749375
 30
0
 11
478.7553699613313
 21
153.5135033823945
 31
0
  0
LINE
  8
1
 62
2
 10
439.0347690000003
 20
0
 30
0
 11
439.0347690000003
 21
25
 31
0
  0
LINE
  8
1
 62
2
 10
479.0347690000003
 20
0
 30
0
 11
479.0347690000003
 21
25
 31
0
  0
LINE
  8
1
 62
2
 10
474.0347690000003
 20
25
 30
0
 11
474.0347690000003
 21
55
 31
0
  0
LINE
  8
1
 62
2
 10
444.0347690000003
 20
25
 30
0
 11
444.0347690000003
 21
55
 31
0
  0
LINE
  8
1
 62
2
 10
444.0347690000003
 20
55
 30
0
 11
449.0347690000003
 21
85
 31
0
  0
LINE
  8
1
 62
2
 10
474.0347690000003
 20
55
 30
0
 11
469.0347690000003
 21
85
 31
0
  0
LINE
  8
1
 62
2
 10
454.0347690000003
 20
85
 30
0
 11
454.0347690000003
 21
144.1498468719733
 31
0
  0
LINE
  8
1
 62
2
 10
464.0347690000003
 20
85
 30
0
 11
464.0347690000003
 21
143.8910784933314
 31
0
  0
LINE
  8
1
 62
2
 10
418.9047890931183
 20
160.063920906302
 30
0
 11
419.0341299856614
 21
165.0622477196985
 31
0
  0
LINE
  8
1
 62
2
 10
419.0341299856614
 20
165.0622477196985
 30
0
 11
439.0274372392464
 21
164.5448841495281
 31
0
  0
LINE
  8
1
 62
2
 10
439.0274372392464
 20
164.5448841495281
 30
0
 11
438.7687554541612
 21
154.5482305227351
 31
0
  0
LINE
  8
1
 62
2
 10
433.8997695333073
 20
159.6758982286747
 30
0
 11
433.6410877482226
 21
149.6792446018817
 31
0
  0
LINE
  8
1
 62
2
 10
443.7670822675577
 20
154.418889630193
 30
0
 11
443.6377413750156
 21
149.4205628167974
 31
0
  0
LINE
  8
1
 62
2
 10
438.6394145616182
 20
149.5499037093396
 30
0
 11
438.5100736690761
 21
144.5515768959431
 31
0
  0
LINE
  8
1
 62
2
 10
473.6277022553918
 20
148.644517461541
 30
0
 11
473.7570431479348
 21
153.6428442749375
 31
0
  0
LINE
  8
1
 62
2
 10
478.7553699613313
 20
153.5135033823945
 30
0
 11
479.0140517464165
 21
163.5101570091874
 31
0
  0
LINE
  8
1
 62
2
 10
479.0140517464165
 20
163.5101570091874
 30
0
 11
499.0073590000015
 21
162.9927934390171
 31
0
  0
LINE
  8
1
 62
2
 10
498.8780181074594
 20
157.9944666256206
 30
0
 11
499.0073590000015
 21
162.9927934390171
 31
0
  0
LINE
  8
1
 62
2
 10
483.8830376672709
 20
158.3824893032488
 30
0
 11
483.6243558821848
 21
148.3858356764567
 31
0
  0
LINE
  8
1
 62
2
 10
478.6260290687892
 20
148.5151765689989
 30
0
 11
478.4966881762462
 21
143.5168497556024
 31
0
  0
LINE
  8
1
 62
2
 10
1320.965230999999
 20
25
 30
0
 11
1360.965230999999
 21
25
 31
0
  0
LINE
  8
1
 62
2
 10
1325.965230999999
 20
55
 30
0
 11
1355.965230999999
 21
55
 31
0
  0
LINE
  8
1
 62
2
 10
1330.965230999999
 20
85
 30
0
 11
1350.965230999999
 21
85
 31
0
  0
LINE
  8
1
 62
2
 10
1321.503311823753
 20
143.5168497556024
 30
0
 11
1361.489926330924
 21
144.5515768959431
 31
0
  0
LINE
  8
1
 62
2
 10
1361.360585438381
 20
149.5499037093396
 30
0
 11
1366.358912251777
 21
149.6792446018817
 31
0
  0
LINE
  8
1
 62
2
 10
1326.372297744608
 20
148.644517461541
 30
0
 11
1356.362258624984
 21
149.4205628167974
 31
0
  0
LINE
  8
1
 62
2
 10
1316.375644117815
 20
148.3858356764567
 30
0
 11
1321.37397093121
 21
148.5151765689989
 31
0
  0
LINE
  8
1
 62
2
 10
1366.100230466692
 20
159.6758982286747
 30
0
 11
1381.095210906881
 21
160.063920906302
 31
0
  0
LINE
  8
1
 62
2
 10
1301.12198189254
 20
157.9944666256206
 30
0
 11
1316.116962332729
 21
158.3824893032488
 31
0
  0
LINE
  8
1
 62
2
 10
1356.232917732442
 20
154.418889630193
 30
0
 11
1361.231244545838
 21
154.5482305227351
 31
0
  0
LINE
  8
1
 62
2
 10
1321.244630038668
 20
153.5135033823945
 30
0
 11
1326.242956852065
 21
153.6428442749375
 31
0
  0
LINE
  8
1
 62
2
 10
1360.965230999999
 20
25
 30
0
 11
1360.965230999999
 21
0
 31
0
  0
LINE
  8
1
 62
2
 10
1320.965230999999
 20
25
 30
0
 11
1320.965230999999
 21
0
 31
0
  0
LINE
  8
1
 62
2
 10
1325.965230999999
 20
55
 30
0
 11
1325.965230999999
 21
25
 31
0
  0
LINE
  8
1
 62
2
 10
1355.965230999999
 20
55
 30
0
 11
1355.965230999999
 21
25
 31
0
  0
LINE
  8
1
 62
2
 10
1350.965230999999
 20
85
 30
0
 11
1355.965230999999
 21
55
 31
0
  0
LINE
  8
1
 62
2
 10
1330.965230999999
 20
85
 30
0
 11
1325.965230999999
 21
55
 31
0
  0
LINE
  8
1
 62
2
 10
1345.965230999999
 20
144.1498468719733
 30
0
 11
1345.965230999999
 21
85
 31
0
  0
LINE
  8
1
 62
2
 10
1335.965230999999
 20
143.8910784933314
 30
0
 11
1335.965230999999
 21
85
 31
0
  0
LINE
  8
1
 62
2
 10
1380.965870014338
 20
165.0622477196985
 30
0
 11
1381.095210906881
 21
160.063920906302
 31
0
  0
LINE
  8
1
 62
2
 10
1360.972562760753
 20
164.5448841495281
 30
0
 11
1380.965870014338
 21
165.0622477196985
 31
0
  0
LINE
  8
1
 62
2
 10
1361.231244545838
 20
154.5482305227351
 30
0
 11
1360.972562760753
 21
164.5448841495281
 31
0
  0
LINE
  8
1
 62
2
 10
1366.358912251777
 20
149.6792446018817
 30
0
 11
1366.100230466692
 21
159.6758982286747
 31
0
  0
LINE
  8
1
 62
2
 10
1356.362258624984
 20
149.4205628167974
 30
0
 11
1356.232917732442
 21
154.418889630193
 31
0
  0
LINE
  8
1
 62
2
 10
1361.489926330924
 20
144.5515768959431
 30
0
 11
1361.360585438381
 21
149.5499037093396
 31
0
  0
LINE
  8
1
 62
2
 10
1326.242956852065
 20
153.6428442749375
 30
0
 11
1326.372297744608
 21
148.644517461541
 31
0
  0
LINE
  8
1
 62
2
 10
1320.985948253583
 20
163.5101570091874
 30
0
 11
1321.244630038668
 21
153.5135033823945
 31
0
  0
LINE
  8
1
 62
2
 10
1300.992640999998
 20
162.9927934390171
 30
0
 11
1320.985948253583
 21
163.5101570091874
 31
0
  0
LINE
  8
1
 62
2
 10
1300.992640999998
 20
162.9927934390171
 30
0
 11
1301.12198189254
 21
157.9944666256206
 31
0
  0
LINE
  8
1
 62
2
 10
1316.375644117815
 20
148.3858356764567
 30
0
 11
1316.116962332729
 21
158.3824893032488
 31
0
  0
LINE
  8
1
 62
2
 10
1321.503311823753
 20
143.5168497556024
 30
0
 11
1321.37397093121
 21
148.5151765689989
 31
0
  0
ENDBLK
  8
0
  0
BLOCK
  8
0
  2
WANNE_ANCONA_TREND_225
 70
0
 10
651.3288259999999
 20
44.24209900000005
 30
0
  0
LINE
  8
1
 62
7
 10
0
 20
640
 30
0
 11
1800
 21
640
 31
0
  0
LINE
  8
1
 62
7
 10
1800
 20
605
 30
0
 11
2.273736754432321e-013
 21
605
 31
0
  0
LINE
  8
1
 62
7
 10
0
 20
640
 30
0
 11
2.273736754432321e-013
 21
605
 31
0
  0
LINE
  8
1
 62
7
 10
1800
 20
605
 30
0
 11
1800
 21
640
 31
0
  0
LINE
  8
1
 62
7
 10
771.2544556251489
 20
590
 30
0
 11
1028.745544374852
 21
590
 31
0
  0
LINE
  8
1
 62
7
 10
766.6752369999999
 20
640
 30
0
 11
771.2544556251489
 21
590
 31
0
  0
LINE
  8
1
 62
7
 10
1028.745544374852
 20
590
 30
0
 11
1033.324763000001
 21
640
 31
0
  0
LINE
  8
1
 62
7
 10
355.1035013905369
 20
185.8354676124759
 30
0
 11
824.149469226076
 21
170.9931708029367
 31
0
  0
LINE
  8
1
 62
7
 10
796.132797
 20
156.1751300000001
 30
0
 11
374.9422280000003
 21
168.6757740000003
 31
0
  0
LINE
  8
1
 62
7
 10
374.9422280000003
 20
168.6757740000003
 30
0
 11
357.8700788206502
 21
185.7479231793495
 31
0
  0
LINE
  8
1
 62
7
 10
796.132797
 20
156.1751300000001
 30
0
 11
811.3556792082261
 21
171.3980122082262
 31
0
  0
LINE
  8
1
 62
7
 10
976.2016349980449
 20
171.0042809999386
 30
0
 11
1444.896498609463
 21
185.8354676124759
 31
0
  0
LINE
  8
1
 62
7
 10
1425.057772
 20
168.6757740000003
 30
0
 11
1003.867203
 21
156.1751300000001
 31
0
  0
LINE
  8
1
 62
7
 10
1442.12992117935
 20
185.7479231793495
 30
0
 11
1425.057772
 21
168.6757740000003
 31
0
  0
LINE
  8
1
 62
7
 10
988.6443207917739
 20
171.3980122082262
 30
0
 11
1003.867203
 21
156.1751300000001
 31
0
  0
LINE
  8
1
 62
7
 10
833.8549599999999
 20
169.7656619999998
 30
0
 11
841.227508366931
 21
169.1206481428749
 31
0
  0
LINE
  8
1
 62
7
 10
844.5302624267049
 20
168.0792939083417
 30
0
 11
852.5000000310631
 21
163.4779636808653
 31
0
  0
LINE
  8
1
 62
7
 10
855
 20
159.1478366798774
 30
0
 11
855
 21
152.0045829999999
 31
0
  0
LINE
  8
1
 62
7
 10
851
 20
152.0045829999999
 30
0
 11
851
 21
159.1478373859591
 31
0
  0
LINE
  8
1
 62
7
 10
850.4999999674351
 20
160.0138628085447
 30
0
 11
842.5302644477999
 21
164.6151913566005
 31
0
  0
LINE
  8
1
 62
7
 10
840.8801739656169
 20
165.1357561948553
 30
0
 11
833.5063373152709
 21
165.7808837171751
 31
0
  0
LINE
  8
1
 62
7
 10
851
 20
152.0045829999999
 30
0
 11
949
 21
152.0045829999999
 31
0
  0
LINE
  8
1
 62
7
 10
855
 20
162.0345880019131
 30
0
 11
945
 21
162.0345880019131
 31
0
  0
LINE
  8
1
 62
7
 10
957.005682
 20
168.9660720000002
 30
0
 11
842.9943167567201
 21
168.9660725690596
 31
0
  0
LINE
  8
1
 62
7
 10
958.772491633069
 20
169.1206481428749
 30
0
 11
966.1450400000001
 21
169.7656619999998
 31
0
  0
LINE
  8
1
 62
7
 10
947.4999999689369
 20
163.4779636808653
 30
0
 11
955.4697375732951
 21
168.0792939083417
 31
0
  0
LINE
  8
1
 62
7
 10
945
 20
152.0045829999999
 30
0
 11
945
 21
159.1478366798774
 31
0
  0
LINE
  8
1
 62
7
 10
949
 20
159.1478373859591
 30
0
 11
949
 21
152.0045829999999
 31
0
  0
LINE
  8
1
 62
7
 10
957.4697355522001
 20
164.6151913566005
 30
0
 11
949.5000000325649
 21
160.0138628085447
 31
0
  0
LINE
  8
1
 62
7
 10
966.4936626847291
 20
165.7808837171751
 30
0
 11
959.1198260343831
 21
165.1357561948553
 31
0
  0
LINE
  8
1
 62
7
 10
804.8740829999999
 20
175.0045829999999
 30
0
 11
995.1259170000001
 21
175.0045829999999
 31
0
  0
LINE
  8
1
 62
3
  6
DASHDOT
 10
900
 20
200.0045829999999
 30
0
 11
900
 21
127.0045829999999
 31
0
  0
ARC
  8
1
 62
7
 10
-1180.045443512893
 20
-316.833868637164
 30
0
 40
1562.049494402138
 50
20.8747589627585
 51
36.16721537422392
  0
ARC
  8
1
 62
7
 10
357.9251249999998
 20
269.7880639999999
 30
0
 40
83.99999999999982
 50
200.9412220000004
 51
268.3000000000001
  0
ARC
  8
1
 62
7
 10
2980.045443512892
 20
-316.833868637164
 30
0
 40
1562.049494402137
 50
143.832784625776
 51
159.1252410372415
  0
ARC
  8
1
 62
7
 10
1442.074875
 20
269.7880639999999
 30
0
 40
83.99999999999973
 50
271.6999999999997
 51
339.0587779999996
  0
ARC
  8
1
 62
7
 10
840.530263144816
 20
161.1510920366504
 30
0
 40
7.999998464376629
 50
59.99998657793026
 51
84.9999924724746
  0
ARC
  8
1
 62
7
 10
840.5302619553099
 20
161.151085123523
 30
0
 40
4.000005245498143
 50
60.00000215446466
 51
84.98147167698826
  0
ARC
  8
1
 62
7
 10
834.29073827396
 20
174.7466353368432
 30
0
 40
8.999999021817013
 50
216.5513133612056
 51
265.0000020802069
  0
ARC
  8
1
 62
7
 10
823.8475279942959
 20
167.0045794601201
 30
0
 40
4.000003676013474
 50
36.5513514256797
 51
90.70422510423504
  0
ARC
  8
1
 62
7
 10
965.70926172604
 20
174.7466353368432
 30
0
 40
8.999999021816514
 50
274.9999979197874
 51
323.4486866387901
  0
ARC
  8
1
 62
7
 10
976.1524720057041
 20
167.0045794601201
 30
0
 40
4.000003676014001
 50
89.295774895778
 51
143.44864857433
  0
ARC
  8
1
 62
7
 10
959.4697368551831
 20
161.1510920366504
 30
0
 40
7.999998464376446
 50
95.00000752751892
 51
120.0000134220641
  0
ARC
  8
1
 62
7
 10
959.4697380446901
 20
161.151085123523
 30
0
 40
4.000005245205273
 50
95.01852832301175
 51
119.9999978455354
  0
ARC
  8
1
 62
7
 10
850
 20
159.1478366798774
 30
0
 40
5
 50
0
 51
59.99999958897618
  0
ARC
  8
1
 62
7
 10
850
 20
159.1478373859591
 30
0
 40
1
 50
0
 51
60.00000215447178
  0
ARC
  8
1
 62
7
 10
950
 20
159.1478366798774
 30
0
 40
4.999999999999989
 50
120.0000004110238
 51
180
  0
ARC
  8
1
 62
7
 10
950
 20
159.1478373859591
 30
0
 40
0.9999999999998346
 50
119.9999978455282
 51
180
  0
INSERT
  8
0
  2
WANNENF_SSE
 10
595
 20
0
 30
0
  0
ENDBLK
  8
0
  0
ENDSEC
  0
SECTION
  2
ENTITIES
  0
TEXT
  8
1
 62
2
 10
350
 20
265
 30
0
 40
35
  1
ANCONA Trend 225
 41
0.5993999999999999
  0
TEXT
  8
1
 62
3
 10
858.042
 20
67.0045829999999
 30
0
 40
35
  1
Ö 90
 41
0.5993999999999999
 72
1
 73
3
 11
900
 21
102.0045829999999
 31
0
  0
INSERT
  8
0
  2
DLX
 10
350
 20
340
 30
0
  0
INSERT
  8
0
  2
WANNE_ANCONA_TREND_225
 10
651.3288259999999
 20
44.24209900000005
 30
0
  0
ENDSEC
  0
EOF
