  0
SECTION
  2
HEADER
  9
$ACADVER
  1
AC1014
  9
$ACADMAINTVER
 70
           0
  9
$DWGCODEPAGE
  3
ANSI_1252
  9
$INSBASE
 10
0.0
 20
0.0
 30
0.0
  9
$EXTMIN
 10
1.000000000000E+20
 20
1.000000000000E+20
 30
1.000000000000E+20
  9
$EXTMAX
 10
-1.000000000000E+20
 20
-1.000000000000E+20
 30
-1.000000000000E+20
  9
$LIMMIN
 10
0.0
 20
0.0
  9
$LIMMAX
 10
0.0
 20
0.0
  9
$ORTHOMODE
 70
           0
  9
$REGENMODE
 70
           1
  9
$FILLMODE
 70
           1
  9
$QTEXTMODE
 70
           0
  9
$MIRRTEXT
 70
           1
  9
$DRAGMODE
 70
           2
  9
$LTSCALE
 40
1.0
  9
$OSMODE
 70
           0
  9
$ATTMODE
 70
           1
  9
$TEXTSIZE
 40
0.2
  9
$TRACEWID
 40
0.05
  9
$TEXTSTYLE
  7
STANDARD
  9
$CLAYER
  8
0
  9
$CELTYPE
  6
CONTINUOUS
  9
$CECOLOR
 62
         256
  9
$CELTSCALE
 40
1.0
  9
$DELOBJ
 70
           1
  9
$DISPSILH
 70
           0
  9
$DIMSCALE
 40
1.0
  9
$DIMASZ
 40
0.18
  9
$DIMEXO
 40
0.0625
  9
$DIMDLI
 40
0.38
  9
$DIMRND
 40
0.0
  9
$DIMDLE
 40
0.0
  9
$DIMEXE
 40
0.18
  9
$DIMTP
 40
0.0
  9
$DIMTM
 40
0.0
  9
$DIMTXT
 40
0.18
  9
$DIMCEN
 40
0.09
  9
$DIMTSZ
 40
0.0
  9
$DIMTOL
 70
           0
  9
$DIMLIM
 70
           0
  9
$DIMTIH
 70
           1
  9
$DIMTOH
 70
           1
  9
$DIMSE1
 70
           0
  9
$DIMSE2
 70
           0
  9
$DIMTAD
 70
           0
  9
$DIMZIN
 70
           0
  9
$DIMBLK
  1

  9
$DIMASO
 70
           1
  9
$DIMSHO
 70
           1
  9
$DIMPOST
  1

  9
$DIMAPOST
  1

  9
$DIMALT
 70
           0
  9
$DIMALTD
 70
           2
  9
$DIMALTF
 40
25.4
  9
$DIMLFAC
 40
1.0
  9
$DIMTOFL
 70
           0
  9
$DIMTVP
 40
0.0
  9
$DIMTIX
 70
           0
  9
$DIMSOXD
 70
           0
  9
$DIMSAH
 70
           0
  9
$DIMBLK1
  1

  9
$DIMBLK2
  1

  9
$DIMSTYLE
  2
STANDARD
  9
$DIMCLRD
 70
           0
  9
$DIMCLRE
 70
           0
  9
$DIMCLRT
 70
           0
  9
$DIMTFAC
 40
1.0
  9
$DIMGAP
 40
0.09
  9
$DIMJUST
 70
           0
  9
$DIMSD1
 70
           0
  9
$DIMSD2
 70
           0
  9
$DIMTOLJ
 70
           1
  9
$DIMTZIN
 70
           0
  9
$DIMALTZ
 70
           0
  9
$DIMALTTZ
 70
           0
  9
$DIMFIT
 70
           3
  9
$DIMUPT
 70
           0
  9
$DIMUNIT
 70
           2
  9
$DIMDEC
 70
           4
  9
$DIMTDEC
 70
           4
  9
$DIMALTU
 70
           2
  9
$DIMALTTD
 70
           2
  9
$DIMTXSTY
  7
STANDARD
  9
$DIMAUNIT
 70
           0
  9
$LUNITS
 70
           2
  9
$LUPREC
 70
           4
  9
$SKETCHINC
 40
0.1
  9
$FILLETRAD
 40
0.0
  9
$AUNITS
 70
           0
  9
$AUPREC
 70
           0
  9
$MENU
  1
acad
  9
$ELEVATION
 40
0.0
  9
$PELEVATION
 40
0.0
  9
$THICKNESS
 40
0.0
  9
$LIMCHECK
 70
           0
  9
$BLIPMODE
 70
           1
  9
$CHAMFERA
 40
0.0
  9
$CHAMFERB
 40
0.0
  9
$CHAMFERC
 40
0.0
  9
$CHAMFERD
 40
0.0
  9
$SKPOLY
 70
           0
  9
$TDCREATE
 40
0.000000000
  9
$TDUPDATE
 40
0.000000000
  9
$TDINDWG
 40
0.0000000000
  9
$TDUSRTIMER
 40
0.0000000000
  9
$USRTIMER
 70
           1
  9
$ANGBASE
 50
0.0
  9
$ANGDIR
 70
           0
  9
$PDMODE
 70
           0
  9
$PDSIZE
 40
0.0
  9
$PLINEWID
 40
0.0
  9
$COORDS
 70
           0
  9
$SPLFRAME
 70
           0
  9
$SPLINETYPE
 70
           6
  9
$SPLINESEGS
 70
           8
  9
$ATTDIA
 70
           0
  9
$ATTREQ
 70
           1
  9
$HANDLING
 70
           1
  9
$HANDSEED
  5
158
  9
$SURFTAB1
 70
           6
  9
$SURFTAB2
 70
           6
  9
$SURFTYPE
 70
           6
  9
$SURFU
 70
           6
  9
$SURFV
 70
           6
  9
$UCSNAME
  2

  9
$UCSORG
 10
0.0
 20
0.0
 30
0.0
  9
$UCSXDIR
 10
1.0
 20
0.0
 30
0.0
  9
$UCSYDIR
 10
0.0
 20
1.0
 30
0.0
  9
$PUCSNAME
  2

  9
$PUCSORG
 10
0.0
 20
0.0
 30
0.0
  9
$PUCSXDIR
 10
1.0
 20
0.0
 30
0.0
  9
$PUCSYDIR
 10
0.0
 20
1.0
 30
0.0
  9
$USERI1
 70
           0
  9
$USERI2
 70
           0
  9
$USERI3
 70
           0
  9
$USERI4
 70
           0
  9
$USERI5
 70
           0
  9
$USERR1
 40
0.0
  9
$USERR2
 40
0.0
  9
$USERR3
 40
0.0
  9
$USERR4
 40
0.0
  9
$USERR5
 40
0.0
  9
$WORLDVIEW
 70
           1
  9
$SHADEDGE
 70
           3
  9
$SHADEDIF
 70
          70
  9
$TILEMODE
 70
           1
  9
$MAXACTVP
 70
          16
  9
$PINSBASE
 10
0.0
 20
0.0
 30
0.0
  9
$PLIMCHECK
 70
           0
  9
$PEXTMIN
 10
1.000000000000E+20
 20
1.000000000000E+20
 30
1.000000000000E+20
  9
$PEXTMAX
 10
-1.000000000000E+20
 20
-1.000000000000E+20
 30
-1.000000000000E+20
  9
$PLIMMIN
 10
0.0
 20
0.0
  9
$PLIMMAX
 10
12.0
 20
9.0
  9
$UNITMODE
 70
           0
  9
$VISRETAIN
 70
           0
  9
$PLINEGEN
 70
           1
  9
$PSLTSCALE
 70
           0
  9
$TREEDEPTH
 70
        3020
  9
$PICKSTYLE
 70
           1
  9
$CMLSTYLE
  2
STANDARD
  9
$CMLJUST
 70
           0
  9
$CMLSCALE
 40
1.0
  9
$PROXYGRAPHICS
 70
           0
  9
$MEASUREMENT
 70
           0
  0
ENDSEC
  0
SECTION
  2
CLASSES
  0
CLASS
  1
LWPOLYLINE
  2
AcDbPolyline
  3
"AutoCAD"
 90
        0
280
           0
281
           1
  0
CLASS
  1
IMAGE
  2
AcDbRasterImage
  3
ISM
 90
      127
280
           0
281
           1
  0
CLASS
  1
OLE2FRAME
  2
AcDbOle2Frame
  3
""
 90
        0
280
           0
281
           1
  0
CLASS
  1
HATCH
  2
AcDbHatch
  3
"ACAD_SEDONA"
 90
        0
280
           0
281
           1
  0
CLASS
  1
DICTIONARYVAR
  2
AcDbDictionaryVar
  3
"AutoCAD"
 90
        0
280
           0
281
           0
  0
CLASS
  1
RASTERVARIABLES
  2
AcDbRasterVariables
  3
ISM
 90
        0
280
           0
281
           0
  0
CLASS
  1
IMAGEDEF
  2
AcDbRasterImageDef
  3
ISM
 90
        0
280
           0
281
           0
  0
CLASS
  1
IMAGEDEF_REACTOR
  2
AcDbRasterImageDefReactor
  3
ISM
 90
        1
280
           0
281
           0
  0
CLASS
  1
IDBUFFER
  2
AcDbIdBuffer
  3
"Acad"
 90
        0
280
           0
281
           0
  0
CLASS
  1
SPATIAL_FILTER
  2
AcDbSpatialFilter
  3
"Acad"
 90
        0
280
           0
281
           0
  0
CLASS
  1
XRECORD
  2
AcDbXrecord
  3
"<Built In>"
 90
        0
280
           0
281
           0
  0
CLASS
  1
SORTENTSTABLE
  2
AcDbSortentsTable
  3
"AutoCAD"
 90
        0
280
           0
281
           0
  0
CLASS
  1
LAYER_INDEX
  2
AcDbLayerIndex
  3
"Acad"
 90
        0
280
           0
281
           0
  0
CLASS
  1
SPATIAL_INDEX
  2
AcDbSpatialIndex
  3
"Acad"
 90
        0
280
           0
281
           0
  0
CLASS
  1
OBJECT_PTR
  2
CAseDLPNTableRecord
  3
"ASE-LPNTableRecord"
 90
        1
280
           0
281
           0
  0
CLASS
  1
LAYOUT
  2
AcDbLayout
  3
"AutoCAD 2000"
 90
        1
280
           0
281
           0
  0
CLASS
  1
PLOTSETTINGS
  2
AcDbPlotSettings
  3
"AutoCAD 2000"
 90
        1
280
           0
281
           0
  0
CLASS
  1
ACDBDICTIONARYWDFLT
  2
AcDbDictionaryWithDefault
  3
"AutoCAD 2000"
 90
        1
280
           0
281
           0
  0
CLASS
  1
ACDBPLACEHOLDER
  2
AcDbPlaceHolder
  3
"AutoCAD 2000"
 90
        1
280
           0
281
           0
  0
CLASS
  1
VBA_PROJECT
  2
AcDbVbaProject
  3
"acadvba"
 90
        1
280
           0
281
           0
  0
CLASS
  1
WIPEOUT
  2
AcDbWipeout
  3
WipeOut|AutoCAD Express Tool|expresstools@autodesk.com
 90
      127
280
           0
281
           1
  0
CLASS
  1
WIPEOUTVARIABLES
  2
AcDbWipeoutVariables
  3
WipeOut|AutoCAD Express Tool|expresstools@autodesk.com
 90
        0
280
           0
281
           0
  0
CLASS
  1
RTEXT
  2
RText
  3
RText|AutoCAD Express Tool|expresstools@autodesk.com
 90
        0
280
           0
281
           1
  0
CLASS
  1
ARCALIGNEDTEXT
  2
AcDbArcAlignedText
  3
ATEXT|AutoCAD Express Tool|expresstools@autodesk.com
 90
        0
280
           0
281
           1
  0
ENDSEC
  0
SECTION
  2
TABLES
  0
TABLE
  2
VPORT
  5
7
100
AcDbSymbolTable
 70
           1
  0
VPORT
  5
15
100
AcDbSymbolTableRecord
100
AcDbViewportTableRecord
  2
*ACTIVE
 70
           0
 10
0.0
 20
0.0
 11
1.0
 21
1.0
 12
6.591288
 22
4.579184
 13
0.0
 23
0.0
 14
1.0
 24
1.0
 15
0.0
 25
0.0
 16
0.0
 26
0.0
 36
1.0
 17
0.0
 27
0.0
 37
0.0
 40
9.158369
 41
0.688564
 42
50.0
 43
0.0
 44
0.0
 50
0.0
 51
0.0
 71
           0
 72
         100
 73
           1
 74
           1
 75
           0
 76
           0
 77
           0
 78
           0
  0
ENDTAB
  0
TABLE
  2
LTYPE
  5
4
100
AcDbSymbolTable
 70
          10
  0
LTYPE
  5
11
100
AcDbSymbolTableRecord
100
AcDbLinetypeTableRecord
  2
BYBLOCK
 70
          64
  3

 72
          65
 73
           0
 40
0.0
  0
LTYPE
  5
12
100
AcDbSymbolTableRecord
100
AcDbLinetypeTableRecord
  2
BYLAYER
 70
          64
  3

 72
          65
 73
           0
 40
0.0
  0
LTYPE
  5
13
100
AcDbSymbolTableRecord
100
AcDbLinetypeTableRecord
  2
CONTINUOUS
 70
          64
  3
Solid line
 72
          65
 73
           0
 40
0.0
  0
LTYPE
  5
1D
100
AcDbSymbolTableRecord
100
AcDbLinetypeTableRecord
  2
DASHED
 70
          64
  3
Dashed
 72
          65
 73
           2
 40
15.0
 49
12.0
 74
           0
 49
-3.0
 74
           0
  0
LTYPE
  5
1E
100
AcDbSymbolTableRecord
100
AcDbLinetypeTableRecord
  2
DOTTED
 70
          64
  3
Dotted
 72
          65
 73
           2
 40
3.5
 49
0.5
 74
           0
 49
-3.0
 74
           0
  0
LTYPE
  5
1F
100
AcDbSymbolTableRecord
100
AcDbLinetypeTableRecord
  2
DOT_CENTER
 70
          64
  3
Dot_Center
 72
          65
 73
           4
 40
2.0
 49
1.25
 74
           0
 49
-0.25
 74
           0
 49
0.25
 74
           0
 49
-0.25
 74
           0
  0
LTYPE
  5
20
100
AcDbSymbolTableRecord
100
AcDbLinetypeTableRecord
  2
LONG_DASHED
 70
          64
  3
Long_Dashed
 72
          65
 73
           2
 40
2.0
 49
1.5
 74
           0
 49
-0.5
 74
           0
  0
LTYPE
  5
21
100
AcDbSymbolTableRecord
100
AcDbLinetypeTableRecord
  2
DASH_CENTER
 70
          64
  3
Dash_Center
 72
          65
 73
           4
 40
36.0
 49
24.0
 74
           0
 49
-3.0
 74
           0
 49
6.0
 74
           0
 49
-3.0
 74
           0
  0
LTYPE
  5
22
100
AcDbSymbolTableRecord
100
AcDbLinetypeTableRecord
  2
PHANTOM
 70
          64
  3
Phantom
 72
          65
 73
           6
 40
2.5
 49
1.25
 74
           0
 49
-0.25
 74
           0
 49
0.25
 74
           0
 49
-0.25
 74
           0
 49
0.25
 74
           0
 49
-0.25
 74
           0
  0
LTYPE
  5
23
100
AcDbSymbolTableRecord
100
AcDbLinetypeTableRecord
  2
CENTER_DASH_DASH
 70
          64
  3
Center_Dash_Dash
 72
          65
 73
           6
 40
22.0
 49
12.0
 74
           0
 49
-3.0
 74
           0
 49
0.5
 74
           0
 49
-3.0
 74
           0
 49
0.5
 74
           0
 49
-3.0
 74
           0
  0
ENDTAB
  0
TABLE
  2
LAYER
  5
2
100
AcDbSymbolTable
 70
           2
  0
LAYER
  5
14
100
AcDbSymbolTableRecord
100
AcDbLayerTableRecord
  2
0
 70
           0
 62
           7
  6
CONTINUOUS
  0
LAYER
  5
24
100
AcDbSymbolTableRecord
100
AcDbLayerTableRecord
  2
1
 70
           0
 62
           7
  6
CONTINUOUS
  0
ENDTAB
  0
TABLE
  2
STYLE
  5
3
100
AcDbSymbolTable
 70
           2
  0
STYLE
  5
17
100
AcDbSymbolTableRecord
100
AcDbTextStyleTableRecord
  2
STANDARD
 70
           0
 40
0.0
 41
1.0
 50
0.0
 71
           0
 42
0.0
  3
txt
  4

  0
STYLE
  5
154
100
AcDbSymbolTableRecord
100
AcDbTextStyleTableRecord
  2
CONVERTER_1
 70
           0
 40
0.0
 41
0.71262
 50
0.0
 71
           0
 42
0.0
  3
txt.shx
  4

  0
ENDTAB
  0
TABLE
  2
VIEW
  5
5
100
AcDbSymbolTable
 70
           0
  0
ENDTAB
  0
TABLE
  2
UCS
  5
6
100
AcDbSymbolTable
 70
           0
  0
ENDTAB
  0
TABLE
  2
APPID
  5
8
100
AcDbSymbolTable
 70
           1
  0
APPID
  5
16
100
AcDbSymbolTableRecord
100
AcDbRegAppTableRecord
  2
ACAD
 70
           0
  0
ENDTAB
  0
TABLE
  2
DIMSTYLE
  5
9
100
AcDbSymbolTable
 70
           1
  0
DIMSTYLE
105
18
100
AcDbSymbolTableRecord
100
AcDbDimStyleTableRecord
  2
STANDARD
 70
           0
  3

  4

  5

  6

  7

 40
1.0
 41
0.18
 42
0.0625
 43
0.38
 44
0.18
 45
0.0
 46
0.0
 47
0.0
 48
0.0
 71
           0
 72
           0
 73
           1
 74
           1
 75
           0
 76
           0
 77
           0
 78
           0
140
0.18
141
0.09
142
0.0
143
25.4
144
1.0
145
0.0
146
1.0
147
0.09
170
           0
171
           2
172
           0
173
           0
174
           0
175
           0
176
           0
177
           0
178
           0
270
           2
271
           4
272
           4
273
           2
274
           2
275
           0
280
           0
281
           0
282
           0
283
           1
284
           0
285
           0
286
           0
287
           0
288
           0
340
17
  0
ENDTAB
  0
TABLE
  2
BLOCK_RECORD
  5
1
100
AcDbSymbolTable
 70
           3
  0
BLOCK_RECORD
  5
A
100
AcDbSymbolTableRecord
100
AcDbBlockTableRecord
  2
*MODEL_SPACE
  0
BLOCK_RECORD
  5
B
100
AcDbSymbolTableRecord
100
AcDbBlockTableRecord
  2
*PAPER_SPACE
  0
BLOCK_RECORD
  5
25
100
AcDbSymbolTableRecord
100
AcDbBlockTableRecord
  2
WANNENF_SSE
  0
BLOCK_RECORD
  5
27
100
AcDbSymbolTableRecord
100
AcDbBlockTableRecord
  2
WANNE_ANCONA_TREND_226
  0
BLOCK_RECORD
  5
2A
100
AcDbSymbolTableRecord
100
AcDbBlockTableRecord
  2
DLX
  0
ENDTAB
  0
ENDSEC
  0
SECTION
  2
BLOCKS
  0
BLOCK
  5
D
100
AcDbEntity
  8
0
100
AcDbBlockBegin
  2
*MODEL_SPACE
 70
           0
 10
0.0
 20
0.0
 30
0.0
  3
*MODEL_SPACE
  1

  0
ENDBLK
  5
E
100
AcDbEntity
  8
0
100
AcDbBlockEnd
  0
BLOCK
  5
F
100
AcDbEntity
 67
           1
  8
0
100
AcDbBlockBegin
  2
*PAPER_SPACE
 70
           0
 10
0.0
 20
0.0
 30
0.0
  3
*PAPER_SPACE
  1

  0
ENDBLK
  5
10
100
AcDbEntity
 67
           1
  8
0
100
AcDbBlockEnd
  0
BLOCK
  5
26
100
AcDbEntity
  8
0
100
AcDbBlockBegin
  2
WANNENF_SSE
 70
           0
 10
0.0
 20
0.0
 30
0.0
  3
WANNENF_SSE
  1

  0
LINE
  5
6D
100
AcDbEntity
  8
1
  6
CONTINUOUS
 62
           2
100
AcDbLine
 10
489.034769
 20
25.0
 11
529.034769
 21
25.0
  0
LINE
  5
6C
100
AcDbEntity
  8
1
  6
CONTINUOUS
 62
           2
100
AcDbLine
 10
494.034769
 20
55.0
 11
524.034769
 21
55.0
  0
LINE
  5
6B
100
AcDbEntity
  8
1
  6
CONTINUOUS
 62
           2
100
AcDbLine
 10
499.034769
 20
85.0
 11
519.034769
 21
85.0
  0
LINE
  5
6A
100
AcDbEntity
  8
1
  6
CONTINUOUS
 62
           2
100
AcDbLine
 10
488.510073669076
 20
166.777734681788
 11
528.496688176246
 21
165.743007541447
  0
LINE
  5
69
100
AcDbEntity
  8
1
  6
CONTINUOUS
 62
           2
100
AcDbLine
 10
483.641087748222
 20
171.905402387726
 11
488.639414561618
 21
171.776061495184
  0
LINE
  5
68
100
AcDbEntity
  8
1
  6
CONTINUOUS
 62
           2
100
AcDbLine
 10
493.637741375015
 20
171.646720602642
 11
523.627702255391
 21
170.870675247386
  0
LINE
  5
67
100
AcDbEntity
  8
1
  6
CONTINUOUS
 62
           2
100
AcDbLine
 10
528.626029068789
 20
170.741334354844
 11
533.624355882184
 21
170.611993462301
  0
LINE
  5
66
100
AcDbEntity
  8
1
  6
CONTINUOUS
 62
           2
100
AcDbLine
 10
468.904789093118
 20
182.290078692147
 11
483.899769533307
 21
181.902056014519
  0
LINE
  5
65
100
AcDbEntity
  8
1
  6
CONTINUOUS
 62
           2
100
AcDbLine
 10
533.88303766727
 20
180.608647089093
 11
548.878018107459
 21
180.220624411465
  0
LINE
  5
64
100
AcDbEntity
  8
1
  6
CONTINUOUS
 62
           2
100
AcDbLine
 10
488.768755454161
 20
176.77438830858
 11
493.767082267557
 21
176.645047416038
  0
LINE
  5
63
100
AcDbEntity
  8
1
  6
CONTINUOUS
 62
           2
100
AcDbLine
 10
523.757043147934
 20
175.869002060782
 11
528.755369961331
 21
175.739661168239
  0
LINE
  5
62
100
AcDbEntity
  8
1
  6
CONTINUOUS
 62
           2
100
AcDbLine
 10
489.034769
 20
0.0
 11
489.034769
 21
25.0
  0
LINE
  5
61
100
AcDbEntity
  8
1
  6
CONTINUOUS
 62
           2
100
AcDbLine
 10
529.034769
 20
0.0
 11
529.034769
 21
25.0
  0
LINE
  5
60
100
AcDbEntity
  8
1
  6
CONTINUOUS
 62
           2
100
AcDbLine
 10
524.034769
 20
25.0
 11
524.034769
 21
55.0
  0
LINE
  5
5F
100
AcDbEntity
  8
1
  6
CONTINUOUS
 62
           2
100
AcDbLine
 10
494.034769
 20
25.0
 11
494.034769
 21
55.0
  0
LINE
  5
5E
100
AcDbEntity
  8
1
  6
CONTINUOUS
 62
           2
100
AcDbLine
 10
494.034769
 20
55.0
 11
499.034769
 21
85.0
  0
LINE
  5
5D
100
AcDbEntity
  8
1
  6
CONTINUOUS
 62
           2
100
AcDbLine
 10
524.034769
 20
55.0
 11
519.034769
 21
85.0
  0
LINE
  5
5C
100
AcDbEntity
  8
1
  6
CONTINUOUS
 62
           2
100
AcDbLine
 10
504.034769
 20
85.0
 11
504.034769
 21
166.376004657818
  0
LINE
  5
5B
100
AcDbEntity
  8
1
  6
CONTINUOUS
 62
           2
100
AcDbLine
 10
514.034769
 20
85.0
 11
514.034769
 21
166.117236279176
  0
LINE
  5
5A
100
AcDbEntity
  8
1
  6
CONTINUOUS
 62
           2
100
AcDbLine
 10
468.904789093118
 20
182.290078692147
 11
469.034129985661
 21
187.288405505543
  0
LINE
  5
59
100
AcDbEntity
  8
1
  6
CONTINUOUS
 62
           2
100
AcDbLine
 10
469.034129985661
 20
187.288405505543
 11
489.027437239246
 21
186.771041935373
  0
LINE
  5
58
100
AcDbEntity
  8
1
  6
CONTINUOUS
 62
           2
100
AcDbLine
 10
489.027437239246
 20
186.771041935373
 11
488.768755454161
 21
176.77438830858
  0
LINE
  5
57
100
AcDbEntity
  8
1
  6
CONTINUOUS
 62
           2
100
AcDbLine
 10
483.899769533307
 20
181.902056014519
 11
483.641087748222
 21
171.905402387726
  0
LINE
  5
56
100
AcDbEntity
  8
1
  6
CONTINUOUS
 62
           2
100
AcDbLine
 10
493.767082267557
 20
176.645047416038
 11
493.637741375015
 21
171.646720602642
  0
LINE
  5
55
100
AcDbEntity
  8
1
  6
CONTINUOUS
 62
           2
100
AcDbLine
 10
488.639414561618
 20
171.776061495184
 11
488.510073669076
 21
166.777734681788
  0
LINE
  5
54
100
AcDbEntity
  8
1
  6
CONTINUOUS
 62
           2
100
AcDbLine
 10
523.627702255391
 20
170.870675247386
 11
523.757043147934
 21
175.869002060782
  0
LINE
  5
53
100
AcDbEntity
  8
1
  6
CONTINUOUS
 62
           2
100
AcDbLine
 10
528.755369961331
 20
175.739661168239
 11
529.014051746416
 21
185.736314795032
  0
LINE
  5
52
100
AcDbEntity
  8
1
  6
CONTINUOUS
 62
           2
100
AcDbLine
 10
529.014051746416
 20
185.736314795032
 11
549.007359000001
 21
185.218951224862
  0
LINE
  5
51
100
AcDbEntity
  8
1
  6
CONTINUOUS
 62
           2
100
AcDbLine
 10
548.878018107459
 20
180.220624411465
 11
549.007359000001
 21
185.218951224862
  0
LINE
  5
50
100
AcDbEntity
  8
1
  6
CONTINUOUS
 62
           2
100
AcDbLine
 10
533.88303766727
 20
180.608647089093
 11
533.624355882184
 21
170.611993462301
  0
LINE
  5
4F
100
AcDbEntity
  8
1
  6
CONTINUOUS
 62
           2
100
AcDbLine
 10
528.626029068789
 20
170.741334354844
 11
528.496688176246
 21
165.743007541447
  0
LINE
  5
4E
100
AcDbEntity
  8
1
  6
CONTINUOUS
 62
           2
100
AcDbLine
 10
1370.965230999999
 20
25.0
 11
1410.965230999999
 21
25.0
  0
LINE
  5
4D
100
AcDbEntity
  8
1
  6
CONTINUOUS
 62
           2
100
AcDbLine
 10
1375.965230999999
 20
55.0
 11
1405.965230999999
 21
55.0
  0
LINE
  5
4C
100
AcDbEntity
  8
1
  6
CONTINUOUS
 62
           2
100
AcDbLine
 10
1380.965230999999
 20
85.0
 11
1400.965230999999
 21
85.0
  0
LINE
  5
4B
100
AcDbEntity
  8
1
  6
CONTINUOUS
 62
           2
100
AcDbLine
 10
1371.503311823753
 20
165.743007541447
 11
1411.489926330924
 21
166.777734681788
  0
LINE
  5
4A
100
AcDbEntity
  8
1
  6
CONTINUOUS
 62
           2
100
AcDbLine
 10
1411.36058543838
 20
171.776061495184
 11
1416.358912251777
 21
171.905402387726
  0
LINE
  5
49
100
AcDbEntity
  8
1
  6
CONTINUOUS
 62
           2
100
AcDbLine
 10
1376.372297744608
 20
170.870675247386
 11
1406.362258624984
 21
171.646720602642
  0
LINE
  5
48
100
AcDbEntity
  8
1
  6
CONTINUOUS
 62
           2
100
AcDbLine
 10
1366.375644117815
 20
170.611993462301
 11
1371.373970931209
 21
170.741334354844
  0
LINE
  5
47
100
AcDbEntity
  8
1
  6
CONTINUOUS
 62
           2
100
AcDbLine
 10
1416.100230466692
 20
181.902056014519
 11
1431.095210906881
 21
182.290078692147
  0
LINE
  5
46
100
AcDbEntity
  8
1
  6
CONTINUOUS
 62
           2
100
AcDbLine
 10
1351.12198189254
 20
180.220624411465
 11
1366.116962332729
 21
180.608647089093
  0
LINE
  5
45
100
AcDbEntity
  8
1
  6
CONTINUOUS
 62
           2
100
AcDbLine
 10
1406.232917732442
 20
176.645047416038
 11
1411.231244545838
 21
176.77438830858
  0
LINE
  5
44
100
AcDbEntity
  8
1
  6
CONTINUOUS
 62
           2
100
AcDbLine
 10
1371.244630038668
 20
175.739661168239
 11
1376.242956852065
 21
175.869002060782
  0
LINE
  5
43
100
AcDbEntity
  8
1
  6
CONTINUOUS
 62
           2
100
AcDbLine
 10
1410.965230999999
 20
25.0
 11
1410.965230999999
 21
0.0
  0
LINE
  5
42
100
AcDbEntity
  8
1
  6
CONTINUOUS
 62
           2
100
AcDbLine
 10
1370.965230999999
 20
25.0
 11
1370.965230999999
 21
0.0
  0
LINE
  5
41
100
AcDbEntity
  8
1
  6
CONTINUOUS
 62
           2
100
AcDbLine
 10
1375.965230999999
 20
55.0
 11
1375.965230999999
 21
25.0
  0
LINE
  5
40
100
AcDbEntity
  8
1
  6
CONTINUOUS
 62
           2
100
AcDbLine
 10
1405.965230999999
 20
55.0
 11
1405.965230999999
 21
25.0
  0
LINE
  5
3F
100
AcDbEntity
  8
1
  6
CONTINUOUS
 62
           2
100
AcDbLine
 10
1400.965230999999
 20
85.0
 11
1405.965230999999
 21
55.0
  0
LINE
  5
3E
100
AcDbEntity
  8
1
  6
CONTINUOUS
 62
           2
100
AcDbLine
 10
1380.965230999999
 20
85.0
 11
1375.965230999999
 21
55.0
  0
LINE
  5
3D
100
AcDbEntity
  8
1
  6
CONTINUOUS
 62
           2
100
AcDbLine
 10
1395.965230999999
 20
166.376004657818
 11
1395.965230999999
 21
85.0
  0
LINE
  5
3C
100
AcDbEntity
  8
1
  6
CONTINUOUS
 62
           2
100
AcDbLine
 10
1385.965230999999
 20
166.117236279176
 11
1385.965230999999
 21
85.0
  0
LINE
  5
3B
100
AcDbEntity
  8
1
  6
CONTINUOUS
 62
           2
100
AcDbLine
 10
1430.965870014338
 20
187.288405505543
 11
1431.095210906881
 21
182.290078692147
  0
LINE
  5
3A
100
AcDbEntity
  8
1
  6
CONTINUOUS
 62
           2
100
AcDbLine
 10
1410.972562760753
 20
186.771041935373
 11
1430.965870014338
 21
187.288405505543
  0
LINE
  5
39
100
AcDbEntity
  8
1
  6
CONTINUOUS
 62
           2
100
AcDbLine
 10
1411.231244545838
 20
176.77438830858
 11
1410.972562760753
 21
186.771041935373
  0
LINE
  5
38
100
AcDbEntity
  8
1
  6
CONTINUOUS
 62
           2
100
AcDbLine
 10
1416.358912251777
 20
171.905402387726
 11
1416.100230466692
 21
181.902056014519
  0
LINE
  5
37
100
AcDbEntity
  8
1
  6
CONTINUOUS
 62
           2
100
AcDbLine
 10
1406.362258624984
 20
171.646720602642
 11
1406.232917732442
 21
176.645047416038
  0
LINE
  5
36
100
AcDbEntity
  8
1
  6
CONTINUOUS
 62
           2
100
AcDbLine
 10
1411.489926330924
 20
166.777734681788
 11
1411.36058543838
 21
171.776061495184
  0
LINE
  5
35
100
AcDbEntity
  8
1
  6
CONTINUOUS
 62
           2
100
AcDbLine
 10
1376.242956852065
 20
175.869002060782
 11
1376.372297744608
 21
170.870675247386
  0
LINE
  5
34
100
AcDbEntity
  8
1
  6
CONTINUOUS
 62
           2
100
AcDbLine
 10
1370.985948253583
 20
185.736314795032
 11
1371.244630038668
 21
175.739661168239
  0
LINE
  5
33
100
AcDbEntity
  8
1
  6
CONTINUOUS
 62
           2
100
AcDbLine
 10
1350.992640999998
 20
185.218951224862
 11
1370.985948253583
 21
185.736314795032
  0
LINE
  5
32
100
AcDbEntity
  8
1
  6
CONTINUOUS
 62
           2
100
AcDbLine
 10
1350.992640999998
 20
185.218951224862
 11
1351.12198189254
 21
180.220624411465
  0
LINE
  5
31
100
AcDbEntity
  8
1
  6
CONTINUOUS
 62
           2
100
AcDbLine
 10
1366.375644117815
 20
170.611993462301
 11
1366.116962332729
 21
180.608647089093
  0
LINE
  5
30
100
AcDbEntity
  8
1
  6
CONTINUOUS
 62
           2
100
AcDbLine
 10
1371.503311823753
 20
165.743007541447
 11
1371.373970931209
 21
170.741334354844
  0
ENDBLK
  5
6E
100
AcDbEntity
  8
0
100
AcDbBlockEnd
  0
BLOCK
  5
28
100
AcDbEntity
  8
0
100
AcDbBlockBegin
  2
WANNE_ANCONA_TREND_226
 70
           0
 10
0.0
 20
0.0
 30
0.0
  3
WANNE_ANCONA_TREND_226
  1

  0
ARC
  5
9C
100
AcDbEntity
  8
1
  6
CONTINUOUS
 62
           7
100
AcDbCircle
 10
900.0
 20
159.147836679877
 40
5.0
100
AcDbArc
 50
0.0
 51
59.999999588976
  0
ARC
  5
9B
100
AcDbEntity
  8
1
  6
CONTINUOUS
 62
           7
100
AcDbCircle
 10
900.0
 20
159.147837385959
 40
1.0
100
AcDbArc
 50
0.0
 51
60.000002154472
  0
ARC
  5
9A
100
AcDbEntity
  8
1
  6
CONTINUOUS
 62
           7
100
AcDbCircle
 10
1000.0
 20
159.147836679877
 40
5.0
100
AcDbArc
 50
120.000000411028
 51
180.0
  0
ARC
  5
99
100
AcDbEntity
  8
1
  6
CONTINUOUS
 62
           7
100
AcDbCircle
 10
1000.0
 20
159.147837385959
 40
1.0
100
AcDbArc
 50
119.999997845528
 51
180.0
  0
ARC
  5
98
100
AcDbEntity
  8
1
  6
CONTINUOUS
 62
           7
100
AcDbCircle
 10
394.153539517614
 20
270.224010015265
 40
80.0
100
AcDbArc
 50
-155.984802684122
 51
-91.812455684603
  0
ARC
  5
97
100
AcDbEntity
  8
1
  6
CONTINUOUS
 62
           7
100
AcDbCircle
 10
1505.846460482385
 20
270.224010015265
 40
80.0
100
AcDbArc
 50
-88.187544315396
 51
-24.015197315878
  0
ARC
  5
96
100
AcDbEntity
  8
1
  6
CONTINUOUS
 62
           7
100
AcDbCircle
 10
890.530263144816
 20
161.15109203665
 40
7.999998464377
100
AcDbArc
 50
59.99998657793
 51
84.999992472474
  0
ARC
  5
95
100
AcDbEntity
  8
1
  6
CONTINUOUS
 62
           7
100
AcDbCircle
 10
890.530261955309
 20
161.151085123523
 40
4.000005245498
100
AcDbArc
 50
60.000002154465
 51
84.981471676988
  0
ARC
  5
94
100
AcDbEntity
  8
1
  6
CONTINUOUS
 62
           7
100
AcDbCircle
 10
884.29073827396
 20
174.746635336843
 40
8.999999021817
100
AcDbArc
 50
-143.448686638794
 51
-94.999997919793
  0
ARC
  5
93
100
AcDbEntity
  8
1
  6
CONTINUOUS
 62
           7
100
AcDbCircle
 10
873.847527994295
 20
167.00457946012
 40
4.000003676013
100
AcDbArc
 50
36.55135142568
 51
90.704225104235
  0
ARC
  5
92
100
AcDbEntity
  8
1
  6
CONTINUOUS
 62
           7
100
AcDbCircle
 10
1015.70926172604
 20
174.746635336843
 40
8.999999021817
100
AcDbArc
 50
-85.000002080213
 51
-36.551313361209
  0
ARC
  5
91
100
AcDbEntity
  8
1
  6
CONTINUOUS
 62
           7
100
AcDbCircle
 10
1026.152472005704
 20
167.00457946012
 40
4.000003676014
100
AcDbArc
 50
89.295774895778
 51
143.448648574329
  0
ARC
  5
90
100
AcDbEntity
  8
1
  6
CONTINUOUS
 62
           7
100
AcDbCircle
 10
1009.469736855183
 20
161.15109203665
 40
7.999998464376
100
AcDbArc
 50
95.000007527519
 51
120.000013422063
  0
ARC
  5
8F
100
AcDbEntity
  8
1
  6
CONTINUOUS
 62
           7
100
AcDbCircle
 10
1009.46973804469
 20
161.151085123523
 40
4.000005245205
100
AcDbArc
 50
95.018528323012
 51
119.999997845535
  0
ARC
  5
8E
100
AcDbEntity
  8
1
  6
CONTINUOUS
 62
           7
100
AcDbCircle
 10
884.290759661492
 20
174.746658679605
 40
5.000026919046
100
AcDbArc
 50
-143.448648224917
 51
-95.000213971834
  0
ARC
  5
8D
100
AcDbEntity
  8
1
  6
CONTINUOUS
 62
           7
100
AcDbCircle
 10
873.847530852897
 20
167.004594232391
 40
7.99999576761
100
AcDbArc
 50
36.551278663275
 51
89.924204813938
  0
ARC
  5
8C
100
AcDbEntity
  8
1
  6
CONTINUOUS
 62
           7
100
AcDbCircle
 10
1015.70923939418
 20
174.746660367586
 40
5.000028682909
100
AcDbArc
 50
-84.999776934156
 51
-36.551360869119
  0
ARC
  5
8B
100
AcDbEntity
  8
1
  6
CONTINUOUS
 62
           7
100
AcDbCircle
 10
1026.152470000016
 20
167.004589999965
 40
8.000000000029
100
AcDbArc
 50
90.075795164075
 51
143.448685999866
  0
ARC
  5
8A
100
AcDbEntity
  8
1
  6
CONTINUOUS
 62
           7
100
AcDbCircle
 10
-1140.421530000185
 20
-413.500610000121
 40
1600.000000000221
100
AcDbArc
 50
24.015197315878
 51
39.535997068175
  0
ARC
  5
89
100
AcDbEntity
  8
1
  6
CONTINUOUS
 62
           7
100
AcDbCircle
 10
3040.421530000185
 20
-413.500610000121
 40
1600.000000000222
100
AcDbArc
 50
140.464002931825
 51
155.984802684122
  0
LINE
  5
88
100
AcDbEntity
  8
1
  6
CONTINUOUS
 62
           7
100
AcDbLine
 10
-0.000000000001
 20
640.0
 11
1900.0
 21
640.0
  0
LINE
  5
87
100
AcDbEntity
  8
1
  6
CONTINUOUS
 62
           7
100
AcDbLine
 10
1900.0
 20
605.0
 11
0.0
 21
605.0
  0
LINE
  5
86
100
AcDbEntity
  8
1
  6
CONTINUOUS
 62
           7
100
AcDbLine
 10
-0.000000000001
 20
640.0
 11
0.0
 21
605.0
  0
LINE
  5
85
100
AcDbEntity
  8
1
  6
CONTINUOUS
 62
           7
100
AcDbLine
 10
1900.0
 20
605.0
 11
1900.0
 21
640.0
  0
LINE
  5
84
100
AcDbEntity
  8
1
  6
CONTINUOUS
 62
           7
100
AcDbLine
 10
822.620389999996
 20
590.0
 11
1077.379609999996
 21
590.0
  0
LINE
  5
83
100
AcDbEntity
  8
1
  6
CONTINUOUS
 62
           7
100
AcDbLine
 10
820.0
 20
640.0
 11
822.620389999996
 21
590.0
  0
LINE
  5
82
100
AcDbEntity
  8
1
  6
CONTINUOUS
 62
           7
100
AcDbLine
 10
1077.379609999996
 20
590.0
 11
1080.0
 21
640.0
  0
LINE
  5
81
100
AcDbEntity
  8
1
  6
CONTINUOUS
 62
           7
100
AcDbLine
 10
883.854959999999
 20
169.765662
 11
891.227508366931
 21
169.120648142875
  0
LINE
  5
80
100
AcDbEntity
  8
1
  6
CONTINUOUS
 62
           7
100
AcDbLine
 10
894.530262426704
 20
168.079293908342
 11
902.500000031063
 21
163.477963680865
  0
LINE
  5
7F
100
AcDbEntity
  8
1
  6
CONTINUOUS
 62
           7
100
AcDbLine
 10
905.0
 20
159.147836679877
 11
905.0
 21
152.004583
  0
LINE
  5
7E
100
AcDbEntity
  8
1
  6
CONTINUOUS
 62
           7
100
AcDbLine
 10
901.0
 20
152.004583
 11
901.0
 21
159.147837385959
  0
LINE
  5
7D
100
AcDbEntity
  8
1
  6
CONTINUOUS
 62
           7
100
AcDbLine
 10
900.499999967435
 20
160.013862808545
 11
892.530264447799
 21
164.6151913566
  0
LINE
  5
7C
100
AcDbEntity
  8
1
  6
CONTINUOUS
 62
           7
100
AcDbLine
 10
890.880173965616
 20
165.135756194855
 11
883.50633731527
 21
165.780883717175
  0
LINE
  5
7B
100
AcDbEntity
  8
1
  6
CONTINUOUS
 62
           7
100
AcDbLine
 10
901.0
 20
152.004583
 11
999.0
 21
152.004583
  0
LINE
  5
7A
100
AcDbEntity
  8
1
  6
CONTINUOUS
 62
           7
100
AcDbLine
 10
905.0
 20
162.034588001913
 11
995.0
 21
162.034588001913
  0
LINE
  5
79
100
AcDbEntity
  8
1
  6
CONTINUOUS
 62
           7
100
AcDbLine
 10
1007.005682
 20
168.966072
 11
892.99431675672
 21
168.96607256906
  0
LINE
  5
78
100
AcDbEntity
  8
1
  6
CONTINUOUS
 62
           7
100
AcDbLine
 10
1008.772491633069
 20
169.120648142875
 11
1016.14504
 21
169.765662
  0
LINE
  5
77
100
AcDbEntity
  8
1
  6
CONTINUOUS
 62
           7
100
AcDbLine
 10
997.499999968936
 20
163.477963680865
 11
1005.469737573295
 21
168.079293908342
  0
LINE
  5
76
100
AcDbEntity
  8
1
  6
CONTINUOUS
 62
           7
100
AcDbLine
 10
995.0
 20
152.004583
 11
995.0
 21
159.147836679877
  0
LINE
  5
75
100
AcDbEntity
  8
1
  6
CONTINUOUS
 62
           7
100
AcDbLine
 10
999.0
 20
159.147837385959
 11
999.0
 21
152.004583
  0
LINE
  5
74
100
AcDbEntity
  8
1
  6
CONTINUOUS
 62
           7
100
AcDbLine
 10
1007.4697355522
 20
164.6151913566
 11
999.500000032564
 21
160.013862808545
  0
LINE
  5
73
100
AcDbEntity
  8
1
  6
CONTINUOUS
 62
           7
100
AcDbLine
 10
1016.493662684729
 20
165.780883717175
 11
1009.119826034383
 21
165.135756194855
  0
LINE
  5
72
100
AcDbEntity
  8
1
  6
CONTINUOUS
 62
           7
100
AcDbLine
 10
873.858113848642
 20
175.004583
 11
1026.141887001741
 21
175.004583
  0
LINE
  5
71
100
AcDbEntity
  8
1
  6
DOT_CENTER
 62
           3
100
AcDbLine
 10
950.0
 20
200.004583
 11
950.0
 21
127.004583
  0
LINE
  5
70
100
AcDbEntity
  8
1
  6
CONTINUOUS
 62
           7
100
AcDbLine
 10
873.847529999995
 20
175.00459
 11
391.62329601594
 21
190.264033353048
  0
LINE
  5
6F
100
AcDbEntity
  8
1
  6
CONTINUOUS
 62
           7
100
AcDbLine
 10
1508.37670398406
 20
190.264033353048
 11
1026.152470000005
 21
175.00459
  0
INSERT
  5
29
100
AcDbEntity
  8
0
100
AcDbBlockReference
  2
WANNENF_SSE
 10
0.0
 20
0.0
  0
ENDBLK
  5
9D
100
AcDbEntity
  8
0
100
AcDbBlockEnd
  0
BLOCK
  5
2B
100
AcDbEntity
  8
0
100
AcDbBlockBegin
  2
DLX
 70
           0
 10
0.0
 20
0.0
 30
0.0
  3
DLX
  1

  0
CIRCLE
  5
151
100
AcDbEntity
  8
1
  6
CONTINUOUS
 62
           3
100
AcDbCircle
 10
572.735875237936
 20
390.878787878755
 40
5.972862778754
  0
CIRCLE
  5
150
100
AcDbEntity
  8
1
  6
CONTINUOUS
 62
           3
100
AcDbCircle
 10
572.735875237936
 20
390.878787878755
 40
5.530127989696
  0
ARC
  5
14F
100
AcDbEntity
  8
1
  6
CONTINUOUS
 62
           3
100
AcDbCircle
 10
572.942694069315
 20
392.303919921381
 40
2.009798008862
100
AcDbArc
 50
-55.929988464574
 51
86.297888718259
  0
ARC
  5
14E
100
AcDbEntity
  8
1
  6
CONTINUOUS
 62
           3
100
AcDbCircle
 10
572.864376243301
 20
392.264025930551
 40
1.257687287767
100
AcDbArc
 50
-74.800419047056
 51
80.931395238788
  0
ARC
  5
14D
100
AcDbEntity
  8
1
  6
CONTINUOUS
 62
           3
100
AcDbCircle
 10
572.789193605106
 20
389.053039389822
 40
1.155889798232
100
AcDbArc
 50
0.985058170482
 51
82.918254632932
  0
ARC
  5
14C
100
AcDbEntity
  8
1
  6
CONTINUOUS
 62
           3
100
AcDbCircle
 10
573.514586791596
 20
389.362233682226
 40
1.391870091328
100
AcDbArc
 50
-1.298612665727
 51
66.544866494044
  0
LINE
  5
14B
100
AcDbEntity
  8
1
  6
CONTINUOUS
 62
           3
100
AcDbLine
 10
465.328223469317
 20
386.979895810782
 11
465.032820381937
 21
387.978447872363
  0
LINE
  5
14A
100
AcDbEntity
  8
1
  6
CONTINUOUS
 62
           3
100
AcDbLine
 10
465.764903150884
 20
388.762204858332
 11
465.032820381937
 21
387.978447872363
  0
LINE
  5
149
100
AcDbEntity
  8
1
  6
CONTINUOUS
 62
           3
100
AcDbLine
 10
500.795927119553
 20
358.237708784527
 11
504.180334610434
 21
372.051175145079
  0
LINE
  5
148
100
AcDbEntity
  8
1
  6
CONTINUOUS
 62
           3
100
AcDbLine
 10
496.607772964314
 20
358.237708784527
 11
499.992180455331
 21
372.051175145079
  0
LINE
  5
147
100
AcDbEntity
  8
1
  6
CONTINUOUS
 62
           3
100
AcDbLine
 10
496.607772964314
 20
358.237708784527
 11
500.795927119553
 21
358.237708784527
  0
LINE
  5
146
100
AcDbEntity
  8
1
  6
CONTINUOUS
 62
           3
100
AcDbLine
 10
495.523798905145
 20
353.813466360341
 11
499.711953060333
 21
353.813466360341
  0
LINE
  5
145
100
AcDbEntity
  8
1
  6
CONTINUOUS
 62
           3
100
AcDbLine
 10
496.327545569438
 20
340.0
 11
502.609776802335
 21
340.0
  0
LINE
  5
144
100
AcDbEntity
  8
1
  6
CONTINUOUS
 62
           3
100
AcDbLine
 10
499.992180455331
 20
372.051175145079
 11
493.709949222465
 21
372.051175145079
  0
LINE
  5
143
100
AcDbEntity
  8
1
  6
CONTINUOUS
 62
           3
100
AcDbLine
 10
531.403336619288
 20
372.051175145079
 11
523.55054757827
 21
340.0
  0
LINE
  5
142
100
AcDbEntity
  8
1
  6
CONTINUOUS
 62
           3
100
AcDbLine
 10
524.037131327291
 20
367.626932720839
 11
518.352290404567
 21
344.424242424182
  0
LINE
  5
141
100
AcDbEntity
  8
1
  6
CONTINUOUS
 62
           3
100
AcDbLine
 10
519.848977172041
 20
367.626932720839
 11
524.037131327291
 21
367.626932720839
  0
LINE
  5
140
100
AcDbEntity
  8
1
  6
CONTINUOUS
 62
           3
100
AcDbLine
 10
531.403336619288
 20
372.051175145079
 11
514.650719998459
 21
372.051175145079
  0
LINE
  5
13F
100
AcDbEntity
  8
1
  6
CONTINUOUS
 62
           3
100
AcDbLine
 10
514.164136249467
 20
344.424242424182
 11
519.848977172041
 21
367.626932720839
  0
LINE
  5
13E
100
AcDbEntity
  8
1
  6
CONTINUOUS
 62
           3
100
AcDbLine
 10
514.650719998459
 20
372.051175145079
 11
506.797930957461
 21
340.0
  0
LINE
  5
13D
100
AcDbEntity
  8
1
  6
CONTINUOUS
 62
           3
100
AcDbLine
 10
518.352290404567
 20
344.424242424182
 11
514.164136249467
 21
344.424242424182
  0
LINE
  5
13C
100
AcDbEntity
  8
1
  6
CONTINUOUS
 62
           3
100
AcDbLine
 10
506.797930957461
 20
340.0
 11
523.55054757827
 21
340.0
  0
LINE
  5
13B
100
AcDbEntity
  8
1
  6
CONTINUOUS
 62
           3
100
AcDbLine
 10
510.46256584335
 20
372.051175145079
 11
504.180334610434
 21
372.051175145079
  0
LINE
  5
13A
100
AcDbEntity
  8
1
  6
CONTINUOUS
 62
           3
100
AcDbLine
 10
493.709949222465
 20
372.051175145079
 11
485.857160181472
 21
340.0
  0
LINE
  5
139
100
AcDbEntity
  8
1
  6
CONTINUOUS
 62
           3
100
AcDbLine
 10
492.13939141426
 20
340.0
 11
495.523798905145
 21
353.813466360341
  0
LINE
  5
138
100
AcDbEntity
  8
1
  6
CONTINUOUS
 62
           3
100
AcDbLine
 10
496.327545569438
 20
340.0
 11
499.711953060333
 21
353.813466360341
  0
LINE
  5
137
100
AcDbEntity
  8
1
  6
CONTINUOUS
 62
           3
100
AcDbLine
 10
502.609776802335
 20
340.0
 11
510.46256584335
 21
372.051175145079
  0
LINE
  5
136
100
AcDbEntity
  8
1
  6
CONTINUOUS
 62
           3
100
AcDbLine
 10
485.857160181472
 20
340.0
 11
492.13939141426
 21
340.0
  0
LINE
  5
135
100
AcDbEntity
  8
1
  6
CONTINUOUS
 62
           3
100
AcDbLine
 10
480.529628686515
 20
360.990569084413
 11
486.811859919321
 21
360.990569084413
  0
LINE
  5
134
100
AcDbEntity
  8
1
  6
CONTINUOUS
 62
           3
100
AcDbLine
 10
482.155589775309
 20
367.626932720839
 11
480.529628686515
 21
360.990569084413
  0
LINE
  5
133
100
AcDbEntity
  8
1
  6
CONTINUOUS
 62
           3
100
AcDbLine
 10
477.967435620117
 20
367.626932720839
 11
482.155589775309
 21
367.626932720839
  0
LINE
  5
132
100
AcDbEntity
  8
1
  6
CONTINUOUS
 62
           3
100
AcDbLine
 10
472.282594697488
 20
344.424242424182
 11
477.967435620117
 21
367.626932720839
  0
LINE
  5
131
100
AcDbEntity
  8
1
  6
CONTINUOUS
 62
           3
100
AcDbLine
 10
476.47074885269
 20
344.424242424182
 11
472.282594697488
 21
344.424242424182
  0
LINE
  5
130
100
AcDbEntity
  8
1
  6
CONTINUOUS
 62
           3
100
AcDbLine
 10
478.096709941477
 20
351.060606060608
 11
476.47074885269
 21
344.424242424182
  0
LINE
  5
12F
100
AcDbEntity
  8
1
  6
CONTINUOUS
 62
           3
100
AcDbLine
 10
484.378941174265
 20
351.060606060608
 11
478.096709941477
 21
351.060606060608
  0
LINE
  5
12E
100
AcDbEntity
  8
1
  6
CONTINUOUS
 62
           3
100
AcDbLine
 10
481.669006026292
 20
340.0
 11
484.378941174265
 21
351.060606060608
  0
LINE
  5
12D
100
AcDbEntity
  8
1
  6
CONTINUOUS
 62
           3
100
AcDbLine
 10
464.916389405538
 20
340.0
 11
481.669006026292
 21
340.0
  0
LINE
  5
12C
100
AcDbEntity
  8
1
  6
CONTINUOUS
 62
           3
100
AcDbLine
 10
472.769178446531
 20
372.051175145079
 11
464.916389405538
 21
340.0
  0
LINE
  5
12B
100
AcDbEntity
  8
1
  6
CONTINUOUS
 62
           3
100
AcDbLine
 10
489.521795067251
 20
372.051175145079
 11
472.769178446531
 21
372.051175145079
  0
LINE
  5
12A
100
AcDbEntity
  8
1
  6
CONTINUOUS
 62
           3
100
AcDbLine
 10
486.811859919321
 20
360.990569084413
 11
489.521795067251
 21
372.051175145079
  0
LINE
  5
129
100
AcDbEntity
  8
1
  6
CONTINUOUS
 62
           3
100
AcDbLine
 10
467.497050232155
 20
367.626932720839
 11
468.581024291314
 21
372.051175145079
  0
LINE
  5
128
100
AcDbEntity
  8
1
  6
CONTINUOUS
 62
           3
100
AcDbLine
 10
457.026664844175
 20
367.626932720839
 11
467.497050232155
 21
367.626932720839
  0
LINE
  5
127
100
AcDbEntity
  8
1
  6
CONTINUOUS
 62
           3
100
AcDbLine
 10
454.593746099162
 20
357.696969696953
 11
457.026664844175
 21
367.626932720839
  0
LINE
  5
126
100
AcDbEntity
  8
1
  6
CONTINUOUS
 62
           3
100
AcDbLine
 10
465.064131487226
 20
357.696969696953
 11
454.593746099162
 21
357.696969696953
  0
LINE
  5
125
100
AcDbEntity
  8
1
  6
CONTINUOUS
 62
           3
100
AcDbLine
 10
460.728235250302
 20
340.0
 11
465.064131487226
 21
357.696969696953
  0
LINE
  5
124
100
AcDbEntity
  8
1
  6
CONTINUOUS
 62
           3
100
AcDbLine
 10
443.97561862948
 20
340.0
 11
460.728235250302
 21
340.0
  0
LINE
  5
123
100
AcDbEntity
  8
1
  6
CONTINUOUS
 62
           3
100
AcDbLine
 10
445.059592688787
 20
344.424242424182
 11
443.97561862948
 21
340.0
  0
LINE
  5
122
100
AcDbEntity
  8
1
  6
CONTINUOUS
 62
           3
100
AcDbLine
 10
455.529978076698
 20
344.424242424182
 11
445.059592688787
 21
344.424242424182
  0
LINE
  5
121
100
AcDbEntity
  8
1
  6
CONTINUOUS
 62
           3
100
AcDbLine
 10
457.697926195116
 20
353.272727272797
 11
455.529978076698
 21
344.424242424182
  0
LINE
  5
120
100
AcDbEntity
  8
1
  6
CONTINUOUS
 62
           3
100
AcDbLine
 10
447.22754080715
 20
353.272727272797
 11
457.697926195116
 21
353.272727272797
  0
LINE
  5
11F
100
AcDbEntity
  8
1
  6
CONTINUOUS
 62
           3
100
AcDbLine
 10
451.828407670542
 20
372.051175145079
 11
447.22754080715
 21
353.272727272797
  0
LINE
  5
11E
100
AcDbEntity
  8
1
  6
CONTINUOUS
 62
           3
100
AcDbLine
 10
468.581024291314
 20
372.051175145079
 11
451.828407670542
 21
372.051175145079
  0
LINE
  5
11D
100
AcDbEntity
  8
1
  6
CONTINUOUS
 62
           3
100
AcDbLine
 10
447.640253515379
 20
372.051175145079
 11
439.787464474364
 21
340.0
  0
LINE
  5
11C
100
AcDbEntity
  8
1
  6
CONTINUOUS
 62
           3
100
AcDbLine
 10
441.358022282573
 20
372.051175145079
 11
447.640253515379
 21
372.051175145079
  0
LINE
  5
11B
100
AcDbEntity
  8
1
  6
CONTINUOUS
 62
           3
100
AcDbLine
 10
439.787464474364
 20
340.0
 11
421.987809314774
 21
340.0
  0
LINE
  5
11A
100
AcDbEntity
  8
1
  6
CONTINUOUS
 62
           3
100
AcDbLine
 10
434.589207300767
 20
344.424242424182
 11
441.358022282573
 21
372.051175145079
  0
LINE
  5
119
100
AcDbEntity
  8
1
  6
CONTINUOUS
 62
           3
100
AcDbLine
 10
429.354014606782
 20
344.424242424182
 11
434.589207300767
 21
344.424242424182
  0
LINE
  5
118
100
AcDbEntity
  8
1
  6
CONTINUOUS
 62
           3
100
AcDbLine
 10
436.122829588577
 20
372.051175145079
 11
429.354014606782
 21
344.424242424182
  0
LINE
  5
117
100
AcDbEntity
  8
1
  6
CONTINUOUS
 62
           3
100
AcDbLine
 10
429.840598355767
 20
372.051175145079
 11
436.122829588577
 21
372.051175145079
  0
LINE
  5
116
100
AcDbEntity
  8
1
  6
CONTINUOUS
 62
           3
100
AcDbLine
 10
421.987809314774
 20
340.0
 11
429.840598355767
 21
372.051175145079
  0
LINE
  5
115
100
AcDbEntity
  8
1
  6
CONTINUOUS
 62
           3
100
AcDbLine
 10
417.799655159648
 20
340.0
 11
399.999999999999
 21
340.0
  0
LINE
  5
114
100
AcDbEntity
  8
1
  6
CONTINUOUS
 62
           3
100
AcDbLine
 10
428.362379348567
 20
383.111781205662
 11
417.799655159648
 21
340.0
  0
LINE
  5
113
100
AcDbEntity
  8
1
  6
CONTINUOUS
 62
           3
100
AcDbLine
 10
404.389052271275
 20
383.111781205662
 11
428.362379348567
 21
383.111781205662
  0
LINE
  5
112
100
AcDbEntity
  8
1
  6
CONTINUOUS
 62
           3
100
AcDbLine
 10
403.03408469729
 20
377.581478175405
 11
404.389052271275
 21
383.111781205662
  0
LINE
  5
111
100
AcDbEntity
  8
1
  6
CONTINUOUS
 62
           3
100
AcDbLine
 10
420.725180541823
 20
377.581478175405
 11
403.03408469729
 21
377.581478175405
  0
LINE
  5
110
100
AcDbEntity
  8
1
  6
CONTINUOUS
 62
           3
100
AcDbLine
 10
412.601397985941
 20
344.424242424182
 11
420.725180541823
 21
377.581478175405
  0
LINE
  5
10F
100
AcDbEntity
  8
1
  6
CONTINUOUS
 62
           3
100
AcDbLine
 10
407.366205292062
 20
344.424242424182
 11
412.601397985941
 21
344.424242424182
  0
LINE
  5
10E
100
AcDbEntity
  8
1
  6
CONTINUOUS
 62
           3
100
AcDbLine
 10
414.135020273752
 20
372.051175145079
 11
407.366205292062
 21
344.424242424182
  0
LINE
  5
10D
100
AcDbEntity
  8
1
  6
CONTINUOUS
 62
           3
100
AcDbLine
 10
407.852789041055
 20
372.051175145079
 11
414.135020273752
 21
372.051175145079
  0
LINE
  5
10C
100
AcDbEntity
  8
1
  6
CONTINUOUS
 62
           3
100
AcDbLine
 10
399.999999999999
 20
340.0
 11
407.852789041055
 21
372.051175145079
  0
LINE
  5
10B
100
AcDbEntity
  8
1
  6
CONTINUOUS
 62
           3
100
AcDbLine
 10
535.119681233514
 20
346.19393939391
 11
544.164841739605
 21
383.111781205662
  0
LINE
  5
10A
100
AcDbEntity
  8
1
  6
CONTINUOUS
 62
           3
100
AcDbLine
 10
544.164841739605
 20
383.111781205662
 11
538.301425922338
 21
383.111781205662
  0
LINE
  5
109
100
AcDbEntity
  8
1
  6
CONTINUOUS
 62
           3
100
AcDbLine
 10
538.301425922338
 20
383.111781205662
 11
527.738701733397
 21
340.0
  0
LINE
  5
108
100
AcDbEntity
  8
1
  6
CONTINUOUS
 62
           3
100
AcDbLine
 10
545.643060746967
 20
372.051175145079
 11
539.958219824279
 21
348.848484848477
  0
LINE
  5
107
100
AcDbEntity
  8
1
  6
CONTINUOUS
 62
           3
100
AcDbLine
 10
539.958219824279
 20
348.848484848477
 11
555.6637979062
 21
348.848484848477
  0
LINE
  5
106
100
AcDbEntity
  8
1
  6
CONTINUOUS
 62
           3
100
AcDbLine
 10
555.6637979062
 20
348.848484848477
 11
561.348638828807
 21
372.051175145079
  0
LINE
  5
105
100
AcDbEntity
  8
1
  6
CONTINUOUS
 62
           3
100
AcDbLine
 10
561.348638828807
 20
372.051175145079
 11
556.113446134885
 21
372.051175145079
  0
LINE
  5
104
100
AcDbEntity
  8
1
  6
CONTINUOUS
 62
           3
100
AcDbLine
 10
556.113446134885
 20
372.051175145079
 11
551.512579271489
 21
353.272727272797
  0
LINE
  5
103
100
AcDbEntity
  8
1
  6
CONTINUOUS
 62
           3
100
AcDbLine
 10
551.512579271489
 20
353.272727272797
 11
546.277386577538
 21
353.272727272797
  0
LINE
  5
102
100
AcDbEntity
  8
1
  6
CONTINUOUS
 62
           3
100
AcDbLine
 10
546.277386577538
 20
353.272727272797
 11
550.878253440889
 21
372.051175145079
  0
LINE
  5
101
100
AcDbEntity
  8
1
  6
CONTINUOUS
 62
           3
100
AcDbLine
 10
550.878253440889
 20
372.051175145079
 11
545.643060746967
 21
372.051175145079
  0
LINE
  5
100
100
AcDbEntity
  8
1
  6
CONTINUOUS
 62
           3
100
AcDbLine
 10
567.906977584948
 20
372.051175145079
 11
563.861531321933
 21
372.051175145079
  0
LINE
  5
FF
100
AcDbEntity
  8
1
  6
CONTINUOUS
 62
           3
100
AcDbLine
 10
563.861531321933
 20
372.051175145079
 11
567.98382684413
 21
361.415301218661
  0
LINE
  5
FE
100
AcDbEntity
  8
1
  6
CONTINUOUS
 62
           3
100
AcDbLine
 10
567.98382684413
 20
361.415301218661
 11
558.17669039934
 21
348.848484848477
  0
LINE
  5
FD
100
AcDbEntity
  8
1
  6
CONTINUOUS
 62
           3
100
AcDbLine
 10
558.17669039934
 20
348.848484848477
 11
562.222136662338
 21
348.848484848477
  0
LINE
  5
FC
100
AcDbEntity
  8
1
  6
CONTINUOUS
 62
           3
100
AcDbLine
 10
562.222136662338
 20
348.848484848477
 11
569.326269242439
 21
357.951685370502
  0
LINE
  5
FB
100
AcDbEntity
  8
1
  6
CONTINUOUS
 62
           3
100
AcDbLine
 10
569.326269242439
 20
357.951685370502
 11
572.854524937123
 21
348.848484848477
  0
LINE
  5
FA
100
AcDbEntity
  8
1
  6
CONTINUOUS
 62
           3
100
AcDbLine
 10
572.854524937123
 20
348.848484848477
 11
576.899971200171
 21
348.848484848477
  0
LINE
  5
F9
100
AcDbEntity
  8
1
  6
CONTINUOUS
 62
           3
100
AcDbLine
 10
576.899971200171
 20
348.848484848477
 11
572.029273107167
 21
361.415301218603
  0
LINE
  5
F8
100
AcDbEntity
  8
1
  6
CONTINUOUS
 62
           3
100
AcDbLine
 10
572.029273107167
 20
361.415301218603
 11
580.32950315225
 21
372.051175145079
  0
LINE
  5
F7
100
AcDbEntity
  8
1
  6
CONTINUOUS
 62
           3
100
AcDbLine
 10
580.32950315225
 20
372.051175145079
 11
576.284056889192
 21
372.051175145079
  0
LINE
  5
F6
100
AcDbEntity
  8
1
  6
CONTINUOUS
 62
           3
100
AcDbLine
 10
576.284056889192
 20
372.051175145079
 11
570.686830708906
 21
364.878917066824
  0
LINE
  5
F5
100
AcDbEntity
  8
1
  6
CONTINUOUS
 62
           3
100
AcDbLine
 10
570.686830708906
 20
364.878917066824
 11
567.906977584948
 21
372.051175145079
  0
LINE
  5
F4
100
AcDbEntity
  8
1
  6
CONTINUOUS
 62
           3
100
AcDbLine
 10
577.928830785688
 20
346.19393939391
 11
580.329503152206
 21
340.0
  0
LINE
  5
F3
100
AcDbEntity
  8
1
  6
CONTINUOUS
 62
           3
100
AcDbLine
 10
577.928830785688
 20
346.19393939391
 11
535.119681233514
 21
346.19393939391
  0
LINE
  5
F2
100
AcDbEntity
  8
1
  6
CONTINUOUS
 62
           3
100
AcDbLine
 10
580.329503152206
 20
340.0
 11
527.738701733397
 21
340.0
  0
LINE
  5
F1
100
AcDbEntity
  8
1
  6
CONTINUOUS
 62
           3
100
AcDbLine
 10
436.738687658966
 20
383.111781205662
 11
439.990609836448
 21
396.38450847832
  0
LINE
  5
F0
100
AcDbEntity
  8
1
  6
CONTINUOUS
 62
           3
100
AcDbLine
 10
439.990609836448
 20
396.38450847832
 11
452.555072302166
 21
396.38450847832
  0
LINE
  5
EF
100
AcDbEntity
  8
1
  6
CONTINUOUS
 62
           3
100
AcDbLine
 10
452.555072302166
 20
396.38450847832
 11
449.303150124491
 21
383.111781205662
  0
LINE
  5
EE
100
AcDbEntity
  8
1
  6
CONTINUOUS
 62
           3
100
AcDbLine
 10
449.303150124491
 20
383.111781205662
 11
436.738687658966
 21
383.111781205662
  0
LINE
  5
ED
100
AcDbEntity
  8
1
  6
CONTINUOUS
 62
           3
100
AcDbLine
 10
447.751060076487
 20
385.323902417793
 11
439.374751766132
 21
385.323902417793
  0
LINE
  5
EC
100
AcDbEntity
  8
1
  6
CONTINUOUS
 62
           3
100
AcDbLine
 10
449.919008194963
 20
394.172387266269
 11
447.751060076487
 21
385.323902417793
  0
LINE
  5
EB
100
AcDbEntity
  8
1
  6
CONTINUOUS
 62
           3
100
AcDbLine
 10
441.542699884474
 20
394.172387266269
 11
449.919008194963
 21
394.172387266269
  0
LINE
  5
EA
100
AcDbEntity
  8
1
  6
CONTINUOUS
 62
           3
100
AcDbLine
 10
439.374751766132
 20
385.323902417793
 11
441.542699884474
 21
394.172387266269
  0
LINE
  5
E9
100
AcDbEntity
  8
1
  6
CONTINUOUS
 62
           3
100
AcDbLine
 10
455.067964795158
 20
396.38450847832
 11
451.816042617621
 21
383.111781205662
  0
LINE
  5
E8
100
AcDbEntity
  8
1
  6
CONTINUOUS
 62
           3
100
AcDbLine
 10
455.067964795158
 20
396.38450847832
 11
467.632427260737
 21
396.38450847832
  0
LINE
  5
E7
100
AcDbEntity
  8
1
  6
CONTINUOUS
 62
           3
100
AcDbLine
 10
467.632427260737
 20
396.38450847832
 11
465.764903150884
 21
388.762204858332
  0
LINE
  5
E6
100
AcDbEntity
  8
1
  6
CONTINUOUS
 62
           3
100
AcDbLine
 10
464.380505083205
 20
383.111781205662
 11
462.286428005565
 21
383.111781205662
  0
LINE
  5
E5
100
AcDbEntity
  8
1
  6
CONTINUOUS
 62
           3
100
AcDbLine
 10
462.286428005565
 20
383.111781205662
 11
463.370402064938
 21
387.536023629844
  0
LINE
  5
E4
100
AcDbEntity
  8
1
  6
CONTINUOUS
 62
           3
100
AcDbLine
 10
463.370402064938
 20
387.536023629844
 11
454.994093754408
 21
387.536023629844
  0
LINE
  5
E3
100
AcDbEntity
  8
1
  6
CONTINUOUS
 62
           3
100
AcDbLine
 10
455.536080784
 20
389.748144842033
 11
463.912389094381
 21
389.748144842033
  0
LINE
  5
E2
100
AcDbEntity
  8
1
  6
CONTINUOUS
 62
           3
100
AcDbLine
 10
463.912389094381
 20
389.748144842033
 11
464.996363153702
 21
394.172387266269
  0
LINE
  5
E1
100
AcDbEntity
  8
1
  6
CONTINUOUS
 62
           3
100
AcDbLine
 10
464.996363153702
 20
394.172387266269
 11
456.620054843184
 21
394.172387266269
  0
LINE
  5
E0
100
AcDbEntity
  8
1
  6
CONTINUOUS
 62
           3
100
AcDbLine
 10
456.620054843184
 20
394.172387266269
 11
455.536080784
 21
389.748144842033
  0
LINE
  5
DF
100
AcDbEntity
  8
1
  6
CONTINUOUS
 62
           3
100
AcDbLine
 10
465.328223469317
 20
386.979895810782
 11
464.380505083205
 21
383.111781205662
  0
LINE
  5
DE
100
AcDbEntity
  8
1
  6
CONTINUOUS
 62
           3
100
AcDbLine
 10
451.816042617621
 20
383.111781205662
 11
453.910119695297
 21
383.111781205662
  0
LINE
  5
DD
100
AcDbEntity
  8
1
  6
CONTINUOUS
 62
           3
100
AcDbLine
 10
453.910119695297
 20
383.111781205662
 11
454.994093754408
 21
387.536023629844
  0
LINE
  5
DC
100
AcDbEntity
  8
1
  6
CONTINUOUS
 62
           3
100
AcDbLine
 10
472.239396831464
 20
396.38450847832
 11
470.145319753901
 21
396.38450847832
  0
LINE
  5
DB
100
AcDbEntity
  8
1
  6
CONTINUOUS
 62
           3
100
AcDbLine
 10
470.145319753901
 20
396.38450847832
 11
466.893397576335
 21
383.111781205662
  0
LINE
  5
DA
100
AcDbEntity
  8
1
  6
CONTINUOUS
 62
           3
100
AcDbLine
 10
466.893397576335
 20
383.111781205662
 11
468.987474654055
 21
383.111781205662
  0
LINE
  5
D9
100
AcDbEntity
  8
1
  6
CONTINUOUS
 62
           3
100
AcDbLine
 10
468.987474654055
 20
383.111781205662
 11
472.239396831464
 21
396.38450847832
  0
LINE
  5
D8
100
AcDbEntity
  8
1
  6
CONTINUOUS
 62
           3
100
AcDbLine
 10
471.50036714704
 20
383.111781205662
 11
474.752289324584
 21
396.38450847832
  0
LINE
  5
D7
100
AcDbEntity
  8
1
  6
CONTINUOUS
 62
           3
100
AcDbLine
 10
474.752289324584
 20
396.38450847832
 11
487.316751790175
 21
396.38450847832
  0
LINE
  5
D6
100
AcDbEntity
  8
1
  6
CONTINUOUS
 62
           3
100
AcDbLine
 10
487.316751790175
 20
396.38450847832
 11
486.178579028047
 21
391.739053932891
  0
LINE
  5
D5
100
AcDbEntity
  8
1
  6
CONTINUOUS
 62
           3
100
AcDbLine
 10
484.064829612652
 20
383.111781205662
 11
471.50036714704
 21
383.111781205662
  0
LINE
  5
D4
100
AcDbEntity
  8
1
  6
CONTINUOUS
 62
           3
100
AcDbLine
 10
482.512739564604
 20
385.323902417793
 11
474.136431254275
 21
385.323902417793
  0
LINE
  5
D3
100
AcDbEntity
  8
1
  6
CONTINUOUS
 62
           3
100
AcDbLine
 10
484.680687682899
 20
394.172387266269
 11
484.084501950521
 21
391.739053932891
  0
LINE
  5
D2
100
AcDbEntity
  8
1
  6
CONTINUOUS
 62
           3
100
AcDbLine
 10
476.304379372603
 20
394.172387266269
 11
484.680687682899
 21
394.172387266269
  0
LINE
  5
D1
100
AcDbEntity
  8
1
  6
CONTINUOUS
 62
           3
100
AcDbLine
 10
474.136431254275
 20
385.323902417793
 11
476.304379372603
 21
394.172387266269
  0
LINE
  5
D0
100
AcDbEntity
  8
1
  6
CONTINUOUS
 62
           3
100
AcDbLine
 10
485.690790701424
 20
389.748144842033
 11
479.408559468618
 21
389.748144842033
  0
LINE
  5
CF
100
AcDbEntity
  8
1
  6
CONTINUOUS
 62
           3
100
AcDbLine
 10
485.690790701424
 20
389.748144842033
 11
484.064829612652
 21
383.111781205662
  0
LINE
  5
CE
100
AcDbEntity
  8
1
  6
CONTINUOUS
 62
           3
100
AcDbLine
 10
479.408559468618
 20
389.748144842033
 11
478.866572438971
 21
387.536023629844
  0
LINE
  5
CD
100
AcDbEntity
  8
1
  6
CONTINUOUS
 62
           3
100
AcDbLine
 10
478.866572438971
 20
387.536023629844
 11
483.054726594371
 21
387.536023629844
  0
LINE
  5
CC
100
AcDbEntity
  8
1
  6
CONTINUOUS
 62
           3
100
AcDbLine
 10
483.054726594371
 20
387.536023629844
 11
482.512739564604
 21
385.323902417793
  0
LINE
  5
CB
100
AcDbEntity
  8
1
  6
CONTINUOUS
 62
           3
100
AcDbLine
 10
484.084501950521
 20
391.739053932891
 11
486.178579028047
 21
391.739053932891
  0
LINE
  5
CA
100
AcDbEntity
  8
1
  6
CONTINUOUS
 62
           3
100
AcDbLine
 10
486.577722105768
 20
383.111781205662
 11
488.671799183329
 21
383.111781205662
  0
LINE
  5
C9
100
AcDbEntity
  8
1
  6
CONTINUOUS
 62
           3
100
AcDbLine
 10
488.671799183329
 20
383.111781205662
 11
491.923721360898
 21
396.38450847832
  0
LINE
  5
C8
100
AcDbEntity
  8
1
  6
CONTINUOUS
 62
           3
100
AcDbLine
 10
489.829644283333
 20
396.38450847832
 11
486.577722105768
 21
383.111781205662
  0
LINE
  5
C7
100
AcDbEntity
  8
1
  6
CONTINUOUS
 62
           3
100
AcDbLine
 10
491.923721360898
 20
396.38450847832
 11
489.829644283333
 21
396.38450847832
  0
LINE
  5
C6
100
AcDbEntity
  8
1
  6
CONTINUOUS
 62
           3
100
AcDbLine
 10
491.184691676498
 20
383.111781205662
 11
494.436613854013
 21
396.38450847832
  0
LINE
  5
C5
100
AcDbEntity
  8
1
  6
CONTINUOUS
 62
           3
100
AcDbLine
 10
494.436613854013
 20
396.38450847832
 11
497.577729470354
 21
396.38450847832
  0
LINE
  5
C4
100
AcDbEntity
  8
1
  6
CONTINUOUS
 62
           3
100
AcDbLine
 10
497.577729470354
 20
396.38450847832
 11
502.061567336629
 21
384.770872114746
  0
LINE
  5
C3
100
AcDbEntity
  8
1
  6
CONTINUOUS
 62
           3
100
AcDbLine
 10
502.061567336629
 20
384.770872114746
 11
504.906999241982
 21
396.38450847832
  0
LINE
  5
C2
100
AcDbEntity
  8
1
  6
CONTINUOUS
 62
           3
100
AcDbLine
 10
504.906999241982
 20
396.38450847832
 11
507.001076319596
 21
396.38450847832
  0
LINE
  5
C1
100
AcDbEntity
  8
1
  6
CONTINUOUS
 62
           3
100
AcDbLine
 10
507.001076319596
 20
396.38450847832
 11
503.749154141976
 21
383.111781205662
  0
LINE
  5
C0
100
AcDbEntity
  8
1
  6
CONTINUOUS
 62
           3
100
AcDbLine
 10
503.749154141976
 20
383.111781205662
 11
500.506475653207
 21
383.111781205662
  0
LINE
  5
BF
100
AcDbEntity
  8
1
  6
CONTINUOUS
 62
           3
100
AcDbLine
 10
500.506475653207
 20
383.111781205662
 11
496.725319317497
 21
392.905394629535
  0
LINE
  5
BE
100
AcDbEntity
  8
1
  6
CONTINUOUS
 62
           3
100
AcDbLine
 10
496.725319317497
 20
392.905394629535
 11
496.084771050987
 21
394.564485538598
  0
LINE
  5
BD
100
AcDbEntity
  8
1
  6
CONTINUOUS
 62
           3
100
AcDbLine
 10
496.084771050987
 20
394.564485538598
 11
493.278768754058
 21
383.111781205662
  0
LINE
  5
BC
100
AcDbEntity
  8
1
  6
CONTINUOUS
 62
           3
100
AcDbLine
 10
493.278768754058
 20
383.111781205662
 11
491.184691676498
 21
383.111781205662
  0
LINE
  5
BB
100
AcDbEntity
  8
1
  6
CONTINUOUS
 62
           3
100
AcDbLine
 10
506.262046635092
 20
383.111781205662
 11
513.77347691399
 21
396.38450847832
  0
LINE
  5
BA
100
AcDbEntity
  8
1
  6
CONTINUOUS
 62
           3
100
AcDbLine
 10
513.77347691399
 20
396.38450847832
 11
517.818923176965
 21
396.38450847832
  0
LINE
  5
B9
100
AcDbEntity
  8
1
  6
CONTINUOUS
 62
           3
100
AcDbLine
 10
517.818923176965
 20
396.38450847832
 11
518.826509100727
 21
383.111781205662
  0
LINE
  5
B8
100
AcDbEntity
  8
1
  6
CONTINUOUS
 62
           3
100
AcDbLine
 10
518.826509100727
 20
383.111781205662
 11
516.796826937657
 21
383.111781205662
  0
LINE
  5
B7
100
AcDbEntity
  8
1
  6
CONTINUOUS
 62
           3
100
AcDbLine
 10
516.796826937657
 20
383.111781205662
 11
516.62889595039
 21
385.323902417793
  0
LINE
  5
B6
100
AcDbEntity
  8
1
  6
CONTINUOUS
 62
           3
100
AcDbLine
 10
516.62889595039
 20
385.323902417793
 11
509.892748670026
 21
385.323902417793
  0
LINE
  5
B5
100
AcDbEntity
  8
1
  6
CONTINUOUS
 62
           3
100
AcDbLine
 10
509.892748670026
 20
385.323902417793
 11
508.640843623663
 21
383.111781205662
  0
LINE
  5
B4
100
AcDbEntity
  8
1
  6
CONTINUOUS
 62
           3
100
AcDbLine
 10
508.640843623663
 20
383.111781205662
 11
506.262046635092
 21
383.111781205662
  0
LINE
  5
B3
100
AcDbEntity
  8
1
  6
CONTINUOUS
 62
           3
100
AcDbLine
 10
511.144653716558
 20
387.536023629844
 11
516.460964963068
 21
387.536023629844
  0
LINE
  5
B2
100
AcDbEntity
  8
1
  6
CONTINUOUS
 62
           3
100
AcDbLine
 10
516.460964963068
 20
387.536023629844
 11
515.957172001213
 21
394.172387266269
  0
LINE
  5
B1
100
AcDbEntity
  8
1
  6
CONTINUOUS
 62
           3
100
AcDbLine
 10
515.957172001213
 20
394.172387266269
 11
514.900368855923
 21
394.172387266269
  0
LINE
  5
B0
100
AcDbEntity
  8
1
  6
CONTINUOUS
 62
           3
100
AcDbLine
 10
511.144653716558
 20
387.536023629844
 11
514.900368855923
 21
394.172387266269
  0
LINE
  5
AF
100
AcDbEntity
  8
1
  6
CONTINUOUS
 62
           3
100
AcDbLine
 10
524.591323771416
 20
396.38450847832
 11
521.339401593847
 21
383.111781205662
  0
LINE
  5
AE
100
AcDbEntity
  8
1
  6
CONTINUOUS
 62
           3
100
AcDbLine
 10
521.339401593847
 20
383.111781205662
 11
533.903864059425
 21
383.111781205662
  0
LINE
  5
AD
100
AcDbEntity
  8
1
  6
CONTINUOUS
 62
           3
100
AcDbLine
 10
533.903864059425
 20
383.111781205662
 11
534.445851089087
 21
385.323902417793
  0
LINE
  5
AC
100
AcDbEntity
  8
1
  6
CONTINUOUS
 62
           3
100
AcDbLine
 10
534.445851089087
 20
385.323902417793
 11
523.975465701066
 21
385.323902417793
  0
LINE
  5
AB
100
AcDbEntity
  8
1
  6
CONTINUOUS
 62
           3
100
AcDbLine
 10
523.975465701066
 20
385.323902417793
 11
526.68540084903
 21
396.38450847832
  0
LINE
  5
AA
100
AcDbEntity
  8
1
  6
CONTINUOUS
 62
           3
100
AcDbLine
 10
526.68540084903
 20
396.38450847832
 11
524.591323771416
 21
396.38450847832
  0
LINE
  5
A9
100
AcDbEntity
  8
1
  6
CONTINUOUS
 62
           3
100
AcDbLine
 10
571.206636135699
 20
390.200111213842
 11
571.206636135699
 21
387.451055788282
  0
LINE
  5
A8
100
AcDbEntity
  8
1
  6
CONTINUOUS
 62
           3
100
AcDbLine
 10
570.334188436583
 20
387.451055788282
 11
570.334188436583
 21
394.309523963456
  0
LINE
  5
A7
100
AcDbEntity
  8
1
  6
CONTINUOUS
 62
           3
100
AcDbLine
 10
570.334188436583
 20
394.309523963456
 11
572.776108295823
 21
394.309523963456
  0
LINE
  5
A6
100
AcDbEntity
  8
1
  6
CONTINUOUS
 62
           3
100
AcDbLine
 10
572.776108295823
 20
394.309523963456
 11
573.072464878175
 21
394.309523963456
  0
LINE
  5
A5
100
AcDbEntity
  8
1
  6
CONTINUOUS
 62
           3
100
AcDbLine
 10
574.906099392741
 20
389.330689554626
 11
574.906099392741
 21
387.451055788282
  0
LINE
  5
A4
100
AcDbEntity
  8
1
  6
CONTINUOUS
 62
           3
100
AcDbLine
 10
574.906099392741
 20
387.451055788282
 11
573.944912577236
 21
387.451055788282
  0
LINE
  5
A3
100
AcDbEntity
  8
1
  6
CONTINUOUS
 62
           3
100
AcDbLine
 10
573.944912577236
 20
387.451055788282
 11
573.944912577236
 21
389.0729110559
  0
LINE
  5
A2
100
AcDbEntity
  8
1
  6
CONTINUOUS
 62
           3
100
AcDbLine
 10
572.931697837317
 20
390.200111213842
 11
571.206636135699
 21
390.200111213842
  0
LINE
  5
A1
100
AcDbEntity
  8
1
  6
CONTINUOUS
 62
           3
100
AcDbLine
 10
571.206636135699
 20
387.451055788282
 11
570.334188436583
 21
387.451055788282
  0
LINE
  5
A0
100
AcDbEntity
  8
1
  6
CONTINUOUS
 62
           3
100
AcDbLine
 10
571.206636135699
 20
391.050334541276
 11
573.194119363641
 21
391.050334541276
  0
LINE
  5
9F
100
AcDbEntity
  8
1
  6
CONTINUOUS
 62
           3
100
AcDbLine
 10
573.062609127785
 20
393.505992531278
 11
571.206636135699
 21
393.505992531278
  0
LINE
  5
9E
100
AcDbEntity
  8
1
  6
CONTINUOUS
 62
           3
100
AcDbLine
 10
571.206636135699
 20
393.505992531278
 11
571.206636135699
 21
391.050334541276
  0
ENDBLK
  5
152
100
AcDbEntity
  8
0
100
AcDbBlockEnd
  0
ENDSEC
  0
SECTION
  2
ENTITIES
  0
TEXT
  5
156
100
AcDbEntity
  8
1
 62
           2
100
AcDbText
 10
399.999999999999
 20
265.0
 40
35.0
  1
ANCONA Trend 226
 41
0.71262
  7
CONVERTER_1
100
AcDbText
  0
MTEXT
  5
155
100
AcDbEntity
  8
1
 62
           3
100
AcDbMText
 10
950.0
 20
102.004583
 30
0.0
 40
35.0
 41
0.0
 71
           2
 72
           1
  1
ø 90
  7
CONVERTER_1
  0
INSERT
  5
2E
100
AcDbEntity
  8
0
100
AcDbBlockReference
  2
WANNE_ANCONA_TREND_226
 10
0.0
 20
0.0
  0
INSERT
  5
2F
100
AcDbEntity
  8
0
100
AcDbBlockReference
  2
DLX
 10
0.0
 20
0.0
  0
ENDSEC
  0
SECTION
  2
OBJECTS
  0
DICTIONARY
  5
19
100
AcDbDictionary
  3
ACAD_GROUP
350
1A
  3
ACAD_MLINESTYLE
350
1B
  0
DICTIONARY
  5
1A
102
{ACAD_REACTORS
330
19
102
}
100
AcDbDictionary
  0
DICTIONARY
  5
1B
102
{ACAD_REACTORS
330
19
102
}
100
AcDbDictionary
  3
STANDARD
350
1C
  0
MLINESTYLE
  5
1C
102
{ACAD_REACTORS
330
1B
102
}
100
AcDbMlineStyle
  2
STANDARD
 70
           0
  3

 62
           0
 51
90.0
 52
90.0
 71
           2
 49
0.5
 62
         256
  6
BYLAYER
 49
-0.5
 62
         256
  6
BYLAYER
  0
ENDSEC
  0
EOF
