  0
SECTION
  2
HEADER
  9
$ACADVER
  1
AC1009
  9
$INSBASE
 10
0
 20
0
  9
$EXTMIN
 10
0
 20
0
  9
$EXTMAX
 10
1800
 20
677.899999999999
  9
$LIMMIN
 10
0
 20
0
  9
$LIMMAX
 10
1800
 20
677.899999999999
  9
$VIEWCTR
 10
10
 20
10
  9
$VIEWSIZE
 40
10
  9
$SNAPMODE
 70
0
  9
$SNAPUNIT
 10
1
 20
1
  9
$SNAPBASE
 10
0
 20
0
  9
$SNAPANG
 50
0
  9
$SNAPSTYLE
 70
0
  9
$SNAPISOPAIR
 70
0
  9
$GRIDMODE
 70
0
  9
$GRIDUNIT
 10
0
 20
0
  9
$ORTHOMODE
 70
0
  9
$REGENMODE
 70
1
  9
$FILLMODE
 70
1
  9
$QTEXTMODE
 70
0
  9
$DRAGMODE
 70
2
  9
$LTSCALE
 40
1
  9
$OSMODE
 70
0
  9
$ATTMODE
 70
1
  9
$TEXTSIZE
 40
3.5
  9
$TRACEWID
 40
0.5
  9
$TEXTSTYLE
  7
STANDARD
  9
$CLAYER
  8
0
  9
$CELTYPE
  6
BYLAYER
  9
$CECOLOR
 62
256
  9
$DIMSCALE
 40
1
  9
$DIMASZ
 40
0.18
  9
$DIMEXO
 40
0.0625
  9
$DIMDLI
 40
0.38
  9
$DIMRND
 40
0
  9
$DIMDLE
 40
0
  9
$DIMEXE
 40
0.18
  9
$DIMTP
 40
0
  9
$DIMTM
 40
0
  9
$DIMTXT
 40
0.18
  9
$DIMCEN
 40
0.09
  9
$DIMTSZ
 40
0
  9
$DIMTOL
 70
0
  9
$DIMLIM
 70
0
  9
$DIMTIH
 70
1
  9
$DIMTOH
 70
1
  9
$DIMSE1
 70
0
  9
$DIMSE2
 70
0
  9
$DIMTAD
 70
0
  9
$DIMZIN
 70
0
  9
$DIMBLK
  1

  9
$DIMASO
 70
1
  9
$DIMSHO
 70
1
  9
$DIMPOST
  1

  9
$DIMAPOST
  1

  9
$DIMALT
 70
0
  9
$DIMALTD
 70
2
  9
$DIMALTF
 40
25.4
  9
$DIMLFAC
 40
1
  9
$DIMTOFL
 70
0
  9
$DIMTVP
 40
0
  9
$DIMTIX
 70
0
  9
$DIMSOXD
 70
0
  9
$DIMSAH
 70
0
  9
$DIMBLK1
  1

  9
$DIMBLK2
  1

  9
$DIMSTYLE
  2
*UNNAMED
  9
$DIMCLRD
 70
0
  9
$DIMCLRE
 70
0
  9
$DIMCLRT
 70
0
  9
$DIMTFAC
 40
1
  9
$DIMGAP
 40
0.09
  9
$LUNITS
 70
2
  9
$LUPREC
 70
4
  9
$AXISMODE
 70
0
  9
$AXISUNIT
 10
0
 20
0
  9
$SKETCHINC
 40
0.1
  9
$FILLETRAD
 40
2
  9
$AUNITS
 70
0
  9
$AUPREC
 70
0
  9
$MENU
  1
ACAD
  9
$ELEVATION
 40
0
  9
$THICKNESS
 40
0
  9
$VIEWDIR
 10
0
 20
0
 30
1
  9
$LIMCHECK
 70
0
  9
$BLIPMODE
 70
1
  9
$CHAMFERA
 40
0
  9
$CHAMFERB
 40
0
  9
$FASTZOOM
 70
1
  9
$SKPOLY
 70
0
  9
$ANGBASE
 50
0
  9
$ANGDIR
 70
0
  9
$PDMODE
 70
0
  9
$PDSIZE
 40
0
  9
$PLINEWID
 40
0
  9
$COORDS
 70
2
  0
ENDSEC
  0
SECTION
  2
TABLES
  0
TABLE
  2
DIMSTYLE
 70
0
  0
ENDTAB
  0
TABLE
  2
LTYPE
 70
9
  0
LTYPE
  2
CONTINUOUS
 70
64
  3
Solid line
 72
65
 73
0
 40
0
  0
LTYPE
  2
BORDER
 70
64
  3
__ __ . __ __ .
 72
65
 73
6
 40
82.89473684210527
 49
23.68421052631579
 49
-11.8421052631579
 49
23.68421052631579
 49
-11.8421052631579
 49
0
 49
-11.8421052631579
  0
LTYPE
  2
CENTER
 70
64
  3
____ _ ____ _
 72
65
 73
4
 40
94.73684210526317
 49
59.21052631578948
 49
-11.8421052631579
 49
11.8421052631579
 49
-11.8421052631579
  0
LTYPE
  2
DASHDOT
 70
64
  3
__ . __ . __ .
 72
65
 73
4
 40
47.36842105263158
 49
23.68421052631579
 49
-11.8421052631579
 49
0
 49
-11.8421052631579
  0
LTYPE
  2
DASHED
 70
64
  3
__ __ __ __ __
 72
65
 73
2
 40
35.52631578947369
 49
23.68421052631579
 49
-11.8421052631579
  0
LTYPE
  2
DIVIDE
 70
64
  3
__ . . __ . . 
 72
65
 73
6
 40
59.21052631578948
 49
23.68421052631579
 49
-11.8421052631579
 49
0
 49
-11.8421052631579
 49
0
 49
-11.8421052631579
  0
LTYPE
  2
DOT
 70
64
  3
..............
 72
65
 73
4
 40
23.68421052631579
 49
0
 49
-11.8421052631579
 49
0
 49
-11.8421052631579
  0
LTYPE
  2
HIDDEN
 70
64
  3
_ _ _ _ _ _ _
 72
65
 73
2
 40
17.76315789473684
 49
11.8421052631579
 49
-5.921052631578948
  0
LTYPE
  2
PHANTOM
 70
64
  3
_____ _ _ _____ _ _ 
 72
65
 73
6
 40
118.421052631579
 49
59.21052631578948
 49
-11.8421052631579
 49
11.8421052631579
 49
-11.8421052631579
 49
11.8421052631579
 49
-11.8421052631579
  0
ENDTAB
  0
TABLE
  2
LAYER
 70
5
  0
LAYER
  2
MITTELLINIEN
 70
0
 62
7
  6
CONTINUOUS
  0
LAYER
  2
1
 70
0
 62
7
  6
CONTINUOUS
  0
LAYER
  2
WANNE
 70
0
 62
7
  6
CONTINUOUS
  0
LAYER
  2
0
 70
0
 62
7
  6
CONTINUOUS
  0
ENDTAB
  0
TABLE
  2
STYLE
 70
4
  0
STYLE
  2
STANDARD
 70
0
 40
0
 41
1
 50
0
 71
0
 42
3.5
  3
txt
  4

  0
STYLE
  2
SIMPLEX
 70
0
 40
0
 41
1
 50
0
 71
0
 42
3.5
  3
simplex
  4

  0
STYLE
  2
COMPLEX
 70
0
 40
0
 41
1
 50
0
 71
0
 42
3.5
  3
complex
  4

  0
STYLE
  2
ITALIC
 70
0
 40
0
 41
1
 50
0
 71
0
 42
3.5
  3
italic
  4

  0
ENDTAB
  0
TABLE
  2
VIEW
 70
0
  0
ENDTAB
  0
ENDSEC
  0
SECTION
  2
BLOCKS
  0
BLOCK
  8
0
  2
DLX
 70
0
 10
600
 20
360
 30
0
  0
LINE
  8
1
 62
3
 10
771.206636135699
 20
413.505992531278
 30
0
 11
771.206636135699
 21
411.050334541276
 31
0
  0
LINE
  8
1
 62
3
 10
773.062609127785
 20
413.505992531278
 30
0
 11
771.206636135699
 21
413.505992531278
 31
0
  0
LINE
  8
1
 62
3
 10
771.206636135699
 20
411.050334541276
 30
0
 11
773.194119363641
 21
411.050334541276
 31
0
  0
LINE
  8
1
 62
3
 10
771.206636135699
 20
407.4510557882821
 30
0
 11
770.3341884365839
 21
407.4510557882821
 31
0
  0
LINE
  8
1
 62
3
 10
772.931697837317
 20
410.2001112138419
 30
0
 11
771.206636135699
 21
410.2001112138419
 31
0
  0
LINE
  8
1
 62
3
 10
773.9449125772369
 20
407.4510557882821
 30
0
 11
773.9449125772369
 21
409.0729110559
 31
0
  0
LINE
  8
1
 62
3
 10
774.9060993927419
 20
407.4510557882821
 30
0
 11
773.9449125772369
 21
407.4510557882821
 31
0
  0
LINE
  8
1
 62
3
 10
774.9060993927419
 20
409.3306895546259
 30
0
 11
774.9060993927419
 21
407.4510557882821
 31
0
  0
LINE
  8
1
 62
3
 10
772.7761082958239
 20
414.3095239634562
 30
0
 11
773.0724648781759
 21
414.3095239634562
 31
0
  0
LINE
  8
1
 62
3
 10
770.3341884365839
 20
414.3095239634562
 30
0
 11
772.7761082958239
 21
414.3095239634562
 31
0
  0
LINE
  8
1
 62
3
 10
770.3341884365839
 20
407.4510557882821
 30
0
 11
770.3341884365839
 21
414.3095239634562
 31
0
  0
LINE
  8
1
 62
3
 10
771.206636135699
 20
410.2001112138419
 30
0
 11
771.206636135699
 21
407.4510557882821
 31
0
  0
LINE
  8
1
 62
3
 10
726.68540084903
 20
416.3845084783201
 30
0
 11
724.591323771416
 21
416.3845084783201
 31
0
  0
LINE
  8
1
 62
3
 10
723.9754657010669
 20
405.3239024177931
 30
0
 11
726.68540084903
 21
416.3845084783201
 31
0
  0
LINE
  8
1
 62
3
 10
734.445851089087
 20
405.3239024177931
 30
0
 11
723.9754657010669
 21
405.3239024177931
 31
0
  0
LINE
  8
1
 62
3
 10
733.9038640594258
 20
403.1117812056621
 30
0
 11
734.445851089087
 21
405.3239024177931
 31
0
  0
LINE
  8
1
 62
3
 10
721.339401593847
 20
403.1117812056621
 30
0
 11
733.9038640594258
 21
403.1117812056621
 31
0
  0
LINE
  8
1
 62
3
 10
724.591323771416
 20
416.3845084783201
 30
0
 11
721.339401593847
 21
403.1117812056621
 31
0
  0
LINE
  8
1
 62
3
 10
711.144653716558
 20
407.5360236298441
 30
0
 11
714.9003688559239
 21
414.172387266269
 31
0
  0
LINE
  8
1
 62
3
 10
715.9571720012139
 20
414.172387266269
 30
0
 11
714.9003688559239
 21
414.172387266269
 31
0
  0
LINE
  8
1
 62
3
 10
716.4609649630688
 20
407.5360236298441
 30
0
 11
715.9571720012139
 21
414.172387266269
 31
0
  0
LINE
  8
1
 62
3
 10
711.144653716558
 20
407.5360236298441
 30
0
 11
716.4609649630688
 21
407.5360236298441
 31
0
  0
LINE
  8
1
 62
3
 10
708.6408436236638
 20
403.1117812056621
 30
0
 11
706.2620466350929
 21
403.1117812056621
 31
0
  0
LINE
  8
1
 62
3
 10
709.892748670027
 20
405.3239024177931
 30
0
 11
708.6408436236638
 21
403.1117812056621
 31
0
  0
LINE
  8
1
 62
3
 10
716.6288959503909
 20
405.3239024177931
 30
0
 11
709.892748670027
 21
405.3239024177931
 31
0
  0
LINE
  8
1
 62
3
 10
716.7968269376579
 20
403.1117812056621
 30
0
 11
716.6288959503909
 21
405.3239024177931
 31
0
  0
LINE
  8
1
 62
3
 10
718.826509100727
 20
403.1117812056621
 30
0
 11
716.7968269376579
 21
403.1117812056621
 31
0
  0
LINE
  8
1
 62
3
 10
717.818923176965
 20
416.3845084783201
 30
0
 11
718.826509100727
 21
403.1117812056621
 31
0
  0
LINE
  8
1
 62
3
 10
713.77347691399
 20
416.3845084783201
 30
0
 11
717.818923176965
 21
416.3845084783201
 31
0
  0
LINE
  8
1
 62
3
 10
706.2620466350929
 20
403.1117812056621
 30
0
 11
713.77347691399
 21
416.3845084783201
 31
0
  0
LINE
  8
1
 62
3
 10
693.2787687540589
 20
403.1117812056621
 30
0
 11
691.1846916764989
 21
403.1117812056621
 31
0
  0
LINE
  8
1
 62
3
 10
696.0847710509879
 20
414.5644855385979
 30
0
 11
693.2787687540589
 21
403.1117812056621
 31
0
  0
LINE
  8
1
 62
3
 10
696.7253193174979
 20
412.9053946295351
 30
0
 11
696.0847710509879
 21
414.5644855385979
 31
0
  0
LINE
  8
1
 62
3
 10
700.5064756532079
 20
403.1117812056621
 30
0
 11
696.7253193174979
 21
412.9053946295351
 31
0
  0
LINE
  8
1
 62
3
 10
703.7491541419769
 20
403.1117812056621
 30
0
 11
700.5064756532079
 21
403.1117812056621
 31
0
  0
LINE
  8
1
 62
3
 10
707.0010763195969
 20
416.3845084783201
 30
0
 11
703.7491541419769
 21
403.1117812056621
 31
0
  0
LINE
  8
1
 62
3
 10
704.9069992419829
 20
416.3845084783201
 30
0
 11
707.0010763195969
 21
416.3845084783201
 31
0
  0
LINE
  8
1
 62
3
 10
702.0615673366299
 20
404.770872114746
 30
0
 11
704.9069992419829
 21
416.3845084783201
 31
0
  0
LINE
  8
1
 62
3
 10
697.5777294703548
 20
416.3845084783201
 30
0
 11
702.0615673366299
 21
404.770872114746
 31
0
  0
LINE
  8
1
 62
3
 10
694.4366138540139
 20
416.3845084783201
 30
0
 11
697.5777294703548
 21
416.3845084783201
 31
0
  0
LINE
  8
1
 62
3
 10
691.1846916764989
 20
403.1117812056621
 30
0
 11
694.4366138540139
 21
416.3845084783201
 31
0
  0
LINE
  8
1
 62
3
 10
691.9237213608981
 20
416.3845084783201
 30
0
 11
689.8296442833339
 21
416.3845084783201
 31
0
  0
LINE
  8
1
 62
3
 10
689.8296442833339
 20
416.3845084783201
 30
0
 11
686.5777221057689
 21
403.1117812056621
 31
0
  0
LINE
  8
1
 62
3
 10
688.671799183329
 20
403.1117812056621
 30
0
 11
691.9237213608981
 21
416.3845084783201
 31
0
  0
LINE
  8
1
 62
3
 10
686.5777221057689
 20
403.1117812056621
 30
0
 11
688.671799183329
 21
403.1117812056621
 31
0
  0
LINE
  8
1
 62
3
 10
684.0845019505218
 20
411.739053932891
 30
0
 11
686.1785790280479
 21
411.739053932891
 31
0
  0
LINE
  8
1
 62
3
 10
683.0547265943719
 20
407.5360236298441
 30
0
 11
682.5127395646049
 21
405.3239024177931
 31
0
  0
LINE
  8
1
 62
3
 10
678.8665724389718
 20
407.5360236298441
 30
0
 11
683.0547265943719
 21
407.5360236298441
 31
0
  0
LINE
  8
1
 62
3
 10
679.4085594686189
 20
409.7481448420331
 30
0
 11
678.8665724389718
 21
407.5360236298441
 31
0
  0
LINE
  8
1
 62
3
 10
685.6907907014249
 20
409.7481448420331
 30
0
 11
684.0648296126528
 21
403.1117812056621
 31
0
  0
LINE
  8
1
 62
3
 10
685.6907907014249
 20
409.7481448420331
 30
0
 11
679.4085594686189
 21
409.7481448420331
 31
0
  0
LINE
  8
1
 62
3
 10
674.1364312542755
 20
405.3239024177931
 30
0
 11
676.3043793726031
 21
414.172387266269
 31
0
  0
LINE
  8
1
 62
3
 10
676.3043793726031
 20
414.172387266269
 30
0
 11
684.6806876828998
 21
414.172387266269
 31
0
  0
LINE
  8
1
 62
3
 10
684.6806876828998
 20
414.172387266269
 30
0
 11
684.0845019505218
 21
411.739053932891
 31
0
  0
LINE
  8
1
 62
3
 10
682.5127395646049
 20
405.3239024177931
 30
0
 11
674.1364312542755
 21
405.3239024177931
 31
0
  0
LINE
  8
1
 62
3
 10
684.0648296126528
 20
403.1117812056621
 30
0
 11
671.5003671470404
 21
403.1117812056621
 31
0
  0
LINE
  8
1
 62
3
 10
687.316751790175
 20
416.3845084783201
 30
0
 11
686.1785790280479
 21
411.739053932891
 31
0
  0
LINE
  8
1
 62
3
 10
674.7522893245841
 20
416.3845084783201
 30
0
 11
687.316751790175
 21
416.3845084783201
 31
0
  0
LINE
  8
1
 62
3
 10
671.5003671470404
 20
403.1117812056621
 30
0
 11
674.7522893245841
 21
416.3845084783201
 31
0
  0
LINE
  8
1
 62
3
 10
668.9874746540554
 20
403.1117812056621
 30
0
 11
672.2393968314646
 21
416.3845084783201
 31
0
  0
LINE
  8
1
 62
3
 10
666.8933975763357
 20
403.1117812056621
 30
0
 11
668.9874746540554
 21
403.1117812056621
 31
0
  0
LINE
  8
1
 62
3
 10
670.1453197539013
 20
416.3845084783201
 30
0
 11
666.8933975763357
 21
403.1117812056621
 31
0
  0
LINE
  8
1
 62
3
 10
672.2393968314646
 20
416.3845084783201
 30
0
 11
670.1453197539013
 21
416.3845084783201
 31
0
  0
LINE
  8
1
 62
3
 10
653.9101196952979
 20
403.1117812056621
 30
0
 11
654.9940937544088
 21
407.5360236298441
 31
0
  0
LINE
  8
1
 62
3
 10
651.8160426176219
 20
403.1117812056621
 30
0
 11
653.9101196952979
 21
403.1117812056621
 31
0
  0
LINE
  8
1
 62
3
 10
665.3282234693179
 20
406.979895810782
 30
0
 11
664.3805050832052
 21
403.1117812056621
 31
0
  0
LINE
  8
1
 62
3
 10
656.6200548431843
 20
414.172387266269
 30
0
 11
655.5360807840007
 21
409.7481448420331
 31
0
  0
LINE
  8
1
 62
3
 10
664.996363153703
 20
414.172387266269
 30
0
 11
656.6200548431843
 21
414.172387266269
 31
0
  0
LINE
  8
1
 62
3
 10
663.9123890943811
 20
409.7481448420331
 30
0
 11
664.996363153703
 21
414.172387266269
 31
0
  0
LINE
  8
1
 62
3
 10
655.5360807840007
 20
409.7481448420331
 30
0
 11
663.9123890943811
 21
409.7481448420331
 31
0
  0
LINE
  8
1
 62
3
 10
663.3704020649384
 20
407.5360236298441
 30
0
 11
654.9940937544088
 21
407.5360236298441
 31
0
  0
LINE
  8
1
 62
3
 10
662.2864280055655
 20
403.1117812056621
 30
0
 11
663.3704020649384
 21
407.5360236298441
 31
0
  0
LINE
  8
1
 62
3
 10
664.3805050832052
 20
403.1117812056621
 30
0
 11
662.2864280055655
 21
403.1117812056621
 31
0
  0
LINE
  8
1
 62
3
 10
667.632427260738
 20
416.3845084783201
 30
0
 11
665.7649031508845
 21
408.7622048583319
 31
0
  0
LINE
  8
1
 62
3
 10
655.0679647951583
 20
416.3845084783201
 30
0
 11
667.632427260738
 21
416.3845084783201
 31
0
  0
LINE
  8
1
 62
3
 10
655.0679647951583
 20
416.3845084783201
 30
0
 11
651.8160426176219
 21
403.1117812056621
 31
0
  0
LINE
  8
1
 62
3
 10
639.3747517661323
 20
405.3239024177931
 30
0
 11
641.5426998844741
 21
414.172387266269
 31
0
  0
LINE
  8
1
 62
3
 10
641.5426998844741
 20
414.172387266269
 30
0
 11
649.9190081949637
 21
414.172387266269
 31
0
  0
LINE
  8
1
 62
3
 10
649.9190081949637
 20
414.172387266269
 30
0
 11
647.7510600764872
 21
405.3239024177931
 31
0
  0
LINE
  8
1
 62
3
 10
647.7510600764872
 20
405.3239024177931
 30
0
 11
639.3747517661323
 21
405.3239024177931
 31
0
  0
LINE
  8
1
 62
3
 10
649.3031501244914
 20
403.1117812056621
 30
0
 11
636.7386876589662
 21
403.1117812056621
 31
0
  0
LINE
  8
1
 62
3
 10
652.5550723021661
 20
416.3845084783201
 30
0
 11
649.3031501244914
 21
403.1117812056621
 31
0
  0
LINE
  8
1
 62
3
 10
639.9906098364481
 20
416.3845084783201
 30
0
 11
652.5550723021661
 21
416.3845084783201
 31
0
  0
LINE
  8
1
 62
3
 10
636.7386876589662
 20
403.1117812056621
 30
0
 11
639.9906098364481
 21
416.3845084783201
 31
0
  0
LINE
  8
1
 62
3
 10
780.3295031522068
 20
360
 30
0
 11
727.738701733397
 21
360
 31
0
  0
LINE
  8
1
 62
3
 10
777.928830785688
 20
366.1939393939099
 30
0
 11
735.1196812335149
 21
366.1939393939099
 31
0
  0
LINE
  8
1
 62
3
 10
777.928830785688
 20
366.1939393939099
 30
0
 11
780.3295031522068
 21
360
 31
0
  0
LINE
  8
1
 62
3
 10
770.686830708906
 20
384.878917066824
 30
0
 11
767.9069775849489
 21
392.051175145079
 31
0
  0
LINE
  8
1
 62
3
 10
776.284056889192
 20
392.051175145079
 30
0
 11
770.686830708906
 21
384.878917066824
 31
0
  0
LINE
  8
1
 62
3
 10
780.32950315225
 20
392.051175145079
 30
0
 11
776.284056889192
 21
392.051175145079
 31
0
  0
LINE
  8
1
 62
3
 10
772.0292731071679
 20
381.415301218603
 30
0
 11
780.32950315225
 21
392.051175145079
 31
0
  0
LINE
  8
1
 62
3
 10
776.8999712001719
 20
368.848484848477
 30
0
 11
772.0292731071679
 21
381.415301218603
 31
0
  0
LINE
  8
1
 62
3
 10
772.8545249371239
 20
368.848484848477
 30
0
 11
776.8999712001719
 21
368.848484848477
 31
0
  0
LINE
  8
1
 62
3
 10
769.3262692424398
 20
377.951685370502
 30
0
 11
772.8545249371239
 21
368.848484848477
 31
0
  0
LINE
  8
1
 62
3
 10
762.222136662338
 20
368.848484848477
 30
0
 11
769.3262692424398
 21
377.951685370502
 31
0
  0
LINE
  8
1
 62
3
 10
758.1766903993409
 20
368.848484848477
 30
0
 11
762.222136662338
 21
368.848484848477
 31
0
  0
LINE
  8
1
 62
3
 10
767.9838268441308
 20
381.4153012186609
 30
0
 11
758.1766903993409
 21
368.848484848477
 31
0
  0
LINE
  8
1
 62
3
 10
763.8615313219339
 20
392.051175145079
 30
0
 11
767.9838268441308
 21
381.4153012186609
 31
0
  0
LINE
  8
1
 62
3
 10
767.9069775849489
 20
392.051175145079
 30
0
 11
763.8615313219339
 21
392.051175145079
 31
0
  0
LINE
  8
1
 62
3
 10
750.878253440889
 20
392.051175145079
 30
0
 11
745.643060746967
 21
392.051175145079
 31
0
  0
LINE
  8
1
 62
3
 10
746.277386577538
 20
373.2727272727971
 30
0
 11
750.878253440889
 21
392.051175145079
 31
0
  0
LINE
  8
1
 62
3
 10
751.5125792714898
 20
373.2727272727971
 30
0
 11
746.277386577538
 21
373.2727272727971
 31
0
  0
LINE
  8
1
 62
3
 10
756.113446134885
 20
392.051175145079
 30
0
 11
751.5125792714898
 21
373.2727272727971
 31
0
  0
LINE
  8
1
 62
3
 10
761.3486388288079
 20
392.051175145079
 30
0
 11
756.113446134885
 21
392.051175145079
 31
0
  0
LINE
  8
1
 62
3
 10
755.6637979062
 20
368.848484848477
 30
0
 11
761.3486388288079
 21
392.051175145079
 31
0
  0
LINE
  8
1
 62
3
 10
739.958219824279
 20
368.848484848477
 30
0
 11
755.6637979062
 21
368.848484848477
 31
0
  0
LINE
  8
1
 62
3
 10
745.643060746967
 20
392.051175145079
 30
0
 11
739.958219824279
 21
368.848484848477
 31
0
  0
LINE
  8
1
 62
3
 10
738.301425922338
 20
403.1117812056621
 30
0
 11
727.738701733397
 21
360
 31
0
  0
LINE
  8
1
 62
3
 10
744.1648417396059
 20
403.1117812056621
 30
0
 11
738.301425922338
 21
403.1117812056621
 31
0
  0
LINE
  8
1
 62
3
 10
735.1196812335149
 20
366.1939393939099
 30
0
 11
744.1648417396059
 21
403.1117812056621
 31
0
  0
LINE
  8
1
 62
3
 10
600
 20
360
 30
0
 11
607.8527890410551
 21
392.051175145079
 31
0
  0
LINE
  8
1
 62
3
 10
607.8527890410551
 20
392.051175145079
 30
0
 11
614.1350202737522
 21
392.051175145079
 31
0
  0
LINE
  8
1
 62
3
 10
614.1350202737522
 20
392.051175145079
 30
0
 11
607.3662052920627
 21
364.424242424182
 31
0
  0
LINE
  8
1
 62
3
 10
607.3662052920627
 20
364.424242424182
 30
0
 11
612.6013979859417
 21
364.424242424182
 31
0
  0
LINE
  8
1
 62
3
 10
612.6013979859417
 20
364.424242424182
 30
0
 11
620.7251805418237
 21
397.581478175405
 31
0
  0
LINE
  8
1
 62
3
 10
620.7251805418237
 20
397.581478175405
 30
0
 11
603.0340846972904
 21
397.581478175405
 31
0
  0
LINE
  8
1
 62
3
 10
603.0340846972904
 20
397.581478175405
 30
0
 11
604.3890522712754
 21
403.1117812056621
 31
0
  0
LINE
  8
1
 62
3
 10
604.3890522712754
 20
403.1117812056621
 30
0
 11
628.3623793485676
 21
403.1117812056621
 31
0
  0
LINE
  8
1
 62
3
 10
628.3623793485676
 20
403.1117812056621
 30
0
 11
617.799655159648
 21
360
 31
0
  0
LINE
  8
1
 62
3
 10
617.799655159648
 20
360
 30
0
 11
600
 21
360
 31
0
  0
LINE
  8
1
 62
3
 10
621.9878093147745
 20
360
 30
0
 11
629.8405983557677
 21
392.051175145079
 31
0
  0
LINE
  8
1
 62
3
 10
629.8405983557677
 20
392.051175145079
 30
0
 11
636.1228295885776
 21
392.051175145079
 31
0
  0
LINE
  8
1
 62
3
 10
636.1228295885776
 20
392.051175145079
 30
0
 11
629.3540146067826
 21
364.424242424182
 31
0
  0
LINE
  8
1
 62
3
 10
629.3540146067826
 20
364.424242424182
 30
0
 11
634.5892073007672
 21
364.424242424182
 31
0
  0
LINE
  8
1
 62
3
 10
634.5892073007672
 20
364.424242424182
 30
0
 11
641.3580222825731
 21
392.051175145079
 31
0
  0
LINE
  8
1
 62
3
 10
639.7874644743642
 20
360
 30
0
 11
621.9878093147745
 21
360
 31
0
  0
LINE
  8
1
 62
3
 10
641.3580222825731
 20
392.051175145079
 30
0
 11
647.6402535153793
 21
392.051175145079
 31
0
  0
LINE
  8
1
 62
3
 10
647.6402535153793
 20
392.051175145079
 30
0
 11
639.7874644743642
 21
360
 31
0
  0
LINE
  8
1
 62
3
 10
668.581024291314
 20
392.051175145079
 30
0
 11
651.8284076705422
 21
392.051175145079
 31
0
  0
LINE
  8
1
 62
3
 10
651.8284076705422
 20
392.051175145079
 30
0
 11
647.2275408071509
 21
373.2727272727971
 31
0
  0
LINE
  8
1
 62
3
 10
647.2275408071509
 20
373.2727272727971
 30
0
 11
657.6979261951165
 21
373.2727272727971
 31
0
  0
LINE
  8
1
 62
3
 10
657.6979261951165
 20
373.2727272727971
 30
0
 11
655.5299780766982
 21
364.424242424182
 31
0
  0
LINE
  8
1
 62
3
 10
655.5299780766982
 20
364.424242424182
 30
0
 11
645.0595926887872
 21
364.424242424182
 31
0
  0
LINE
  8
1
 62
3
 10
645.0595926887872
 20
364.424242424182
 30
0
 11
643.9756186294799
 21
360
 31
0
  0
LINE
  8
1
 62
3
 10
643.9756186294799
 20
360
 30
0
 11
660.7282352503025
 21
360
 31
0
  0
LINE
  8
1
 62
3
 10
660.7282352503025
 20
360
 30
0
 11
665.0641314872264
 21
377.696969696953
 31
0
  0
LINE
  8
1
 62
3
 10
665.0641314872264
 20
377.696969696953
 30
0
 11
654.5937460991627
 21
377.696969696953
 31
0
  0
LINE
  8
1
 62
3
 10
654.5937460991627
 20
377.696969696953
 30
0
 11
657.0266648441757
 21
387.626932720839
 31
0
  0
LINE
  8
1
 62
3
 10
657.0266648441757
 20
387.626932720839
 30
0
 11
667.4970502321557
 21
387.626932720839
 31
0
  0
LINE
  8
1
 62
3
 10
667.4970502321557
 20
387.626932720839
 30
0
 11
668.581024291314
 21
392.051175145079
 31
0
  0
LINE
  8
1
 62
3
 10
686.8118599193219
 20
380.990569084413
 30
0
 11
689.5217950672519
 21
392.051175145079
 31
0
  0
LINE
  8
1
 62
3
 10
689.5217950672519
 20
392.051175145079
 30
0
 11
672.7691784465314
 21
392.051175145079
 31
0
  0
LINE
  8
1
 62
3
 10
672.7691784465314
 20
392.051175145079
 30
0
 11
664.9163894055382
 21
360
 31
0
  0
LINE
  8
1
 62
3
 10
664.9163894055382
 20
360
 30
0
 11
681.669006026292
 21
360
 31
0
  0
LINE
  8
1
 62
3
 10
681.669006026292
 20
360
 30
0
 11
684.378941174266
 21
371.0606060606082
 31
0
  0
LINE
  8
1
 62
3
 10
684.378941174266
 20
371.0606060606082
 30
0
 11
678.0967099414779
 21
371.0606060606082
 31
0
  0
LINE
  8
1
 62
3
 10
678.0967099414779
 20
371.0606060606082
 30
0
 11
676.4707488526909
 21
364.424242424182
 31
0
  0
LINE
  8
1
 62
3
 10
676.4707488526909
 20
364.424242424182
 30
0
 11
672.2825946974881
 21
364.424242424182
 31
0
  0
LINE
  8
1
 62
3
 10
672.2825946974881
 20
364.424242424182
 30
0
 11
677.9674356201178
 21
387.626932720839
 31
0
  0
LINE
  8
1
 62
3
 10
677.9674356201178
 20
387.626932720839
 30
0
 11
682.1555897753099
 21
387.626932720839
 31
0
  0
LINE
  8
1
 62
3
 10
682.1555897753099
 20
387.626932720839
 30
0
 11
680.5296286865159
 21
380.990569084413
 31
0
  0
LINE
  8
1
 62
3
 10
680.5296286865159
 20
380.990569084413
 30
0
 11
686.8118599193219
 21
380.990569084413
 31
0
  0
LINE
  8
1
 62
3
 10
685.8571601814729
 20
360
 30
0
 11
692.1393914142609
 21
360
 31
0
  0
LINE
  8
1
 62
3
 10
702.6097768023359
 20
360
 30
0
 11
710.4625658433508
 21
392.051175145079
 31
0
  0
LINE
  8
1
 62
3
 10
696.3275455694388
 20
360
 30
0
 11
699.7119530603338
 21
373.813466360341
 31
0
  0
LINE
  8
1
 62
3
 10
692.1393914142609
 20
360
 30
0
 11
695.5237989051459
 21
373.813466360341
 31
0
  0
LINE
  8
1
 62
3
 10
693.7099492224659
 20
392.051175145079
 30
0
 11
685.8571601814729
 21
360
 31
0
  0
LINE
  8
1
 62
3
 10
710.4625658433508
 20
392.051175145079
 30
0
 11
704.1803346104349
 21
392.051175145079
 31
0
  0
LINE
  8
1
 62
3
 10
706.7979309574619
 20
360
 30
0
 11
723.55054757827
 21
360
 31
0
  0
LINE
  8
1
 62
3
 10
718.3522904045678
 20
364.424242424182
 30
0
 11
714.164136249467
 21
364.424242424182
 31
0
  0
LINE
  8
1
 62
3
 10
714.650719998459
 20
392.051175145079
 30
0
 11
706.7979309574619
 21
360
 31
0
  0
LINE
  8
1
 62
3
 10
714.164136249467
 20
364.424242424182
 30
0
 11
719.8489771720419
 21
387.626932720839
 31
0
  0
LINE
  8
1
 62
3
 10
731.4033366192889
 20
392.051175145079
 30
0
 11
714.650719998459
 21
392.051175145079
 31
0
  0
LINE
  8
1
 62
3
 10
719.8489771720419
 20
387.626932720839
 30
0
 11
724.037131327292
 21
387.626932720839
 31
0
  0
LINE
  8
1
 62
3
 10
724.037131327292
 20
387.626932720839
 30
0
 11
718.3522904045678
 21
364.424242424182
 31
0
  0
LINE
  8
1
 62
3
 10
731.4033366192889
 20
392.051175145079
 30
0
 11
723.55054757827
 21
360
 31
0
  0
LINE
  8
1
 62
3
 10
699.992180455331
 20
392.051175145079
 30
0
 11
693.7099492224659
 21
392.051175145079
 31
0
  0
LINE
  8
1
 62
3
 10
696.3275455694388
 20
360
 30
0
 11
702.6097768023359
 21
360
 31
0
  0
LINE
  8
1
 62
3
 10
695.5237989051459
 20
373.813466360341
 30
0
 11
699.7119530603338
 21
373.813466360341
 31
0
  0
LINE
  8
1
 62
3
 10
696.6077729643149
 20
378.2377087845272
 30
0
 11
700.7959271195539
 21
378.2377087845272
 31
0
  0
LINE
  8
1
 62
3
 10
696.6077729643149
 20
378.2377087845272
 30
0
 11
699.992180455331
 21
392.051175145079
 31
0
  0
LINE
  8
1
 62
3
 10
700.7959271195539
 20
378.2377087845272
 30
0
 11
704.1803346104349
 21
392.051175145079
 31
0
  0
LINE
  8
1
 62
3
 10
665.7649031508845
 20
408.7622048583319
 30
0
 11
665.0328203819372
 21
407.9784478723631
 31
0
  0
LINE
  8
1
 62
3
 10
665.3282234693179
 20
406.979895810782
 30
0
 11
665.0328203819372
 21
407.9784478723631
 31
0
  0
ARC
  8
1
 62
3
 10
773.514586791596
 20
409.3622336822259
 30
0
 40
1.39187009132817
 50
358.7013873342734
 51
66.54486649404458
  0
ARC
  8
1
 62
3
 10
772.789193605106
 20
409.0530393898221
 30
0
 40
1.155889798231653
 50
0.9850581704823435
 51
82.91825463293205
  0
ARC
  8
1
 62
3
 10
772.8643762433019
 20
412.264025930551
 30
0
 40
1.257687287767188
 50
285.1995809529435
 51
80.93139523878851
  0
ARC
  8
1
 62
3
 10
772.9426940693159
 20
412.3039199213811
 30
0
 40
2.009798008861834
 50
304.0700115354259
 51
86.2978887182587
  0
CIRCLE
  8
1
 62
3
 10
772.7358752379369
 20
410.878787878755
 30
0
 40
5.530127989695984
  0
CIRCLE
  8
1
 62
3
 10
772.7358752379369
 20
410.878787878755
 30
0
 40
5.972862778753957
  0
ENDBLK
  8
0
  0
BLOCK
  8
0
  2
WANNENF_SSE
 70
0
 10
595
 20
0
 30
0
  0
LINE
  8
1
 62
2
 10
651.817599
 20
25
 30
0
 11
691.817599
 21
25
 31
0
  0
LINE
  8
1
 62
2
 10
656.817599
 20
55
 30
0
 11
686.817599
 21
55
 31
0
  0
LINE
  8
1
 62
2
 10
661.817599
 20
85
 30
0
 11
681.817599
 21
85
 31
0
  0
LINE
  8
1
 62
2
 10
651.2929036690759
 20
176.6442984569262
 30
0
 11
691.279518176246
 21
175.6095713165855
 31
0
  0
LINE
  8
1
 62
2
 10
646.423917748222
 20
181.7719661628648
 30
0
 11
651.4222445616181
 21
181.6426252703227
 31
0
  0
LINE
  8
1
 62
2
 10
656.420571375015
 20
181.5132843777806
 30
0
 11
686.410532255391
 21
180.7372390225241
 31
0
  0
LINE
  8
1
 62
2
 10
691.4088590687891
 20
180.607898129982
 30
0
 11
696.407185882184
 21
180.4785572374399
 31
0
  0
LINE
  8
1
 62
2
 10
631.687619093118
 20
192.1566424672851
 30
0
 11
646.682599533307
 21
191.7686197896578
 31
0
  0
LINE
  8
1
 62
2
 10
696.665867667271
 20
190.4752108642319
 30
0
 11
711.6608481074591
 21
190.0871881866037
 31
0
  0
LINE
  8
1
 62
2
 10
651.5515854541611
 20
186.6409520837183
 30
0
 11
656.5499122675569
 21
186.5116111911761
 31
0
  0
LINE
  8
1
 62
2
 10
686.5398731479349
 20
185.7355658359206
 30
0
 11
691.538199961331
 21
185.6062249433776
 31
0
  0
LINE
  8
1
 62
2
 10
651.817599
 20
0
 30
0
 11
651.817599
 21
25
 31
0
  0
LINE
  8
1
 62
2
 10
691.817599
 20
0
 30
0
 11
691.817599
 21
25
 31
0
  0
LINE
  8
1
 62
2
 10
686.817599
 20
25
 30
0
 11
686.817599
 21
55
 31
0
  0
LINE
  8
1
 62
2
 10
656.817599
 20
25
 30
0
 11
656.817599
 21
55
 31
0
  0
LINE
  8
1
 62
2
 10
656.817599
 20
55
 30
0
 11
661.817599
 21
85
 31
0
  0
LINE
  8
1
 62
2
 10
686.817599
 20
55
 30
0
 11
681.817599
 21
85
 31
0
  0
LINE
  8
1
 62
2
 10
666.817599
 20
85
 30
0
 11
666.817599
 21
176.2425684329564
 31
0
  0
LINE
  8
1
 62
2
 10
676.817599
 20
85
 30
0
 11
676.817599
 21
175.9838000543145
 31
0
  0
LINE
  8
1
 62
2
 10
631.687619093118
 20
192.1566424672851
 30
0
 11
631.816959985661
 21
197.1549692806816
 31
0
  0
LINE
  8
1
 62
2
 10
631.816959985661
 20
197.1549692806816
 30
0
 11
651.8102672392461
 21
196.6376057105113
 31
0
  0
LINE
  8
1
 62
2
 10
651.8102672392461
 20
196.6376057105113
 30
0
 11
651.5515854541611
 21
186.6409520837183
 31
0
  0
LINE
  8
1
 62
2
 10
646.682599533307
 20
191.7686197896578
 30
0
 11
646.423917748222
 21
181.7719661628648
 31
0
  0
LINE
  8
1
 62
2
 10
656.5499122675569
 20
186.5116111911761
 30
0
 11
656.420571375015
 21
181.5132843777806
 31
0
  0
LINE
  8
1
 62
2
 10
651.4222445616181
 20
181.6426252703227
 30
0
 11
651.2929036690759
 21
176.6442984569262
 31
0
  0
LINE
  8
1
 62
2
 10
686.410532255391
 20
180.7372390225241
 30
0
 11
686.5398731479349
 21
185.7355658359206
 31
0
  0
LINE
  8
1
 62
2
 10
691.538199961331
 20
185.6062249433776
 30
0
 11
691.7968817464159
 21
195.6028785701706
 31
0
  0
LINE
  8
1
 62
2
 10
691.7968817464159
 20
195.6028785701706
 30
0
 11
711.790189000001
 21
195.0855150000002
 31
0
  0
LINE
  8
1
 62
2
 10
711.6608481074591
 20
190.0871881866037
 30
0
 11
711.790189000001
 21
195.0855150000002
 31
0
  0
LINE
  8
1
 62
2
 10
696.665867667271
 20
190.4752108642319
 30
0
 11
696.407185882184
 21
180.4785572374399
 31
0
  0
LINE
  8
1
 62
2
 10
691.4088590687891
 20
180.607898129982
 30
0
 11
691.279518176246
 21
175.6095713165855
 31
0
  0
LINE
  8
1
 62
2
 10
1497.606364
 20
25
 30
0
 11
1537.606364
 21
25
 31
0
  0
LINE
  8
1
 62
2
 10
1502.606364
 20
55
 30
0
 11
1532.606364
 21
55
 31
0
  0
LINE
  8
1
 62
2
 10
1507.606364
 20
85
 30
0
 11
1527.606364
 21
85
 31
0
  0
LINE
  8
1
 62
2
 10
1498.144444823754
 20
170.6342730359042
 30
0
 11
1538.131059330924
 21
171.6690001762449
 31
0
  0
LINE
  8
1
 62
2
 10
1538.001718438382
 20
176.6673269896414
 30
0
 11
1543.000045251778
 21
176.7966678821836
 31
0
  0
LINE
  8
1
 62
2
 10
1503.013430744608
 20
175.7619407418429
 30
0
 11
1533.003391624985
 21
176.5379860970993
 31
0
  0
LINE
  8
1
 62
2
 10
1493.016777117815
 20
175.5032589567586
 30
0
 11
1498.015103931211
 21
175.6325998493007
 31
0
  0
LINE
  8
1
 62
2
 10
1542.741363466692
 20
186.7933215089765
 30
0
 11
1557.736343906882
 21
187.1813441866038
 31
0
  0
LINE
  8
1
 62
2
 10
1477.763114892541
 20
185.1118899059225
 30
0
 11
1492.758095332729
 21
185.4999125835507
 31
0
  0
LINE
  8
1
 62
2
 10
1532.874050732442
 20
181.5363129104949
 30
0
 11
1537.872377545839
 21
181.665653803037
 31
0
  0
LINE
  8
1
 62
2
 10
1497.885763038669
 20
180.6309266626963
 30
0
 11
1502.884089852065
 21
180.7602675552394
 31
0
  0
LINE
  8
1
 62
2
 10
1537.606364
 20
25
 30
0
 11
1537.606364
 21
0
 31
0
  0
LINE
  8
1
 62
2
 10
1497.606364
 20
25
 30
0
 11
1497.606364
 21
0
 31
0
  0
LINE
  8
1
 62
2
 10
1502.606364
 20
55
 30
0
 11
1502.606364
 21
25
 31
0
  0
LINE
  8
1
 62
2
 10
1532.606364
 20
55
 30
0
 11
1532.606364
 21
25
 31
0
  0
LINE
  8
1
 62
2
 10
1527.606364
 20
85
 30
0
 11
1532.606364
 21
55
 31
0
  0
LINE
  8
1
 62
2
 10
1507.606364
 20
85
 30
0
 11
1502.606364
 21
55
 31
0
  0
LINE
  8
1
 62
2
 10
1522.606364
 20
171.2672701522752
 30
0
 11
1522.606364
 21
85
 31
0
  0
LINE
  8
1
 62
2
 10
1512.606364
 20
171.0085017736333
 30
0
 11
1512.606364
 21
85
 31
0
  0
LINE
  8
1
 62
2
 10
1557.607003014339
 20
192.1796710000003
 30
0
 11
1557.736343906882
 21
187.1813441866038
 31
0
  0
LINE
  8
1
 62
2
 10
1537.613695760754
 20
191.66230742983
 30
0
 11
1557.607003014339
 21
192.1796710000003
 31
0
  0
LINE
  8
1
 62
2
 10
1537.872377545839
 20
181.665653803037
 30
0
 11
1537.613695760754
 21
191.66230742983
 31
0
  0
LINE
  8
1
 62
2
 10
1543.000045251778
 20
176.7966678821836
 30
0
 11
1542.741363466692
 21
186.7933215089765
 31
0
  0
LINE
  8
1
 62
2
 10
1533.003391624985
 20
176.5379860970993
 30
0
 11
1532.874050732442
 21
181.5363129104949
 31
0
  0
LINE
  8
1
 62
2
 10
1538.131059330924
 20
171.6690001762449
 30
0
 11
1538.001718438382
 21
176.6673269896414
 31
0
  0
LINE
  8
1
 62
2
 10
1502.884089852065
 20
180.7602675552394
 30
0
 11
1503.013430744608
 21
175.7619407418429
 31
0
  0
LINE
  8
1
 62
2
 10
1497.627081253584
 20
190.6275802894893
 30
0
 11
1497.885763038669
 21
180.6309266626963
 31
0
  0
LINE
  8
1
 62
2
 10
1477.633773999999
 20
190.1102167193189
 30
0
 11
1497.627081253584
 21
190.6275802894893
 31
0
  0
LINE
  8
1
 62
2
 10
1477.633773999999
 20
190.1102167193189
 30
0
 11
1477.763114892541
 21
185.1118899059225
 31
0
  0
LINE
  8
1
 62
2
 10
1493.016777117815
 20
175.5032589567586
 30
0
 11
1492.758095332729
 21
185.4999125835507
 31
0
  0
LINE
  8
1
 62
2
 10
1498.144444823754
 20
170.6342730359042
 30
0
 11
1498.015103931211
 21
175.6325998493007
 31
0
  0
ENDBLK
  8
0
  0
BLOCK
  8
0
  2
WANNE_ANCONA_VARIO_242
 70
0
 10
651.3288259999999
 20
-55.75790099999995
 30
0
  0
LINE
  8
MITTELLINIEN
 62
3
  6
DASHDOT
 10
1223.989954999998
 20
590
 30
0
 11
1094.321980999987
 21
590
 31
0
  0
LINE
  8
MITTELLINIEN
 62
3
  6
DASHDOT
 10
1160
 20
653.9899549999991
 30
0
 11
1160
 21
524.3219809999989
 31
0
  0
LINE
  8
1
 62
7
 10
1800
 20
660
 30
0
 11
1800
 21
625
 31
0
  0
LINE
  8
1
 62
7
 10
0
 20
660
 30
0
 11
0
 21
625
 31
0
  0
LINE
  8
1
 62
7
 10
0
 20
660
 30
0
 11
1800
 21
660
 31
0
  0
LINE
  8
1
 62
7
 10
0
 20
625
 30
0
 11
1800
 21
625
 31
0
  0
LINE
  8
1
 62
7
 10
1747.167034
 20
625
 30
0
 11
1716.041456994587
 21
269.2330269381232
 31
0
  0
LINE
  8
1
 62
7
 10
1212.218578999986
 20
209.9999999999996
 30
0
 11
1667.725339081789
 21
223.6131279725587
 31
0
  0
LINE
  8
1
 62
7
 10
1590.183579000001
 20
194.0906129999999
 30
0
 11
1275.640675
 21
185.8540170000001
 31
0
  0
LINE
  8
1
 62
7
 10
1275.640675
 20
185.8540170000001
 30
0
 11
1234.273465630646
 21
210.6591252214771
 31
0
  0
LINE
  8
1
 62
7
 10
1590.183579000001
 20
194.0906129999999
 30
0
 11
1640.706857441828
 21
222.8056623531174
 31
0
  0
LINE
  8
1
 62
7
 10
561.4701578486679
 20
226.2141395626913
 30
0
 11
1107.781421
 21
210
 31
0
  0
LINE
  8
1
 62
7
 10
1065.988787
 20
189.194743
 30
0
 11
610.2794409999999
 21
201.1279129999998
 31
0
  0
LINE
  8
1
 62
7
 10
1065.988787
 20
189.194743
 30
0
 11
1101.020142116788
 21
210.2006700700299
 31
0
  0
LINE
  8
1
 62
7
 10
610.2794409999999
 20
201.1279129999998
 30
0
 11
567.0549483231509
 21
226.0483868530378
 31
0
  0
LINE
  8
1
 62
7
 10
298.479577238013
 20
436.7078680714319
 30
0
 11
399.9033595163141
 21
368.745489533301
 31
0
  0
LINE
  8
1
 62
7
 10
1134.000000000004
 20
195
 30
0
 11
1186.000000000004
 21
195
 31
0
  0
LINE
  8
1
 62
7
 10
1186.000000000004
 20
195
 30
0
 11
1205
 21
209.9999999999996
 31
0
  0
LINE
  8
1
 62
7
 10
1115.173312169339
 20
210
 30
0
 11
1134.000000000004
 21
195
 31
0
  0
LINE
  8
1
 62
3
  6
DASHDOT
 10
1160
 20
240
 30
0
 11
1160
 21
170
 31
0
  0
LINE
  8
1
 62
7
 10
1107.781421
 20
210
 30
0
 11
1212.218578999986
 21
209.9999999999996
 31
0
  0
ARC
  8
1
 62
7
 10
900
 20
479.449758999993
 30
0
 40
198.450241000006
 50
65.47787500000085
 51
114.5221249999992
  0
ARC
  8
1
 62
7
 10
900
 20
1051.875000000005
 30
0
 40
451.8750000000043
 50
250.8520898295499
 51
289.1479099999999
  0
ARC
  8
1
 62
7
 10
258.0000006947707
 20
104.4285661121376
 30
0
 40
299.9999986915105
 50
29.39008322798851
 51
61.77006201643985
  0
ARC
  8
1
 62
7
 10
50.00000087025262
 20
528.4285657182411
 30
0
 40
129.9999988838593
 50
22.64195802854847
 51
47.97537607300687
  0
ARC
  8
1
 62
7
 10
522.00000001554
 20
768.4285650219499
 30
0
 40
400.0000000268869
 50
208.3518190581916
 51
236.027075999911
  0
ARC
  8
1
 62
7
 10
562.9545669999891
 20
276.1920999999829
 30
0
 40
49.99999999998209
 50
209.3900829999892
 51
268.3000000000125
  0
CIRCLE
  8
WANNE
 62
7
 10
1159.999999999994
 20
590
 30
0
 40
26
  0
ARC
  8
1
 62
7
 10
1666.231722090067
 20
273.5908140762795
 30
0
 40
50.0000000000001
 50
271.7118136524861
 51
354.9999999991103
  0
INSERT
  8
0
  2
WANNENF_SSE
 10
595
 20
0
 30
0
  0
ENDBLK
  8
0
  0
ENDSEC
  0
SECTION
  2
ENTITIES
  0
TEXT
  8
1
 62
2
 10
600
 20
285
 30
0
 40
35
  1
ANCONA Vario 242
 41
0.5993999999999999
  0
TEXT
  8
1
 62
3
 10
1118.042
 20
110
 30
0
 40
35
  1
Ö 52
 41
0.5993999999999999
 72
1
 73
3
 11
1160
 21
145
 31
0
  0
TEXT
  8
1
 62
3
 10
1026.084
 20
505
 30
0
 40
35
  1
Ö 52
 41
0.5993999999999999
 72
2
 73
3
 11
1110
 21
540
 31
0
  0
INSERT
  8
0
  2
DLX
 10
600
 20
360
 30
0
  0
INSERT
  8
0
  2
WANNE_ANCONA_VARIO_242
 10
651.3288259999999
 20
-55.75790099999995
 30
0
  0
ENDSEC
  0
EOF
