  0
SECTION
  2
HEADER
  9
$ACADVER
  1
AC1009
  9
$INSBASE
 10
0
 20
0
  9
$EXTMIN
 10
0
 20
0
  9
$EXTMAX
 10
1800
 20
800
  9
$LIMMIN
 10
0
 20
0
  9
$LIMMAX
 10
1800
 20
800
  9
$VIEWCTR
 10
10
 20
10
  9
$VIEWSIZE
 40
10
  9
$SNAPMODE
 70
0
  9
$SNAPUNIT
 10
1
 20
1
  9
$SNAPBASE
 10
0
 20
0
  9
$SNAPANG
 50
0
  9
$SNAPSTYLE
 70
0
  9
$SNAPISOPAIR
 70
0
  9
$GRIDMODE
 70
0
  9
$GRIDUNIT
 10
0
 20
0
  9
$ORTHOMODE
 70
0
  9
$REGENMODE
 70
1
  9
$FILLMODE
 70
1
  9
$QTEXTMODE
 70
0
  9
$DRAGMODE
 70
2
  9
$LTSCALE
 40
1
  9
$OSMODE
 70
0
  9
$ATTMODE
 70
1
  9
$TEXTSIZE
 40
3.5
  9
$TRACEWID
 40
0.5
  9
$TEXTSTYLE
  7
STANDARD
  9
$CLAYER
  8
0
  9
$CELTYPE
  6
BYLAYER
  9
$CECOLOR
 62
256
  9
$DIMSCALE
 40
1
  9
$DIMASZ
 40
0.18
  9
$DIMEXO
 40
0.0625
  9
$DIMDLI
 40
0.38
  9
$DIMRND
 40
0
  9
$DIMDLE
 40
0
  9
$DIMEXE
 40
0.18
  9
$DIMTP
 40
0
  9
$DIMTM
 40
0
  9
$DIMTXT
 40
0.18
  9
$DIMCEN
 40
0.09
  9
$DIMTSZ
 40
0
  9
$DIMTOL
 70
0
  9
$DIMLIM
 70
0
  9
$DIMTIH
 70
1
  9
$DIMTOH
 70
1
  9
$DIMSE1
 70
0
  9
$DIMSE2
 70
0
  9
$DIMTAD
 70
0
  9
$DIMZIN
 70
0
  9
$DIMBLK
  1

  9
$DIMASO
 70
1
  9
$DIMSHO
 70
1
  9
$DIMPOST
  1

  9
$DIMAPOST
  1

  9
$DIMALT
 70
0
  9
$DIMALTD
 70
2
  9
$DIMALTF
 40
25.4
  9
$DIMLFAC
 40
1
  9
$DIMTOFL
 70
0
  9
$DIMTVP
 40
0
  9
$DIMTIX
 70
0
  9
$DIMSOXD
 70
0
  9
$DIMSAH
 70
0
  9
$DIMBLK1
  1

  9
$DIMBLK2
  1

  9
$DIMSTYLE
  2
*UNNAMED
  9
$DIMCLRD
 70
0
  9
$DIMCLRE
 70
0
  9
$DIMCLRT
 70
0
  9
$DIMTFAC
 40
1
  9
$DIMGAP
 40
0.09
  9
$LUNITS
 70
2
  9
$LUPREC
 70
4
  9
$AXISMODE
 70
0
  9
$AXISUNIT
 10
0
 20
0
  9
$SKETCHINC
 40
0.1
  9
$FILLETRAD
 40
2
  9
$AUNITS
 70
0
  9
$AUPREC
 70
0
  9
$MENU
  1
ACAD
  9
$ELEVATION
 40
0
  9
$THICKNESS
 40
0
  9
$VIEWDIR
 10
0
 20
0
 30
1
  9
$LIMCHECK
 70
0
  9
$BLIPMODE
 70
1
  9
$CHAMFERA
 40
0
  9
$CHAMFERB
 40
0
  9
$FASTZOOM
 70
1
  9
$SKPOLY
 70
0
  9
$ANGBASE
 50
0
  9
$ANGDIR
 70
0
  9
$PDMODE
 70
0
  9
$PDSIZE
 40
0
  9
$PLINEWID
 40
0
  9
$COORDS
 70
2
  0
ENDSEC
  0
SECTION
  2
TABLES
  0
TABLE
  2
DIMSTYLE
 70
0
  0
ENDTAB
  0
TABLE
  2
LTYPE
 70
9
  0
LTYPE
  2
CONTINUOUS
 70
64
  3
Solid line
 72
65
 73
0
 40
0
  0
LTYPE
  2
BORDER
 70
64
  3
__ __ . __ __ .
 72
65
 73
6
 40
82.89473684210527
 49
23.68421052631579
 49
-11.8421052631579
 49
23.68421052631579
 49
-11.8421052631579
 49
0
 49
-11.8421052631579
  0
LTYPE
  2
CENTER
 70
64
  3
____ _ ____ _
 72
65
 73
4
 40
94.73684210526317
 49
59.21052631578948
 49
-11.8421052631579
 49
11.8421052631579
 49
-11.8421052631579
  0
LTYPE
  2
DASHDOT
 70
64
  3
__ . __ . __ .
 72
65
 73
4
 40
47.36842105263158
 49
23.68421052631579
 49
-11.8421052631579
 49
0
 49
-11.8421052631579
  0
LTYPE
  2
DASHED
 70
64
  3
__ __ __ __ __
 72
65
 73
2
 40
35.52631578947369
 49
23.68421052631579
 49
-11.8421052631579
  0
LTYPE
  2
DIVIDE
 70
64
  3
__ . . __ . . 
 72
65
 73
6
 40
59.21052631578948
 49
23.68421052631579
 49
-11.8421052631579
 49
0
 49
-11.8421052631579
 49
0
 49
-11.8421052631579
  0
LTYPE
  2
DOT
 70
64
  3
..............
 72
65
 73
4
 40
23.68421052631579
 49
0
 49
-11.8421052631579
 49
0
 49
-11.8421052631579
  0
LTYPE
  2
HIDDEN
 70
64
  3
_ _ _ _ _ _ _
 72
65
 73
2
 40
17.76315789473684
 49
11.8421052631579
 49
-5.921052631578948
  0
LTYPE
  2
PHANTOM
 70
64
  3
_____ _ _ _____ _ _ 
 72
65
 73
6
 40
118.421052631579
 49
59.21052631578948
 49
-11.8421052631579
 49
11.8421052631579
 49
-11.8421052631579
 49
11.8421052631579
 49
-11.8421052631579
  0
ENDTAB
  0
TABLE
  2
LAYER
 70
7
  0
LAYER
  2
MITTELLINIEN
 70
0
 62
7
  6
CONTINUOUS
  0
LAYER
  2
BODENB
 70
0
 62
7
  6
CONTINUOUS
  0
LAYER
  2
0
 70
0
 62
7
  6
CONTINUOUS
  0
LAYER
  2
1
 70
0
 62
7
  6
CONTINUOUS
  0
LAYER
  2
GEOMETRIE
 70
0
 62
7
  6
CONTINUOUS
  0
LAYER
  2
WANNE
 70
0
 62
7
  6
CONTINUOUS
  0
ENDTAB
  0
TABLE
  2
STYLE
 70
4
  0
STYLE
  2
STANDARD
 70
0
 40
0
 41
1
 50
0
 71
0
 42
3.5
  3
txt
  4

  0
STYLE
  2
SIMPLEX
 70
0
 40
0
 41
1
 50
0
 71
0
 42
3.5
  3
simplex
  4

  0
STYLE
  2
COMPLEX
 70
0
 40
0
 41
1
 50
0
 71
0
 42
3.5
  3
complex
  4

  0
STYLE
  2
ITALIC
 70
0
 40
0
 41
1
 50
0
 71
0
 42
3.5
  3
italic
  4

  0
ENDTAB
  0
TABLE
  2
VIEW
 70
0
  0
ENDTAB
  0
ENDSEC
  0
SECTION
  2
BLOCKS
  0
BLOCK
  8
0
  2
DLX
 70
0
 10
0
 20
0
 30
0
  0
LINE
  8
1
 62
3
 10
671.206636135699
 20
503.5059925312781
 30
0
 11
671.206636135699
 21
501.050334541276
 31
0
  0
LINE
  8
1
 62
3
 10
673.062609127785
 20
503.5059925312781
 30
0
 11
671.206636135699
 21
503.5059925312781
 31
0
  0
LINE
  8
1
 62
3
 10
671.206636135699
 20
501.050334541276
 30
0
 11
673.194119363641
 21
501.050334541276
 31
0
  0
LINE
  8
1
 62
3
 10
671.206636135699
 20
497.4510557882821
 30
0
 11
670.3341884365839
 21
497.4510557882821
 31
0
  0
LINE
  8
1
 62
3
 10
672.931697837317
 20
500.2001112138419
 30
0
 11
671.206636135699
 21
500.2001112138419
 31
0
  0
LINE
  8
1
 62
3
 10
673.9449125772369
 20
497.4510557882821
 30
0
 11
673.9449125772369
 21
499.0729110559001
 31
0
  0
LINE
  8
1
 62
3
 10
674.9060993927419
 20
497.4510557882821
 30
0
 11
673.9449125772369
 21
497.4510557882821
 31
0
  0
LINE
  8
1
 62
3
 10
674.9060993927419
 20
499.3306895546259
 30
0
 11
674.9060993927419
 21
497.4510557882821
 31
0
  0
LINE
  8
1
 62
3
 10
672.7761082958239
 20
504.3095239634561
 30
0
 11
673.0724648781759
 21
504.3095239634561
 31
0
  0
LINE
  8
1
 62
3
 10
670.3341884365839
 20
504.3095239634561
 30
0
 11
672.7761082958239
 21
504.3095239634561
 31
0
  0
LINE
  8
1
 62
3
 10
670.3341884365839
 20
497.4510557882821
 30
0
 11
670.3341884365839
 21
504.3095239634561
 31
0
  0
LINE
  8
1
 62
3
 10
671.206636135699
 20
500.2001112138419
 30
0
 11
671.206636135699
 21
497.4510557882821
 31
0
  0
LINE
  8
1
 62
3
 10
626.68540084903
 20
506.38450847832
 30
0
 11
624.591323771416
 21
506.38450847832
 31
0
  0
LINE
  8
1
 62
3
 10
623.9754657010669
 20
495.3239024177931
 30
0
 11
626.68540084903
 21
506.38450847832
 31
0
  0
LINE
  8
1
 62
3
 10
634.445851089087
 20
495.3239024177931
 30
0
 11
623.9754657010669
 21
495.3239024177931
 31
0
  0
LINE
  8
1
 62
3
 10
633.9038640594258
 20
493.1117812056621
 30
0
 11
634.445851089087
 21
495.3239024177931
 31
0
  0
LINE
  8
1
 62
3
 10
621.339401593847
 20
493.1117812056621
 30
0
 11
633.9038640594258
 21
493.1117812056621
 31
0
  0
LINE
  8
1
 62
3
 10
624.591323771416
 20
506.38450847832
 30
0
 11
621.339401593847
 21
493.1117812056621
 31
0
  0
LINE
  8
1
 62
3
 10
611.144653716558
 20
497.5360236298441
 30
0
 11
614.9003688559239
 21
504.172387266269
 31
0
  0
LINE
  8
1
 62
3
 10
615.9571720012139
 20
504.172387266269
 30
0
 11
614.9003688559239
 21
504.172387266269
 31
0
  0
LINE
  8
1
 62
3
 10
616.4609649630688
 20
497.5360236298441
 30
0
 11
615.9571720012139
 21
504.172387266269
 31
0
  0
LINE
  8
1
 62
3
 10
611.144653716558
 20
497.5360236298441
 30
0
 11
616.4609649630688
 21
497.5360236298441
 31
0
  0
LINE
  8
1
 62
3
 10
608.6408436236638
 20
493.1117812056621
 30
0
 11
606.2620466350929
 21
493.1117812056621
 31
0
  0
LINE
  8
1
 62
3
 10
609.892748670027
 20
495.3239024177931
 30
0
 11
608.6408436236638
 21
493.1117812056621
 31
0
  0
LINE
  8
1
 62
3
 10
616.6288959503909
 20
495.3239024177931
 30
0
 11
609.892748670027
 21
495.3239024177931
 31
0
  0
LINE
  8
1
 62
3
 10
616.7968269376579
 20
493.1117812056621
 30
0
 11
616.6288959503909
 21
495.3239024177931
 31
0
  0
LINE
  8
1
 62
3
 10
618.826509100727
 20
493.1117812056621
 30
0
 11
616.7968269376579
 21
493.1117812056621
 31
0
  0
LINE
  8
1
 62
3
 10
617.818923176965
 20
506.38450847832
 30
0
 11
618.826509100727
 21
493.1117812056621
 31
0
  0
LINE
  8
1
 62
3
 10
613.77347691399
 20
506.38450847832
 30
0
 11
617.818923176965
 21
506.38450847832
 31
0
  0
LINE
  8
1
 62
3
 10
606.2620466350929
 20
493.1117812056621
 30
0
 11
613.77347691399
 21
506.38450847832
 31
0
  0
LINE
  8
1
 62
3
 10
593.278768754059
 20
493.1117812056621
 30
0
 11
591.1846916764989
 21
493.1117812056621
 31
0
  0
LINE
  8
1
 62
3
 10
596.0847710509879
 20
504.5644855385979
 30
0
 11
593.278768754059
 21
493.1117812056621
 31
0
  0
LINE
  8
1
 62
3
 10
596.7253193174979
 20
502.9053946295351
 30
0
 11
596.0847710509879
 21
504.5644855385979
 31
0
  0
LINE
  8
1
 62
3
 10
600.5064756532079
 20
493.1117812056621
 30
0
 11
596.7253193174979
 21
502.9053946295351
 31
0
  0
LINE
  8
1
 62
3
 10
603.749154141977
 20
493.1117812056621
 30
0
 11
600.5064756532079
 21
493.1117812056621
 31
0
  0
LINE
  8
1
 62
3
 10
607.0010763195969
 20
506.38450847832
 30
0
 11
603.749154141977
 21
493.1117812056621
 31
0
  0
LINE
  8
1
 62
3
 10
604.9069992419829
 20
506.38450847832
 30
0
 11
607.0010763195969
 21
506.38450847832
 31
0
  0
LINE
  8
1
 62
3
 10
602.0615673366299
 20
494.770872114746
 30
0
 11
604.9069992419829
 21
506.38450847832
 31
0
  0
LINE
  8
1
 62
3
 10
597.5777294703548
 20
506.38450847832
 30
0
 11
602.0615673366299
 21
494.770872114746
 31
0
  0
LINE
  8
1
 62
3
 10
594.436613854014
 20
506.38450847832
 30
0
 11
597.5777294703548
 21
506.38450847832
 31
0
  0
LINE
  8
1
 62
3
 10
591.1846916764989
 20
493.1117812056621
 30
0
 11
594.436613854014
 21
506.38450847832
 31
0
  0
LINE
  8
1
 62
3
 10
591.9237213608981
 20
506.38450847832
 30
0
 11
589.8296442833339
 21
506.38450847832
 31
0
  0
LINE
  8
1
 62
3
 10
589.8296442833339
 20
506.38450847832
 30
0
 11
586.5777221057688
 21
493.1117812056621
 31
0
  0
LINE
  8
1
 62
3
 10
588.6717991833289
 20
493.1117812056621
 30
0
 11
591.9237213608981
 21
506.38450847832
 31
0
  0
LINE
  8
1
 62
3
 10
586.5777221057688
 20
493.1117812056621
 30
0
 11
588.6717991833289
 21
493.1117812056621
 31
0
  0
LINE
  8
1
 62
3
 10
584.0845019505218
 20
501.739053932891
 30
0
 11
586.1785790280478
 21
501.739053932891
 31
0
  0
LINE
  8
1
 62
3
 10
583.0547265943719
 20
497.5360236298441
 30
0
 11
582.512739564605
 21
495.3239024177931
 31
0
  0
LINE
  8
1
 62
3
 10
578.8665724389718
 20
497.5360236298441
 30
0
 11
583.0547265943719
 21
497.5360236298441
 31
0
  0
LINE
  8
1
 62
3
 10
579.4085594686189
 20
499.7481448420331
 30
0
 11
578.8665724389718
 21
497.5360236298441
 31
0
  0
LINE
  8
1
 62
3
 10
585.6907907014249
 20
499.7481448420331
 30
0
 11
584.0648296126528
 21
493.1117812056621
 31
0
  0
LINE
  8
1
 62
3
 10
585.6907907014249
 20
499.7481448420331
 30
0
 11
579.4085594686189
 21
499.7481448420331
 31
0
  0
LINE
  8
1
 62
3
 10
574.1364312542755
 20
495.3239024177931
 30
0
 11
576.3043793726031
 21
504.172387266269
 31
0
  0
LINE
  8
1
 62
3
 10
576.3043793726031
 20
504.172387266269
 30
0
 11
584.6806876828998
 21
504.172387266269
 31
0
  0
LINE
  8
1
 62
3
 10
584.6806876828998
 20
504.172387266269
 30
0
 11
584.0845019505218
 21
501.739053932891
 31
0
  0
LINE
  8
1
 62
3
 10
582.512739564605
 20
495.3239024177931
 30
0
 11
574.1364312542755
 21
495.3239024177931
 31
0
  0
LINE
  8
1
 62
3
 10
584.0648296126528
 20
493.1117812056621
 30
0
 11
571.5003671470404
 21
493.1117812056621
 31
0
  0
LINE
  8
1
 62
3
 10
587.316751790175
 20
506.38450847832
 30
0
 11
586.1785790280478
 21
501.739053932891
 31
0
  0
LINE
  8
1
 62
3
 10
574.7522893245841
 20
506.38450847832
 30
0
 11
587.316751790175
 21
506.38450847832
 31
0
  0
LINE
  8
1
 62
3
 10
571.5003671470404
 20
493.1117812056621
 30
0
 11
574.7522893245841
 21
506.38450847832
 31
0
  0
LINE
  8
1
 62
3
 10
568.9874746540554
 20
493.1117812056621
 30
0
 11
572.2393968314646
 21
506.38450847832
 31
0
  0
LINE
  8
1
 62
3
 10
566.8933975763357
 20
493.1117812056621
 30
0
 11
568.9874746540554
 21
493.1117812056621
 31
0
  0
LINE
  8
1
 62
3
 10
570.1453197539013
 20
506.38450847832
 30
0
 11
566.8933975763357
 21
493.1117812056621
 31
0
  0
LINE
  8
1
 62
3
 10
572.2393968314646
 20
506.38450847832
 30
0
 11
570.1453197539013
 21
506.38450847832
 31
0
  0
LINE
  8
1
 62
3
 10
553.9101196952979
 20
493.1117812056621
 30
0
 11
554.9940937544088
 21
497.5360236298441
 31
0
  0
LINE
  8
1
 62
3
 10
551.8160426176219
 20
493.1117812056621
 30
0
 11
553.9101196952979
 21
493.1117812056621
 31
0
  0
LINE
  8
1
 62
3
 10
565.3282234693179
 20
496.979895810782
 30
0
 11
564.3805050832052
 21
493.1117812056621
 31
0
  0
LINE
  8
1
 62
3
 10
556.6200548431843
 20
504.172387266269
 30
0
 11
555.5360807840007
 21
499.7481448420331
 31
0
  0
LINE
  8
1
 62
3
 10
564.996363153703
 20
504.172387266269
 30
0
 11
556.6200548431843
 21
504.172387266269
 31
0
  0
LINE
  8
1
 62
3
 10
563.9123890943811
 20
499.7481448420331
 30
0
 11
564.996363153703
 21
504.172387266269
 31
0
  0
LINE
  8
1
 62
3
 10
555.5360807840007
 20
499.7481448420331
 30
0
 11
563.9123890943811
 21
499.7481448420331
 31
0
  0
LINE
  8
1
 62
3
 10
563.3704020649384
 20
497.5360236298441
 30
0
 11
554.9940937544088
 21
497.5360236298441
 31
0
  0
LINE
  8
1
 62
3
 10
562.2864280055655
 20
493.1117812056621
 30
0
 11
563.3704020649384
 21
497.5360236298441
 31
0
  0
LINE
  8
1
 62
3
 10
564.3805050832052
 20
493.1117812056621
 30
0
 11
562.2864280055655
 21
493.1117812056621
 31
0
  0
LINE
  8
1
 62
3
 10
567.632427260738
 20
506.38450847832
 30
0
 11
565.7649031508845
 21
498.7622048583319
 31
0
  0
LINE
  8
1
 62
3
 10
555.0679647951583
 20
506.38450847832
 30
0
 11
567.632427260738
 21
506.38450847832
 31
0
  0
LINE
  8
1
 62
3
 10
555.0679647951583
 20
506.38450847832
 30
0
 11
551.8160426176219
 21
493.1117812056621
 31
0
  0
LINE
  8
1
 62
3
 10
539.3747517661323
 20
495.3239024177931
 30
0
 11
541.5426998844741
 21
504.172387266269
 31
0
  0
LINE
  8
1
 62
3
 10
541.5426998844741
 20
504.172387266269
 30
0
 11
549.9190081949637
 21
504.172387266269
 31
0
  0
LINE
  8
1
 62
3
 10
549.9190081949637
 20
504.172387266269
 30
0
 11
547.7510600764872
 21
495.3239024177931
 31
0
  0
LINE
  8
1
 62
3
 10
547.7510600764872
 20
495.3239024177931
 30
0
 11
539.3747517661323
 21
495.3239024177931
 31
0
  0
LINE
  8
1
 62
3
 10
549.3031501244914
 20
493.1117812056621
 30
0
 11
536.7386876589662
 21
493.1117812056621
 31
0
  0
LINE
  8
1
 62
3
 10
552.5550723021661
 20
506.38450847832
 30
0
 11
549.3031501244914
 21
493.1117812056621
 31
0
  0
LINE
  8
1
 62
3
 10
539.9906098364481
 20
506.38450847832
 30
0
 11
552.5550723021661
 21
506.38450847832
 31
0
  0
LINE
  8
1
 62
3
 10
536.7386876589662
 20
493.1117812056621
 30
0
 11
539.9906098364481
 21
506.38450847832
 31
0
  0
LINE
  8
1
 62
3
 10
680.3295031522068
 20
450
 30
0
 11
627.738701733397
 21
450
 31
0
  0
LINE
  8
1
 62
3
 10
677.928830785688
 20
456.1939393939099
 30
0
 11
635.1196812335149
 21
456.1939393939099
 31
0
  0
LINE
  8
1
 62
3
 10
677.928830785688
 20
456.1939393939099
 30
0
 11
680.3295031522068
 21
450
 31
0
  0
LINE
  8
1
 62
3
 10
670.686830708906
 20
474.878917066824
 30
0
 11
667.9069775849489
 21
482.051175145079
 31
0
  0
LINE
  8
1
 62
3
 10
676.284056889192
 20
482.051175145079
 30
0
 11
670.686830708906
 21
474.878917066824
 31
0
  0
LINE
  8
1
 62
3
 10
680.32950315225
 20
482.051175145079
 30
0
 11
676.284056889192
 21
482.051175145079
 31
0
  0
LINE
  8
1
 62
3
 10
672.0292731071679
 20
471.415301218603
 30
0
 11
680.32950315225
 21
482.051175145079
 31
0
  0
LINE
  8
1
 62
3
 10
676.8999712001719
 20
458.8484848484771
 30
0
 11
672.0292731071679
 21
471.415301218603
 31
0
  0
LINE
  8
1
 62
3
 10
672.8545249371239
 20
458.8484848484771
 30
0
 11
676.8999712001719
 21
458.8484848484771
 31
0
  0
LINE
  8
1
 62
3
 10
669.3262692424398
 20
467.951685370502
 30
0
 11
672.8545249371239
 21
458.8484848484771
 31
0
  0
LINE
  8
1
 62
3
 10
662.222136662338
 20
458.8484848484771
 30
0
 11
669.3262692424398
 21
467.951685370502
 31
0
  0
LINE
  8
1
 62
3
 10
658.1766903993409
 20
458.8484848484771
 30
0
 11
662.222136662338
 21
458.8484848484771
 31
0
  0
LINE
  8
1
 62
3
 10
667.9838268441308
 20
471.415301218661
 30
0
 11
658.1766903993409
 21
458.8484848484771
 31
0
  0
LINE
  8
1
 62
3
 10
663.8615313219339
 20
482.051175145079
 30
0
 11
667.9838268441308
 21
471.415301218661
 31
0
  0
LINE
  8
1
 62
3
 10
667.9069775849489
 20
482.051175145079
 30
0
 11
663.8615313219339
 21
482.051175145079
 31
0
  0
LINE
  8
1
 62
3
 10
650.878253440889
 20
482.051175145079
 30
0
 11
645.643060746967
 21
482.051175145079
 31
0
  0
LINE
  8
1
 62
3
 10
646.277386577538
 20
463.2727272727971
 30
0
 11
650.878253440889
 21
482.051175145079
 31
0
  0
LINE
  8
1
 62
3
 10
651.5125792714898
 20
463.2727272727971
 30
0
 11
646.277386577538
 21
463.2727272727971
 31
0
  0
LINE
  8
1
 62
3
 10
656.113446134885
 20
482.051175145079
 30
0
 11
651.5125792714898
 21
463.2727272727971
 31
0
  0
LINE
  8
1
 62
3
 10
661.3486388288079
 20
482.051175145079
 30
0
 11
656.113446134885
 21
482.051175145079
 31
0
  0
LINE
  8
1
 62
3
 10
655.6637979062
 20
458.8484848484771
 30
0
 11
661.3486388288079
 21
482.051175145079
 31
0
  0
LINE
  8
1
 62
3
 10
639.958219824279
 20
458.8484848484771
 30
0
 11
655.6637979062
 21
458.8484848484771
 31
0
  0
LINE
  8
1
 62
3
 10
645.643060746967
 20
482.051175145079
 30
0
 11
639.958219824279
 21
458.8484848484771
 31
0
  0
LINE
  8
1
 62
3
 10
638.301425922338
 20
493.1117812056621
 30
0
 11
627.738701733397
 21
450
 31
0
  0
LINE
  8
1
 62
3
 10
644.1648417396059
 20
493.1117812056621
 30
0
 11
638.301425922338
 21
493.1117812056621
 31
0
  0
LINE
  8
1
 62
3
 10
635.1196812335149
 20
456.1939393939099
 30
0
 11
644.1648417396059
 21
493.1117812056621
 31
0
  0
LINE
  8
1
 62
3
 10
500
 20
450
 30
0
 11
507.8527890410551
 21
482.051175145079
 31
0
  0
LINE
  8
1
 62
3
 10
507.8527890410551
 20
482.051175145079
 30
0
 11
514.1350202737522
 21
482.051175145079
 31
0
  0
LINE
  8
1
 62
3
 10
514.1350202737522
 20
482.051175145079
 30
0
 11
507.3662052920627
 21
454.424242424182
 31
0
  0
LINE
  8
1
 62
3
 10
507.3662052920627
 20
454.424242424182
 30
0
 11
512.6013979859417
 21
454.424242424182
 31
0
  0
LINE
  8
1
 62
3
 10
512.6013979859417
 20
454.424242424182
 30
0
 11
520.7251805418237
 21
487.581478175405
 31
0
  0
LINE
  8
1
 62
3
 10
520.7251805418237
 20
487.581478175405
 30
0
 11
503.0340846972904
 21
487.581478175405
 31
0
  0
LINE
  8
1
 62
3
 10
503.0340846972904
 20
487.581478175405
 30
0
 11
504.3890522712754
 21
493.1117812056621
 31
0
  0
LINE
  8
1
 62
3
 10
504.3890522712754
 20
493.1117812056621
 30
0
 11
528.3623793485676
 21
493.1117812056621
 31
0
  0
LINE
  8
1
 62
3
 10
528.3623793485676
 20
493.1117812056621
 30
0
 11
517.799655159648
 21
450
 31
0
  0
LINE
  8
1
 62
3
 10
517.799655159648
 20
450
 30
0
 11
500
 21
450
 31
0
  0
LINE
  8
1
 62
3
 10
521.9878093147745
 20
450
 30
0
 11
529.8405983557677
 21
482.051175145079
 31
0
  0
LINE
  8
1
 62
3
 10
529.8405983557677
 20
482.051175145079
 30
0
 11
536.1228295885776
 21
482.051175145079
 31
0
  0
LINE
  8
1
 62
3
 10
536.1228295885776
 20
482.051175145079
 30
0
 11
529.3540146067826
 21
454.424242424182
 31
0
  0
LINE
  8
1
 62
3
 10
529.3540146067826
 20
454.424242424182
 30
0
 11
534.5892073007672
 21
454.424242424182
 31
0
  0
LINE
  8
1
 62
3
 10
534.5892073007672
 20
454.424242424182
 30
0
 11
541.3580222825731
 21
482.051175145079
 31
0
  0
LINE
  8
1
 62
3
 10
539.7874644743642
 20
450
 30
0
 11
521.9878093147745
 21
450
 31
0
  0
LINE
  8
1
 62
3
 10
541.3580222825731
 20
482.051175145079
 30
0
 11
547.6402535153793
 21
482.051175145079
 31
0
  0
LINE
  8
1
 62
3
 10
547.6402535153793
 20
482.051175145079
 30
0
 11
539.7874644743642
 21
450
 31
0
  0
LINE
  8
1
 62
3
 10
568.581024291314
 20
482.051175145079
 30
0
 11
551.8284076705422
 21
482.051175145079
 31
0
  0
LINE
  8
1
 62
3
 10
551.8284076705422
 20
482.051175145079
 30
0
 11
547.2275408071509
 21
463.2727272727971
 31
0
  0
LINE
  8
1
 62
3
 10
547.2275408071509
 20
463.2727272727971
 30
0
 11
557.6979261951165
 21
463.2727272727971
 31
0
  0
LINE
  8
1
 62
3
 10
557.6979261951165
 20
463.2727272727971
 30
0
 11
555.5299780766982
 21
454.424242424182
 31
0
  0
LINE
  8
1
 62
3
 10
555.5299780766982
 20
454.424242424182
 30
0
 11
545.0595926887872
 21
454.424242424182
 31
0
  0
LINE
  8
1
 62
3
 10
545.0595926887872
 20
454.424242424182
 30
0
 11
543.9756186294799
 21
450
 31
0
  0
LINE
  8
1
 62
3
 10
543.9756186294799
 20
450
 30
0
 11
560.7282352503025
 21
450
 31
0
  0
LINE
  8
1
 62
3
 10
560.7282352503025
 20
450
 30
0
 11
565.0641314872264
 21
467.696969696953
 31
0
  0
LINE
  8
1
 62
3
 10
565.0641314872264
 20
467.696969696953
 30
0
 11
554.5937460991627
 21
467.696969696953
 31
0
  0
LINE
  8
1
 62
3
 10
554.5937460991627
 20
467.696969696953
 30
0
 11
557.0266648441757
 21
477.6269327208391
 31
0
  0
LINE
  8
1
 62
3
 10
557.0266648441757
 20
477.6269327208391
 30
0
 11
567.4970502321557
 21
477.6269327208391
 31
0
  0
LINE
  8
1
 62
3
 10
567.4970502321557
 20
477.6269327208391
 30
0
 11
568.581024291314
 21
482.051175145079
 31
0
  0
LINE
  8
1
 62
3
 10
586.8118599193219
 20
470.990569084413
 30
0
 11
589.5217950672518
 21
482.051175145079
 31
0
  0
LINE
  8
1
 62
3
 10
589.5217950672518
 20
482.051175145079
 30
0
 11
572.7691784465314
 21
482.051175145079
 31
0
  0
LINE
  8
1
 62
3
 10
572.7691784465314
 20
482.051175145079
 30
0
 11
564.9163894055382
 21
450
 31
0
  0
LINE
  8
1
 62
3
 10
564.9163894055382
 20
450
 30
0
 11
581.669006026292
 21
450
 31
0
  0
LINE
  8
1
 62
3
 10
581.669006026292
 20
450
 30
0
 11
584.378941174266
 21
461.0606060606081
 31
0
  0
LINE
  8
1
 62
3
 10
584.378941174266
 20
461.0606060606081
 30
0
 11
578.0967099414779
 21
461.0606060606081
 31
0
  0
LINE
  8
1
 62
3
 10
578.0967099414779
 20
461.0606060606081
 30
0
 11
576.470748852691
 21
454.424242424182
 31
0
  0
LINE
  8
1
 62
3
 10
576.470748852691
 20
454.424242424182
 30
0
 11
572.2825946974881
 21
454.424242424182
 31
0
  0
LINE
  8
1
 62
3
 10
572.2825946974881
 20
454.424242424182
 30
0
 11
577.9674356201178
 21
477.6269327208391
 31
0
  0
LINE
  8
1
 62
3
 10
577.9674356201178
 20
477.6269327208391
 30
0
 11
582.1555897753099
 21
477.6269327208391
 31
0
  0
LINE
  8
1
 62
3
 10
582.1555897753099
 20
477.6269327208391
 30
0
 11
580.5296286865159
 21
470.990569084413
 31
0
  0
LINE
  8
1
 62
3
 10
580.5296286865159
 20
470.990569084413
 30
0
 11
586.8118599193219
 21
470.990569084413
 31
0
  0
LINE
  8
1
 62
3
 10
585.8571601814729
 20
450
 30
0
 11
592.1393914142609
 21
450
 31
0
  0
LINE
  8
1
 62
3
 10
602.609776802336
 20
450
 30
0
 11
610.4625658433508
 21
482.051175145079
 31
0
  0
LINE
  8
1
 62
3
 10
596.3275455694388
 20
450
 30
0
 11
599.7119530603338
 21
463.813466360341
 31
0
  0
LINE
  8
1
 62
3
 10
592.1393914142609
 20
450
 30
0
 11
595.5237989051459
 21
463.813466360341
 31
0
  0
LINE
  8
1
 62
3
 10
593.7099492224659
 20
482.051175145079
 30
0
 11
585.8571601814729
 21
450
 31
0
  0
LINE
  8
1
 62
3
 10
610.4625658433508
 20
482.051175145079
 30
0
 11
604.1803346104348
 21
482.051175145079
 31
0
  0
LINE
  8
1
 62
3
 10
606.7979309574619
 20
450
 30
0
 11
623.55054757827
 21
450
 31
0
  0
LINE
  8
1
 62
3
 10
618.3522904045678
 20
454.424242424182
 30
0
 11
614.164136249467
 21
454.424242424182
 31
0
  0
LINE
  8
1
 62
3
 10
614.650719998459
 20
482.051175145079
 30
0
 11
606.7979309574619
 21
450
 31
0
  0
LINE
  8
1
 62
3
 10
614.164136249467
 20
454.424242424182
 30
0
 11
619.8489771720419
 21
477.6269327208391
 31
0
  0
LINE
  8
1
 62
3
 10
631.4033366192889
 20
482.051175145079
 30
0
 11
614.650719998459
 21
482.051175145079
 31
0
  0
LINE
  8
1
 62
3
 10
619.8489771720419
 20
477.6269327208391
 30
0
 11
624.037131327292
 21
477.6269327208391
 31
0
  0
LINE
  8
1
 62
3
 10
624.037131327292
 20
477.6269327208391
 30
0
 11
618.3522904045678
 21
454.424242424182
 31
0
  0
LINE
  8
1
 62
3
 10
631.4033366192889
 20
482.051175145079
 30
0
 11
623.55054757827
 21
450
 31
0
  0
LINE
  8
1
 62
3
 10
599.992180455331
 20
482.051175145079
 30
0
 11
593.7099492224659
 21
482.051175145079
 31
0
  0
LINE
  8
1
 62
3
 10
596.3275455694388
 20
450
 30
0
 11
602.609776802336
 21
450
 31
0
  0
LINE
  8
1
 62
3
 10
595.5237989051459
 20
463.813466360341
 30
0
 11
599.7119530603338
 21
463.813466360341
 31
0
  0
LINE
  8
1
 62
3
 10
596.6077729643148
 20
468.2377087845271
 30
0
 11
600.7959271195539
 21
468.2377087845271
 31
0
  0
LINE
  8
1
 62
3
 10
596.6077729643148
 20
468.2377087845271
 30
0
 11
599.992180455331
 21
482.051175145079
 31
0
  0
LINE
  8
1
 62
3
 10
600.7959271195539
 20
468.2377087845271
 30
0
 11
604.1803346104348
 21
482.051175145079
 31
0
  0
LINE
  8
1
 62
3
 10
565.7649031508845
 20
498.7622048583319
 30
0
 11
565.0328203819372
 21
497.978447872363
 31
0
  0
LINE
  8
1
 62
3
 10
565.3282234693179
 20
496.979895810782
 30
0
 11
565.0328203819372
 21
497.978447872363
 31
0
  0
ARC
  8
1
 62
3
 10
673.514586791596
 20
499.3622336822259
 30
0
 40
1.39187009132817
 50
358.7013873342734
 51
66.54486649404646
  0
ARC
  8
1
 62
3
 10
672.789193605106
 20
499.0530393898221
 30
0
 40
1.155889798231655
 50
0.9850581704851609
 51
82.91825463293205
  0
ARC
  8
1
 62
3
 10
672.8643762433019
 20
502.2640259305511
 30
0
 40
1.257687287767297
 50
285.1995809529421
 51
80.9313952387881
  0
ARC
  8
1
 62
3
 10
672.9426940693159
 20
502.3039199213811
 30
0
 40
2.00979800886174
 50
304.0700115354277
 51
86.29788871825861
  0
CIRCLE
  8
1
 62
3
 10
672.7358752379369
 20
500.8787878787551
 30
0
 40
5.530127989695927
  0
CIRCLE
  8
1
 62
3
 10
672.7358752379369
 20
500.8787878787551
 30
0
 40
5.972862778753957
  0
ENDBLK
  8
0
  0
BLOCK
  8
0
  2
WANNE_ANCONA_VARIO_242
 70
0
 10
651.3288259999999
 20
-155.757901
 30
0
  0
POLYLINE
  8
0
 62
7
 66
1
 70
1
  0
VERTEX
  8
WANNE
 10
1185.996852
 20
115.0001630000002
 30
0
  0
VERTEX
  8
WANNE
 10
1185.966852
 20
114.4601630000002
 30
0
  0
VERTEX
  8
WANNE
 10
1185.876852
 20
113.9221630000002
 30
0
  0
VERTEX
  8
WANNE
 10
1185.716852
 20
113.3861630000001
 30
0
  0
VERTEX
  8
WANNE
 10
1185.496852
 20
112.854163
 30
0
  0
VERTEX
  8
WANNE
 10
1185.216852
 20
112.3271629999999
 30
0
  0
VERTEX
  8
WANNE
 10
1184.876852
 20
111.8071630000004
 30
0
  0
VERTEX
  8
WANNE
 10
1184.476852
 20
111.294163
 30
0
  0
VERTEX
  8
WANNE
 10
1184.016852
 20
110.7901630000001
 30
0
  0
VERTEX
  8
WANNE
 10
1183.506852
 20
110.2971630000002
 30
0
  0
VERTEX
  8
WANNE
 10
1182.926852
 20
109.814163
 30
0
  0
VERTEX
  8
WANNE
 10
1182.296852
 20
109.345163
 30
0
  0
VERTEX
  8
WANNE
 10
1181.616852
 20
108.8891630000003
 30
0
  0
VERTEX
  8
WANNE
 10
1180.886852
 20
108.4471630000003
 30
0
  0
VERTEX
  8
WANNE
 10
1180.096852
 20
108.0221630000001
 30
0
  0
VERTEX
  8
WANNE
 10
1179.266852
 20
107.613163
 30
0
  0
VERTEX
  8
WANNE
 10
1178.386852
 20
107.2221630000004
 30
0
  0
VERTEX
  8
WANNE
 10
1177.456852
 20
106.8491630000003
 30
0
  0
VERTEX
  8
WANNE
 10
1176.496852
 20
106.497163
 30
0
  0
VERTEX
  8
WANNE
 10
1175.486852
 20
106.1651630000001
 30
0
  0
VERTEX
  8
WANNE
 10
1174.446852
 20
105.854163
 30
0
  0
VERTEX
  8
WANNE
 10
1173.366852
 20
105.5651630000002
 30
0
  0
VERTEX
  8
WANNE
 10
1172.256852
 20
105.2991630000001
 30
0
  0
VERTEX
  8
WANNE
 10
1171.116852
 20
105.0561630000002
 30
0
  0
VERTEX
  8
WANNE
 10
1169.946852
 20
104.8371630000002
 30
0
  0
VERTEX
  8
WANNE
 10
1168.756852
 20
104.6431630000002
 30
0
  0
VERTEX
  8
WANNE
 10
1167.546852
 20
104.4731630000001
 30
0
  0
VERTEX
  8
WANNE
 10
1166.316852
 20
104.3291630000003
 30
0
  0
VERTEX
  8
WANNE
 10
1165.076852
 20
104.2111629999999
 30
0
  0
VERTEX
  8
WANNE
 10
1163.816852
 20
104.1191630000003
 30
0
  0
VERTEX
  8
WANNE
 10
1162.546852
 20
104.053163
 30
0
  0
VERTEX
  8
WANNE
 10
1161.276852
 20
104.0131630000001
 30
0
  0
VERTEX
  8
WANNE
 10
1159.996852
 20
104.0001630000002
 30
0
  0
VERTEX
  8
WANNE
 10
1158.726852
 20
104.0131630000001
 30
0
  0
VERTEX
  8
WANNE
 10
1157.446852
 20
104.053163
 30
0
  0
VERTEX
  8
WANNE
 10
1156.186852
 20
104.1191630000003
 30
0
  0
VERTEX
  8
WANNE
 10
1154.926852
 20
104.2111629999999
 30
0
  0
VERTEX
  8
WANNE
 10
1153.686852
 20
104.3291630000003
 30
0
  0
VERTEX
  8
WANNE
 10
1152.456852
 20
104.4731630000001
 30
0
  0
VERTEX
  8
WANNE
 10
1151.236852
 20
104.6431630000002
 30
0
  0
VERTEX
  8
WANNE
 10
1150.046852
 20
104.8371630000002
 30
0
  0
VERTEX
  8
WANNE
 10
1148.886852
 20
105.0561630000002
 30
0
  0
VERTEX
  8
WANNE
 10
1147.746852
 20
105.2991630000001
 30
0
  0
VERTEX
  8
WANNE
 10
1146.636852
 20
105.5651630000002
 30
0
  0
VERTEX
  8
WANNE
 10
1145.556852
 20
105.854163
 30
0
  0
VERTEX
  8
WANNE
 10
1144.506852
 20
106.1651630000001
 30
0
  0
VERTEX
  8
WANNE
 10
1143.506852
 20
106.497163
 30
0
  0
VERTEX
  8
WANNE
 10
1142.536852
 20
106.8491630000003
 30
0
  0
VERTEX
  8
WANNE
 10
1141.616852
 20
107.2221630000004
 30
0
  0
VERTEX
  8
WANNE
 10
1140.736852
 20
107.613163
 30
0
  0
VERTEX
  8
WANNE
 10
1139.896852
 20
108.0221630000001
 30
0
  0
VERTEX
  8
WANNE
 10
1139.116852
 20
108.4471630000003
 30
0
  0
VERTEX
  8
WANNE
 10
1138.376852
 20
108.8891630000003
 30
0
  0
VERTEX
  8
WANNE
 10
1137.696852
 20
109.345163
 30
0
  0
VERTEX
  8
WANNE
 10
1137.066852
 20
109.814163
 30
0
  0
VERTEX
  8
WANNE
 10
1136.496852
 20
110.2971630000002
 30
0
  0
VERTEX
  8
WANNE
 10
1135.976852
 20
110.7901630000001
 30
0
  0
VERTEX
  8
WANNE
 10
1135.516852
 20
111.294163
 30
0
  0
VERTEX
  8
WANNE
 10
1135.116852
 20
111.8071630000004
 30
0
  0
VERTEX
  8
WANNE
 10
1134.776852
 20
112.3271629999999
 30
0
  0
VERTEX
  8
WANNE
 10
1134.496852
 20
112.854163
 30
0
  0
VERTEX
  8
WANNE
 10
1134.276852
 20
113.3861630000001
 30
0
  0
VERTEX
  8
WANNE
 10
1134.126852
 20
113.9221630000002
 30
0
  0
VERTEX
  8
WANNE
 10
1134.026852
 20
114.4601630000002
 30
0
  0
VERTEX
  8
WANNE
 10
1133.996852
 20
115.0001630000002
 30
0
  0
VERTEX
  8
WANNE
 10
1134.026852
 20
115.5401630000001
 30
0
  0
VERTEX
  8
WANNE
 10
1134.126852
 20
116.0781630000001
 30
0
  0
VERTEX
  8
WANNE
 10
1134.276852
 20
116.6141630000002
 30
0
  0
VERTEX
  8
WANNE
 10
1134.496852
 20
117.1461630000003
 30
0
  0
VERTEX
  8
WANNE
 10
1134.776852
 20
117.6731630000004
 30
0
  0
VERTEX
  8
WANNE
 10
1135.116852
 20
118.1931629999999
 30
0
  0
VERTEX
  8
WANNE
 10
1135.516852
 20
118.7061630000003
 30
0
  0
VERTEX
  8
WANNE
 10
1135.976852
 20
119.2091630000004
 30
0
  0
VERTEX
  8
WANNE
 10
1136.496852
 20
119.7031630000001
 30
0
  0
VERTEX
  8
WANNE
 10
1137.066852
 20
120.1851630000001
 30
0
  0
VERTEX
  8
WANNE
 10
1137.696852
 20
120.6551630000004
 30
0
  0
VERTEX
  8
WANNE
 10
1138.376852
 20
121.111163
 30
0
  0
VERTEX
  8
WANNE
 10
1139.116852
 20
121.553163
 30
0
  0
VERTEX
  8
WANNE
 10
1139.896852
 20
121.9781630000002
 30
0
  0
VERTEX
  8
WANNE
 10
1140.736852
 20
122.3871630000003
 30
0
  0
VERTEX
  8
WANNE
 10
1141.616852
 20
122.778163
 30
0
  0
VERTEX
  8
WANNE
 10
1142.536852
 20
123.1501630000003
 30
0
  0
VERTEX
  8
WANNE
 10
1143.506852
 20
123.5031630000003
 30
0
  0
VERTEX
  8
WANNE
 10
1144.506852
 20
123.8351630000002
 30
0
  0
VERTEX
  8
WANNE
 10
1145.556852
 20
124.1461630000003
 30
0
  0
VERTEX
  8
WANNE
 10
1146.636852
 20
124.4351630000001
 30
0
  0
VERTEX
  8
WANNE
 10
1147.746852
 20
124.7011630000002
 30
0
  0
VERTEX
  8
WANNE
 10
1148.886852
 20
124.9441630000001
 30
0
  0
VERTEX
  8
WANNE
 10
1150.046852
 20
125.1631630000002
 30
0
  0
VERTEX
  8
WANNE
 10
1151.236852
 20
125.3571630000001
 30
0
  0
VERTEX
  8
WANNE
 10
1152.456852
 20
125.526163
 30
0
  0
VERTEX
  8
WANNE
 10
1153.686852
 20
125.6701630000002
 30
0
  0
VERTEX
  8
WANNE
 10
1154.926852
 20
125.7881630000002
 30
0
  0
VERTEX
  8
WANNE
 10
1156.186852
 20
125.881163
 30
0
  0
VERTEX
  8
WANNE
 10
1157.446852
 20
125.9471630000003
 30
0
  0
VERTEX
  8
WANNE
 10
1158.726852
 20
125.9871630000002
 30
0
  0
VERTEX
  8
WANNE
 10
1159.996852
 20
126.0001630000002
 30
0
  0
VERTEX
  8
WANNE
 10
1161.276852
 20
125.9871630000002
 30
0
  0
VERTEX
  8
WANNE
 10
1162.546852
 20
125.9471630000003
 30
0
  0
VERTEX
  8
WANNE
 10
1163.816852
 20
125.881163
 30
0
  0
VERTEX
  8
WANNE
 10
1165.076852
 20
125.7881630000002
 30
0
  0
VERTEX
  8
WANNE
 10
1166.316852
 20
125.6701630000002
 30
0
  0
VERTEX
  8
WANNE
 10
1167.546852
 20
125.526163
 30
0
  0
VERTEX
  8
WANNE
 10
1168.756852
 20
125.3571630000001
 30
0
  0
VERTEX
  8
WANNE
 10
1169.946852
 20
125.1631630000002
 30
0
  0
VERTEX
  8
WANNE
 10
1171.116852
 20
124.9441630000001
 30
0
  0
VERTEX
  8
WANNE
 10
1172.256852
 20
124.7011630000002
 30
0
  0
VERTEX
  8
WANNE
 10
1173.366852
 20
124.4351630000001
 30
0
  0
VERTEX
  8
WANNE
 10
1174.446852
 20
124.1461630000003
 30
0
  0
VERTEX
  8
WANNE
 10
1175.486852
 20
123.8351630000002
 30
0
  0
VERTEX
  8
WANNE
 10
1176.496852
 20
123.5031630000003
 30
0
  0
VERTEX
  8
WANNE
 10
1177.456852
 20
123.1501630000003
 30
0
  0
VERTEX
  8
WANNE
 10
1178.386852
 20
122.778163
 30
0
  0
VERTEX
  8
WANNE
 10
1179.266852
 20
122.3871630000003
 30
0
  0
VERTEX
  8
WANNE
 10
1180.096852
 20
121.9781630000002
 30
0
  0
VERTEX
  8
WANNE
 10
1180.886852
 20
121.553163
 30
0
  0
VERTEX
  8
WANNE
 10
1181.616852
 20
121.111163
 30
0
  0
VERTEX
  8
WANNE
 10
1182.296852
 20
120.6551630000004
 30
0
  0
VERTEX
  8
WANNE
 10
1182.926852
 20
120.1851630000001
 30
0
  0
VERTEX
  8
WANNE
 10
1183.506852
 20
119.7031630000001
 30
0
  0
VERTEX
  8
WANNE
 10
1184.016852
 20
119.2091630000004
 30
0
  0
VERTEX
  8
WANNE
 10
1184.476852
 20
118.7061630000003
 30
0
  0
VERTEX
  8
WANNE
 10
1184.876852
 20
118.1931629999999
 30
0
  0
VERTEX
  8
WANNE
 10
1185.216852
 20
117.6731630000004
 30
0
  0
VERTEX
  8
WANNE
 10
1185.496852
 20
117.1461630000003
 30
0
  0
VERTEX
  8
WANNE
 10
1185.716852
 20
116.6141630000002
 30
0
  0
VERTEX
  8
WANNE
 10
1185.876852
 20
116.0781630000001
 30
0
  0
VERTEX
  8
WANNE
 10
1185.966852
 20
115.5401630000001
 30
0
  0
VERTEX
  8
WANNE
 10
1185.996852
 20
115.0001630000002
 30
0
  0
SEQEND
  8
WANNE
  0
LINE
  8
MITTELLINIEN
 62
3
  6
DASHDOT
 10
1223.989954999998
 20
400
 30
0
 11
1094.321980999987
 21
400
 31
0
  0
LINE
  8
MITTELLINIEN
 62
3
  6
DASHDOT
 10
1160
 20
463.9899549999991
 30
0
 11
1160
 21
334.3219809999989
 31
0
  0
LINE
  8
BODENB
 62
7
 10
566.852484
 20
150
 30
0
 11
1450
 21
150
 31
0
  0
LINE
  8
WANNE
 62
7
 10
1125
 20
100
 30
0
 11
1450
 21
100
 31
0
  0
LINE
  8
WANNE
 62
7
 10
350
 20
100
 30
0
 11
675
 21
100
 31
0
  0
LINE
  8
WANNE
 62
7
 10
675
 20
700
 30
0
 11
350
 21
700
 31
0
  0
LINE
  8
BODENB
 62
7
 10
1450
 20
650
 30
0
 11
566.852484
 21
650
 31
0
  0
LINE
  8
WANNE
 62
7
 10
1450
 20
700
 30
0
 11
1125
 21
700
 31
0
  0
LINE
  8
GEOMETRIE
 62
7
 10
0
 20
0
 30
0
 11
0
 21
800
 31
0
  0
LINE
  8
GEOMETRIE
 62
7
 10
1800
 20
0
 30
0
 11
1800
 21
800
 31
0
  0
LINE
  8
GEOMETRIE
 62
7
 10
1800
 20
800
 30
0
 11
0
 21
800
 31
0
  0
LINE
  8
GEOMETRIE
 62
7
 10
1800
 20
0
 30
0
 11
0
 21
0
 31
0
  0
ARC
  8
WANNE
 62
7
 10
900
 20
491.875
 30
0
 40
451.8749999999997
 50
240.137166
 51
270
  0
ARC
  8
WANNE
 62
7
 10
900
 20
308.125
 30
0
 40
451.8749999999997
 50
60.13716600000003
 51
90
  0
ARC
  8
WANNE
 62
7
 10
350
 20
400
 30
0
 40
300
 50
90
 51
180
  0
ARC
  8
WANNE
 62
7
 10
1450
 20
400
 30
0
 40
300
 50
270
 51
0
  0
ARC
  8
WANNE
 62
7
 10
899.9999999999609
 20
5760.000000000004
 30
0
 40
5065.000000000004
 50
267.4539400000005
 51
269.2428240000005
  0
ARC
  8
WANNE
 62
7
 10
900.000000000035
 20
5760
 30
0
 40
5064.999999999999
 50
270.7571759999996
 51
272.5460599999996
  0
ARC
  8
WANNE
 62
7
 10
900
 20
308.125
 30
0
 40
451.875
 50
90
 51
119.862834
  0
ARC
  8
WANNE
 62
7
 10
945.806895999991
 20
279.9380280000009
 30
0
 40
451.8750000000001
 50
80.46128099999891
 51
85.21458199999886
  0
ARC
  8
WANNE
 62
7
 10
900
 20
882.2642659999999
 30
0
 40
198.4502410000003
 50
232.4112529999999
 51
307.5887470000001
  0
ARC
  8
WANNE
 62
7
 10
853.525841000001
 20
279.972998
 30
0
 40
451.2430000000006
 50
94.59662000000014
 51
99.51311100000015
  0
ARC
  8
WANNE
 62
7
 10
900
 20
882.2642659999999
 30
0
 40
173.4502409999998
 50
241.5475289999998
 51
298.7788640000002
  0
ARC
  8
WANNE
 62
7
 10
899.9999999999779
 20
-4960.000000000001
 30
0
 40
5065
 50
90.75717599999976
 51
92.54605999999973
  0
ARC
  8
WANNE
 62
7
 10
900.000000000023
 20
-4960.000000000001
 30
0
 40
5065.000000000001
 50
87.45394000000027
 51
89.24282400000026
  0
ARC
  8
WANNE
 62
7
 10
900
 20
491.875
 30
0
 40
451.8749999999998
 50
270
 51
299.862834
  0
ARC
  8
WANNE
 62
7
 10
900
 20
-82.2642649999998
 30
0
 40
198.4502410000001
 50
52.41125299999986
 51
127.5887470000001
  0
ARC
  8
WANNE
 62
7
 10
945.8068960000001
 20
520.0619730000001
 30
0
 40
451.875
 50
274.785418
 51
279.538719
  0
ARC
  8
WANNE
 62
7
 10
900
 20
-82.2642649999998
 30
0
 40
173.4502410000005
 50
61.22113599999988
 51
118.4524709999999
  0
ARC
  8
WANNE
 62
7
 10
853.525840999999
 20
520.0270029999999
 30
0
 40
451.2429999999999
 50
260.4868890000001
 51
265.4033800000001
  0
ARC
  8
BODENB
 62
7
 10
566.852484
 20
-100
 30
0
 40
250
 50
90
 51
113.4466169999999
  0
ARC
  8
BODENB
 62
7
 10
566.852484
 20
900
 30
0
 40
249.9999999999997
 50
246.5533830000001
 51
270
  0
ARC
  8
WANNE
 62
7
 10
350
 20
400
 30
0
 40
300
 50
180
 51
270
  0
ARC
  8
BODENB
 62
7
 10
350
 20
400
 30
0
 40
295.0000000000007
 50
66.55338300000005
 51
293.446617
  0
ARC
  8
WANNE
 62
7
 10
1450
 20
400
 30
0
 40
300
 50
0
 51
90
  0
ARC
  8
BODENB
 62
7
 10
1450
 20
400
 30
0
 40
250
 50
270
 51
90
  0
CIRCLE
  8
WANNE
 62
7
 10
1159.999999999994
 20
400
 30
0
 40
26
  0
CIRCLE
  8
WANNE
 62
7
 10
1159.999999999994
 20
400
 30
0
 40
45
  0
ENDBLK
  8
0
  0
ENDSEC
  0
SECTION
  2
ENTITIES
  0
TEXT
  8
1
 62
2
 10
500
 20
315
 30
0
 40
35
  1
ANCONA Vario 242
 41
0.5993999999999999
  0
TEXT
  8
1
 62
3
 10
1026.084
 20
450
 30
0
 40
35
  1
Ö 52
 41
0.5993999999999999
 72
2
 11
1110
 21
450
 31
0
  0
INSERT
  8
0
  2
DLX
 10
0
 20
0
 30
0
  0
INSERT
  8
0
  2
WANNE_ANCONA_VARIO_242
 10
651.3288259999999
 20
-155.757901
 30
0
  0
ENDSEC
  0
EOF
