  0
SECTION
  2
HEADER
  9
$ACADVER
  1
AC1014
  9
$ACADMAINTVER
 70
           0
  9
$DWGCODEPAGE
  3
ANSI_1252
  9
$INSBASE
 10
0.0
 20
0.0
 30
0.0
  9
$EXTMIN
 10
1.000000000000E+20
 20
1.000000000000E+20
 30
1.000000000000E+20
  9
$EXTMAX
 10
-1.000000000000E+20
 20
-1.000000000000E+20
 30
-1.000000000000E+20
  9
$LIMMIN
 10
0.0
 20
0.0
  9
$LIMMAX
 10
0.0
 20
0.0
  9
$ORTHOMODE
 70
           0
  9
$REGENMODE
 70
           1
  9
$FILLMODE
 70
           1
  9
$QTEXTMODE
 70
           0
  9
$MIRRTEXT
 70
           1
  9
$DRAGMODE
 70
           2
  9
$LTSCALE
 40
1.0
  9
$OSMODE
 70
           0
  9
$ATTMODE
 70
           1
  9
$TEXTSIZE
 40
0.2
  9
$TRACEWID
 40
0.05
  9
$TEXTSTYLE
  7
STANDARD
  9
$CLAYER
  8
0
  9
$CELTYPE
  6
CONTINUOUS
  9
$CECOLOR
 62
         256
  9
$CELTSCALE
 40
1.0
  9
$DELOBJ
 70
           1
  9
$DISPSILH
 70
           0
  9
$DIMSCALE
 40
1.0
  9
$DIMASZ
 40
0.18
  9
$DIMEXO
 40
0.0625
  9
$DIMDLI
 40
0.38
  9
$DIMRND
 40
0.0
  9
$DIMDLE
 40
0.0
  9
$DIMEXE
 40
0.18
  9
$DIMTP
 40
0.0
  9
$DIMTM
 40
0.0
  9
$DIMTXT
 40
0.18
  9
$DIMCEN
 40
0.09
  9
$DIMTSZ
 40
0.0
  9
$DIMTOL
 70
           0
  9
$DIMLIM
 70
           0
  9
$DIMTIH
 70
           1
  9
$DIMTOH
 70
           1
  9
$DIMSE1
 70
           0
  9
$DIMSE2
 70
           0
  9
$DIMTAD
 70
           0
  9
$DIMZIN
 70
           0
  9
$DIMBLK
  1

  9
$DIMASO
 70
           1
  9
$DIMSHO
 70
           1
  9
$DIMPOST
  1

  9
$DIMAPOST
  1

  9
$DIMALT
 70
           0
  9
$DIMALTD
 70
           2
  9
$DIMALTF
 40
25.4
  9
$DIMLFAC
 40
1.0
  9
$DIMTOFL
 70
           0
  9
$DIMTVP
 40
0.0
  9
$DIMTIX
 70
           0
  9
$DIMSOXD
 70
           0
  9
$DIMSAH
 70
           0
  9
$DIMBLK1
  1

  9
$DIMBLK2
  1

  9
$DIMSTYLE
  2
STANDARD
  9
$DIMCLRD
 70
           0
  9
$DIMCLRE
 70
           0
  9
$DIMCLRT
 70
           0
  9
$DIMTFAC
 40
1.0
  9
$DIMGAP
 40
0.09
  9
$DIMJUST
 70
           0
  9
$DIMSD1
 70
           0
  9
$DIMSD2
 70
           0
  9
$DIMTOLJ
 70
           1
  9
$DIMTZIN
 70
           0
  9
$DIMALTZ
 70
           0
  9
$DIMALTTZ
 70
           0
  9
$DIMFIT
 70
           3
  9
$DIMUPT
 70
           0
  9
$DIMUNIT
 70
           2
  9
$DIMDEC
 70
           4
  9
$DIMTDEC
 70
           4
  9
$DIMALTU
 70
           2
  9
$DIMALTTD
 70
           2
  9
$DIMTXSTY
  7
STANDARD
  9
$DIMAUNIT
 70
           0
  9
$LUNITS
 70
           2
  9
$LUPREC
 70
           4
  9
$SKETCHINC
 40
0.1
  9
$FILLETRAD
 40
0.0
  9
$AUNITS
 70
           0
  9
$AUPREC
 70
           0
  9
$MENU
  1
acad
  9
$ELEVATION
 40
0.0
  9
$PELEVATION
 40
0.0
  9
$THICKNESS
 40
0.0
  9
$LIMCHECK
 70
           0
  9
$BLIPMODE
 70
           1
  9
$CHAMFERA
 40
0.0
  9
$CHAMFERB
 40
0.0
  9
$CHAMFERC
 40
0.0
  9
$CHAMFERD
 40
0.0
  9
$SKPOLY
 70
           0
  9
$TDCREATE
 40
0.000000000
  9
$TDUPDATE
 40
0.000000000
  9
$TDINDWG
 40
0.0000000000
  9
$TDUSRTIMER
 40
0.0000000000
  9
$USRTIMER
 70
           1
  9
$ANGBASE
 50
0.0
  9
$ANGDIR
 70
           0
  9
$PDMODE
 70
           0
  9
$PDSIZE
 40
0.0
  9
$PLINEWID
 40
0.0
  9
$COORDS
 70
           0
  9
$SPLFRAME
 70
           0
  9
$SPLINETYPE
 70
           6
  9
$SPLINESEGS
 70
           8
  9
$ATTDIA
 70
           0
  9
$ATTREQ
 70
           1
  9
$HANDLING
 70
           1
  9
$HANDSEED
  5
194
  9
$SURFTAB1
 70
           6
  9
$SURFTAB2
 70
           6
  9
$SURFTYPE
 70
           6
  9
$SURFU
 70
           6
  9
$SURFV
 70
           6
  9
$UCSNAME
  2

  9
$UCSORG
 10
0.0
 20
0.0
 30
0.0
  9
$UCSXDIR
 10
1.0
 20
0.0
 30
0.0
  9
$UCSYDIR
 10
0.0
 20
1.0
 30
0.0
  9
$PUCSNAME
  2

  9
$PUCSORG
 10
0.0
 20
0.0
 30
0.0
  9
$PUCSXDIR
 10
1.0
 20
0.0
 30
0.0
  9
$PUCSYDIR
 10
0.0
 20
1.0
 30
0.0
  9
$USERI1
 70
           0
  9
$USERI2
 70
           0
  9
$USERI3
 70
           0
  9
$USERI4
 70
           0
  9
$USERI5
 70
           0
  9
$USERR1
 40
0.0
  9
$USERR2
 40
0.0
  9
$USERR3
 40
0.0
  9
$USERR4
 40
0.0
  9
$USERR5
 40
0.0
  9
$WORLDVIEW
 70
           1
  9
$SHADEDGE
 70
           3
  9
$SHADEDIF
 70
          70
  9
$TILEMODE
 70
           1
  9
$MAXACTVP
 70
          16
  9
$PINSBASE
 10
0.0
 20
0.0
 30
0.0
  9
$PLIMCHECK
 70
           0
  9
$PEXTMIN
 10
1.000000000000E+20
 20
1.000000000000E+20
 30
1.000000000000E+20
  9
$PEXTMAX
 10
-1.000000000000E+20
 20
-1.000000000000E+20
 30
-1.000000000000E+20
  9
$PLIMMIN
 10
0.0
 20
0.0
  9
$PLIMMAX
 10
12.0
 20
9.0
  9
$UNITMODE
 70
           0
  9
$VISRETAIN
 70
           0
  9
$PLINEGEN
 70
           1
  9
$PSLTSCALE
 70
           0
  9
$TREEDEPTH
 70
        3020
  9
$PICKSTYLE
 70
           1
  9
$CMLSTYLE
  2
STANDARD
  9
$CMLJUST
 70
           0
  9
$CMLSCALE
 40
1.0
  9
$PROXYGRAPHICS
 70
           0
  9
$MEASUREMENT
 70
           0
  0
ENDSEC
  0
SECTION
  2
CLASSES
  0
CLASS
  1
LWPOLYLINE
  2
AcDbPolyline
  3
"AutoCAD"
 90
        0
280
           0
281
           1
  0
CLASS
  1
IMAGE
  2
AcDbRasterImage
  3
ISM
 90
      127
280
           0
281
           1
  0
CLASS
  1
OLE2FRAME
  2
AcDbOle2Frame
  3
""
 90
        0
280
           0
281
           1
  0
CLASS
  1
HATCH
  2
AcDbHatch
  3
"ACAD_SEDONA"
 90
        0
280
           0
281
           1
  0
CLASS
  1
DICTIONARYVAR
  2
AcDbDictionaryVar
  3
"AutoCAD"
 90
        0
280
           0
281
           0
  0
CLASS
  1
RASTERVARIABLES
  2
AcDbRasterVariables
  3
ISM
 90
        0
280
           0
281
           0
  0
CLASS
  1
IMAGEDEF
  2
AcDbRasterImageDef
  3
ISM
 90
        0
280
           0
281
           0
  0
CLASS
  1
IMAGEDEF_REACTOR
  2
AcDbRasterImageDefReactor
  3
ISM
 90
        1
280
           0
281
           0
  0
CLASS
  1
IDBUFFER
  2
AcDbIdBuffer
  3
"Acad"
 90
        0
280
           0
281
           0
  0
CLASS
  1
SPATIAL_FILTER
  2
AcDbSpatialFilter
  3
"Acad"
 90
        0
280
           0
281
           0
  0
CLASS
  1
XRECORD
  2
AcDbXrecord
  3
"<Built In>"
 90
        0
280
           0
281
           0
  0
CLASS
  1
SORTENTSTABLE
  2
AcDbSortentsTable
  3
"AutoCAD"
 90
        0
280
           0
281
           0
  0
CLASS
  1
LAYER_INDEX
  2
AcDbLayerIndex
  3
"Acad"
 90
        0
280
           0
281
           0
  0
CLASS
  1
SPATIAL_INDEX
  2
AcDbSpatialIndex
  3
"Acad"
 90
        0
280
           0
281
           0
  0
CLASS
  1
OBJECT_PTR
  2
CAseDLPNTableRecord
  3
"ASE-LPNTableRecord"
 90
        1
280
           0
281
           0
  0
CLASS
  1
LAYOUT
  2
AcDbLayout
  3
"AutoCAD 2000"
 90
        1
280
           0
281
           0
  0
CLASS
  1
PLOTSETTINGS
  2
AcDbPlotSettings
  3
"AutoCAD 2000"
 90
        1
280
           0
281
           0
  0
CLASS
  1
ACDBDICTIONARYWDFLT
  2
AcDbDictionaryWithDefault
  3
"AutoCAD 2000"
 90
        1
280
           0
281
           0
  0
CLASS
  1
ACDBPLACEHOLDER
  2
AcDbPlaceHolder
  3
"AutoCAD 2000"
 90
        1
280
           0
281
           0
  0
CLASS
  1
VBA_PROJECT
  2
AcDbVbaProject
  3
"acadvba"
 90
        1
280
           0
281
           0
  0
CLASS
  1
WIPEOUT
  2
AcDbWipeout
  3
WipeOut|AutoCAD Express Tool|expresstools@autodesk.com
 90
      127
280
           0
281
           1
  0
CLASS
  1
WIPEOUTVARIABLES
  2
AcDbWipeoutVariables
  3
WipeOut|AutoCAD Express Tool|expresstools@autodesk.com
 90
        0
280
           0
281
           0
  0
CLASS
  1
RTEXT
  2
RText
  3
RText|AutoCAD Express Tool|expresstools@autodesk.com
 90
        0
280
           0
281
           1
  0
CLASS
  1
ARCALIGNEDTEXT
  2
AcDbArcAlignedText
  3
ATEXT|AutoCAD Express Tool|expresstools@autodesk.com
 90
        0
280
           0
281
           1
  0
ENDSEC
  0
SECTION
  2
TABLES
  0
TABLE
  2
VPORT
  5
7
100
AcDbSymbolTable
 70
           1
  0
VPORT
  5
15
100
AcDbSymbolTableRecord
100
AcDbViewportTableRecord
  2
*ACTIVE
 70
           0
 10
0.0
 20
0.0
 11
1.0
 21
1.0
 12
6.591288
 22
4.579184
 13
0.0
 23
0.0
 14
1.0
 24
1.0
 15
0.0
 25
0.0
 16
0.0
 26
0.0
 36
1.0
 17
0.0
 27
0.0
 37
0.0
 40
9.158369
 41
0.688564
 42
50.0
 43
0.0
 44
0.0
 50
0.0
 51
0.0
 71
           0
 72
         100
 73
           1
 74
           1
 75
           0
 76
           0
 77
           0
 78
           0
  0
ENDTAB
  0
TABLE
  2
LTYPE
  5
4
100
AcDbSymbolTable
 70
          10
  0
LTYPE
  5
11
100
AcDbSymbolTableRecord
100
AcDbLinetypeTableRecord
  2
BYBLOCK
 70
          64
  3

 72
          65
 73
           0
 40
0.0
  0
LTYPE
  5
12
100
AcDbSymbolTableRecord
100
AcDbLinetypeTableRecord
  2
BYLAYER
 70
          64
  3

 72
          65
 73
           0
 40
0.0
  0
LTYPE
  5
13
100
AcDbSymbolTableRecord
100
AcDbLinetypeTableRecord
  2
CONTINUOUS
 70
          64
  3
Solid line
 72
          65
 73
           0
 40
0.0
  0
LTYPE
  5
1D
100
AcDbSymbolTableRecord
100
AcDbLinetypeTableRecord
  2
DASHED
 70
          64
  3
Dashed
 72
          65
 73
           2
 40
15.0
 49
12.0
 74
           0
 49
-3.0
 74
           0
  0
LTYPE
  5
1E
100
AcDbSymbolTableRecord
100
AcDbLinetypeTableRecord
  2
DOTTED
 70
          64
  3
Dotted
 72
          65
 73
           2
 40
3.5
 49
0.5
 74
           0
 49
-3.0
 74
           0
  0
LTYPE
  5
1F
100
AcDbSymbolTableRecord
100
AcDbLinetypeTableRecord
  2
DOT_CENTER
 70
          64
  3
Dot_Center
 72
          65
 73
           4
 40
2.0
 49
1.25
 74
           0
 49
-0.25
 74
           0
 49
0.25
 74
           0
 49
-0.25
 74
           0
  0
LTYPE
  5
20
100
AcDbSymbolTableRecord
100
AcDbLinetypeTableRecord
  2
LONG_DASHED
 70
          64
  3
Long_Dashed
 72
          65
 73
           2
 40
2.0
 49
1.5
 74
           0
 49
-0.5
 74
           0
  0
LTYPE
  5
21
100
AcDbSymbolTableRecord
100
AcDbLinetypeTableRecord
  2
DASH_CENTER
 70
          64
  3
Dash_Center
 72
          65
 73
           4
 40
36.0
 49
24.0
 74
           0
 49
-3.0
 74
           0
 49
6.0
 74
           0
 49
-3.0
 74
           0
  0
LTYPE
  5
22
100
AcDbSymbolTableRecord
100
AcDbLinetypeTableRecord
  2
PHANTOM
 70
          64
  3
Phantom
 72
          65
 73
           6
 40
2.5
 49
1.25
 74
           0
 49
-0.25
 74
           0
 49
0.25
 74
           0
 49
-0.25
 74
           0
 49
0.25
 74
           0
 49
-0.25
 74
           0
  0
LTYPE
  5
23
100
AcDbSymbolTableRecord
100
AcDbLinetypeTableRecord
  2
CENTER_DASH_DASH
 70
          64
  3
Center_Dash_Dash
 72
          65
 73
           6
 40
22.0
 49
12.0
 74
           0
 49
-3.0
 74
           0
 49
0.5
 74
           0
 49
-3.0
 74
           0
 49
0.5
 74
           0
 49
-3.0
 74
           0
  0
ENDTAB
  0
TABLE
  2
LAYER
  5
2
100
AcDbSymbolTable
 70
           5
  0
LAYER
  5
14
100
AcDbSymbolTableRecord
100
AcDbLayerTableRecord
  2
0
 70
           0
 62
           7
  6
CONTINUOUS
  0
LAYER
  5
24
100
AcDbSymbolTableRecord
100
AcDbLayerTableRecord
  2
MITTELLINIEN
 70
           0
 62
           7
  6
CONTINUOUS
  0
LAYER
  5
25
100
AcDbSymbolTableRecord
100
AcDbLayerTableRecord
  2
1
 70
           0
 62
           7
  6
CONTINUOUS
  0
LAYER
  5
26
100
AcDbSymbolTableRecord
100
AcDbLayerTableRecord
  2
GEOMETRIE
 70
           0
 62
           7
  6
CONTINUOUS
  0
LAYER
  5
27
100
AcDbSymbolTableRecord
100
AcDbLayerTableRecord
  2
WANNE
 70
           0
 62
           7
  6
CONTINUOUS
  0
ENDTAB
  0
TABLE
  2
STYLE
  5
3
100
AcDbSymbolTable
 70
           2
  0
STYLE
  5
17
100
AcDbSymbolTableRecord
100
AcDbTextStyleTableRecord
  2
STANDARD
 70
           0
 40
0.0
 41
1.0
 50
0.0
 71
           0
 42
0.0
  3
txt
  4

  0
STYLE
  5
190
100
AcDbSymbolTableRecord
100
AcDbTextStyleTableRecord
  2
CONVERTER_1
 70
           0
 40
0.0
 41
0.71262
 50
0.0
 71
           0
 42
0.0
  3
txt.shx
  4

  0
ENDTAB
  0
TABLE
  2
VIEW
  5
5
100
AcDbSymbolTable
 70
           0
  0
ENDTAB
  0
TABLE
  2
UCS
  5
6
100
AcDbSymbolTable
 70
           0
  0
ENDTAB
  0
TABLE
  2
APPID
  5
8
100
AcDbSymbolTable
 70
           1
  0
APPID
  5
16
100
AcDbSymbolTableRecord
100
AcDbRegAppTableRecord
  2
ACAD
 70
           0
  0
ENDTAB
  0
TABLE
  2
DIMSTYLE
  5
9
100
AcDbSymbolTable
 70
           1
  0
DIMSTYLE
105
18
100
AcDbSymbolTableRecord
100
AcDbDimStyleTableRecord
  2
STANDARD
 70
           0
  3

  4

  5

  6

  7

 40
1.0
 41
0.18
 42
0.0625
 43
0.38
 44
0.18
 45
0.0
 46
0.0
 47
0.0
 48
0.0
 71
           0
 72
           0
 73
           1
 74
           1
 75
           0
 76
           0
 77
           0
 78
           0
140
0.18
141
0.09
142
0.0
143
25.4
144
1.0
145
0.0
146
1.0
147
0.09
170
           0
171
           2
172
           0
173
           0
174
           0
175
           0
176
           0
177
           0
178
           0
270
           2
271
           4
272
           4
273
           2
274
           2
275
           0
280
           0
281
           0
282
           0
283
           1
284
           0
285
           0
286
           0
287
           0
288
           0
340
17
  0
ENDTAB
  0
TABLE
  2
BLOCK_RECORD
  5
1
100
AcDbSymbolTable
 70
           2
  0
BLOCK_RECORD
  5
A
100
AcDbSymbolTableRecord
100
AcDbBlockTableRecord
  2
*MODEL_SPACE
  0
BLOCK_RECORD
  5
B
100
AcDbSymbolTableRecord
100
AcDbBlockTableRecord
  2
*PAPER_SPACE
  0
BLOCK_RECORD
  5
28
100
AcDbSymbolTableRecord
100
AcDbBlockTableRecord
  2
WANNE_ANCONA_VARIO_243
  0
BLOCK_RECORD
  5
2A
100
AcDbSymbolTableRecord
100
AcDbBlockTableRecord
  2
DLX
  0
ENDTAB
  0
ENDSEC
  0
SECTION
  2
BLOCKS
  0
BLOCK
  5
D
100
AcDbEntity
  8
0
100
AcDbBlockBegin
  2
*MODEL_SPACE
 70
           0
 10
0.0
 20
0.0
 30
0.0
  3
*MODEL_SPACE
  1

  0
ENDBLK
  5
E
100
AcDbEntity
  8
0
100
AcDbBlockEnd
  0
BLOCK
  5
F
100
AcDbEntity
 67
           1
  8
0
100
AcDbBlockBegin
  2
*PAPER_SPACE
 70
           0
 10
0.0
 20
0.0
 30
0.0
  3
*PAPER_SPACE
  1

  0
ENDBLK
  5
10
100
AcDbEntity
 67
           1
  8
0
100
AcDbBlockEnd
  0
BLOCK
  5
29
100
AcDbEntity
  8
0
100
AcDbBlockBegin
  2
WANNE_ANCONA_VARIO_243
 70
           0
 10
0.0
 20
0.0
 30
0.0
  3
WANNE_ANCONA_VARIO_243
  1

  0
CIRCLE
  5
D8
100
AcDbEntity
  8
WANNE
  6
CONTINUOUS
 62
           7
100
AcDbCircle
 10
1204.999999999994
 20
400.0
 40
26.0
  0
CIRCLE
  5
D7
100
AcDbEntity
  8
WANNE
  6
CONTINUOUS
 62
           7
100
AcDbCircle
 10
1204.999999999994
 20
400.0
 40
45.0
  0
ARC
  5
D6
100
AcDbEntity
  8
WANNE
  6
CONTINUOUS
 62
           7
100
AcDbCircle
 10
850.0
 20
491.875
 40
451.875
100
AcDbArc
 50
-119.862834
 51
-90.0
  0
ARC
  5
D5
100
AcDbEntity
  8
WANNE
  6
CONTINUOUS
 62
           7
100
AcDbCircle
 10
850.0
 20
308.125
 40
451.875
100
AcDbArc
 50
60.137166
 51
90.0
  0
ARC
  5
D4
100
AcDbEntity
  8
WANNE
  6
CONTINUOUS
 62
           7
100
AcDbCircle
 10
350.0
 20
400.0
 40
300.0
100
AcDbArc
 50
90.0
 51
180.0
  0
ARC
  5
D3
100
AcDbEntity
  8
WANNE
  6
CONTINUOUS
 62
           7
100
AcDbCircle
 10
1350.0
 20
400.0
 40
300.0
100
AcDbArc
 50
-90.0
 51
0.0
  0
ARC
  5
D2
100
AcDbEntity
  8
WANNE
  6
CONTINUOUS
 62
           7
100
AcDbCircle
 10
849.999999999961
 20
5760.000000000004
 40
5065.000000000004
100
AcDbArc
 50
-92.546059999999
 51
-90.757175999999
  0
ARC
  5
D1
100
AcDbEntity
  8
WANNE
  6
CONTINUOUS
 62
           7
100
AcDbCircle
 10
850.000000000035
 20
5760.0
 40
5064.999999999999
100
AcDbArc
 50
-89.242824
 51
-87.45394
  0
ARC
  5
D0
100
AcDbEntity
  8
WANNE
  6
CONTINUOUS
 62
           7
100
AcDbCircle
 10
850.0
 20
308.125
 40
451.875
100
AcDbArc
 50
90.0
 51
119.862834
  0
ARC
  5
CF
100
AcDbEntity
  8
WANNE
  6
CONTINUOUS
 62
           7
100
AcDbCircle
 10
895.806895999991
 20
279.938028000001
 40
451.875
100
AcDbArc
 50
80.461280999999
 51
85.214581999999
  0
ARC
  5
CE
100
AcDbEntity
  8
WANNE
  6
CONTINUOUS
 62
           7
100
AcDbCircle
 10
850.0
 20
882.264266
 40
198.450241
100
AcDbArc
 50
-127.588747
 51
-52.411253
  0
ARC
  5
CD
100
AcDbEntity
  8
WANNE
  6
CONTINUOUS
 62
           7
100
AcDbCircle
 10
803.525841000001
 20
279.972998
 40
451.243000000001
100
AcDbArc
 50
94.59662
 51
99.513111
  0
ARC
  5
CC
100
AcDbEntity
  8
WANNE
  6
CONTINUOUS
 62
           7
100
AcDbCircle
 10
850.0
 20
882.264266
 40
173.450241
100
AcDbArc
 50
-118.452471
 51
-61.221136
  0
ARC
  5
CB
100
AcDbEntity
  8
WANNE
  6
CONTINUOUS
 62
           7
100
AcDbCircle
 10
849.999999999978
 20
-4960.000000000001
 40
5065.0
100
AcDbArc
 50
90.757176
 51
92.54606
  0
ARC
  5
CA
100
AcDbEntity
  8
WANNE
  6
CONTINUOUS
 62
           7
100
AcDbCircle
 10
850.000000000023
 20
-4960.000000000001
 40
5065.0
100
AcDbArc
 50
87.45394
 51
89.242824
  0
ARC
  5
C9
100
AcDbEntity
  8
WANNE
  6
CONTINUOUS
 62
           7
100
AcDbCircle
 10
850.0
 20
491.875
 40
451.875
100
AcDbArc
 50
-90.0
 51
-60.137166
  0
ARC
  5
C8
100
AcDbEntity
  8
WANNE
  6
CONTINUOUS
 62
           7
100
AcDbCircle
 10
850.0
 20
-82.264265
 40
198.450241
100
AcDbArc
 50
52.411253
 51
127.588747
  0
ARC
  5
C7
100
AcDbEntity
  8
WANNE
  6
CONTINUOUS
 62
           7
100
AcDbCircle
 10
895.806896
 20
520.061973
 40
451.875
100
AcDbArc
 50
-85.214582
 51
-80.461281
  0
ARC
  5
C6
100
AcDbEntity
  8
WANNE
  6
CONTINUOUS
 62
           7
100
AcDbCircle
 10
850.0
 20
-82.264265
 40
173.450241000001
100
AcDbArc
 50
61.221136
 51
118.452471
  0
ARC
  5
C5
100
AcDbEntity
  8
WANNE
  6
CONTINUOUS
 62
           7
100
AcDbCircle
 10
803.525840999999
 20
520.027003
 40
451.243
100
AcDbArc
 50
-99.513111
 51
-94.59662
  0
ARC
  5
C4
100
AcDbEntity
  8
WANNE
  6
CONTINUOUS
 62
           7
100
AcDbCircle
 10
350.0
 20
400.0
 40
300.0
100
AcDbArc
 50
180.0
 51
-90.0
  0
ARC
  5
C3
100
AcDbEntity
  8
WANNE
  6
CONTINUOUS
 62
           7
100
AcDbCircle
 10
1350.0
 20
400.0
 40
300.0
100
AcDbArc
 50
0.0
 51
90.0
  0
ARC
  5
C2
100
AcDbEntity
  8
1
  6
CONTINUOUS
 62
           7
100
AcDbCircle
 10
1350.0
 20
400.0
 40
263.5
100
AcDbArc
 50
-90.0
 51
90.0
  0
ARC
  5
C1
100
AcDbEntity
  8
1
  6
CONTINUOUS
 62
           7
100
AcDbCircle
 10
1272.029362999992
 20
400.0
 40
949.999999999992
100
AcDbArc
 50
164.305261
 51
-164.305260999999
  0
ARC
  5
C0
100
AcDbEntity
  8
1
  6
CONTINUOUS
 62
           7
100
AcDbCircle
 10
1141.152880999994
 20
399.999999999999
 40
949.999999999995
100
AcDbArc
 50
164.312516
 51
-164.312516
  0
ARC
  5
BF
100
AcDbEntity
  8
1
  6
CONTINUOUS
 62
           7
100
AcDbCircle
 10
1076.139396000013
 20
400.000000000001
 40
950.000000000013
100
AcDbArc
 50
167.809253
 51
-167.809253
  0
ARC
  5
BE
100
AcDbEntity
  8
1
  6
CONTINUOUS
 62
           7
100
AcDbCircle
 10
1442.029363000047
 20
400.0
 40
950.000000000047
100
AcDbArc
 50
164.836228
 51
-164.836228
  0
LINE
  5
BD
100
AcDbEntity
  8
MITTELLINIEN
  6
DOT_CENTER
 62
           3
100
AcDbLine
 10
1268.989954999998
 20
400.0
 11
1139.321980999987
 21
400.0
  0
LINE
  5
BC
100
AcDbEntity
  8
MITTELLINIEN
  6
DOT_CENTER
 62
           3
100
AcDbLine
 10
1205.0
 20
463.989954999999
 11
1205.0
 21
334.321980999999
  0
LINE
  5
BB
100
AcDbEntity
  8
0
  6
CONTINUOUS
 62
           7
100
AcDbLine
 10
1230.966852
 20
114.460163
 11
1230.996852
 21
115.000163
  0
LINE
  5
BA
100
AcDbEntity
  8
0
  6
CONTINUOUS
 62
           7
100
AcDbLine
 10
1230.876852
 20
113.922163
 11
1230.966852
 21
114.460163
  0
LINE
  5
B9
100
AcDbEntity
  8
0
  6
CONTINUOUS
 62
           7
100
AcDbLine
 10
1230.716852
 20
113.386163
 11
1230.876852
 21
113.922163
  0
LINE
  5
B8
100
AcDbEntity
  8
0
  6
CONTINUOUS
 62
           7
100
AcDbLine
 10
1230.496852
 20
112.854163
 11
1230.716852
 21
113.386163
  0
LINE
  5
B7
100
AcDbEntity
  8
0
  6
CONTINUOUS
 62
           7
100
AcDbLine
 10
1230.216852
 20
112.327163
 11
1230.496852
 21
112.854163
  0
LINE
  5
B6
100
AcDbEntity
  8
0
  6
CONTINUOUS
 62
           7
100
AcDbLine
 10
1229.876852
 20
111.807163
 11
1230.216852
 21
112.327163
  0
LINE
  5
B5
100
AcDbEntity
  8
0
  6
CONTINUOUS
 62
           7
100
AcDbLine
 10
1229.476852
 20
111.294163
 11
1229.876852
 21
111.807163
  0
LINE
  5
B4
100
AcDbEntity
  8
0
  6
CONTINUOUS
 62
           7
100
AcDbLine
 10
1229.016852
 20
110.790163
 11
1229.476852
 21
111.294163
  0
LINE
  5
B3
100
AcDbEntity
  8
0
  6
CONTINUOUS
 62
           7
100
AcDbLine
 10
1228.506852
 20
110.297163
 11
1229.016852
 21
110.790163
  0
LINE
  5
B2
100
AcDbEntity
  8
0
  6
CONTINUOUS
 62
           7
100
AcDbLine
 10
1227.926852
 20
109.814163
 11
1228.506852
 21
110.297163
  0
LINE
  5
B1
100
AcDbEntity
  8
0
  6
CONTINUOUS
 62
           7
100
AcDbLine
 10
1227.296852
 20
109.345163
 11
1227.926852
 21
109.814163
  0
LINE
  5
B0
100
AcDbEntity
  8
0
  6
CONTINUOUS
 62
           7
100
AcDbLine
 10
1226.616852
 20
108.889163
 11
1227.296852
 21
109.345163
  0
LINE
  5
AF
100
AcDbEntity
  8
0
  6
CONTINUOUS
 62
           7
100
AcDbLine
 10
1225.886852
 20
108.447163
 11
1226.616852
 21
108.889163
  0
LINE
  5
AE
100
AcDbEntity
  8
0
  6
CONTINUOUS
 62
           7
100
AcDbLine
 10
1225.096852
 20
108.022163
 11
1225.886852
 21
108.447163
  0
LINE
  5
AD
100
AcDbEntity
  8
0
  6
CONTINUOUS
 62
           7
100
AcDbLine
 10
1224.266852
 20
107.613163
 11
1225.096852
 21
108.022163
  0
LINE
  5
AC
100
AcDbEntity
  8
0
  6
CONTINUOUS
 62
           7
100
AcDbLine
 10
1223.386852
 20
107.222163
 11
1224.266852
 21
107.613163
  0
LINE
  5
AB
100
AcDbEntity
  8
0
  6
CONTINUOUS
 62
           7
100
AcDbLine
 10
1222.456852
 20
106.849163
 11
1223.386852
 21
107.222163
  0
LINE
  5
AA
100
AcDbEntity
  8
0
  6
CONTINUOUS
 62
           7
100
AcDbLine
 10
1221.496852
 20
106.497163
 11
1222.456852
 21
106.849163
  0
LINE
  5
A9
100
AcDbEntity
  8
0
  6
CONTINUOUS
 62
           7
100
AcDbLine
 10
1220.486852
 20
106.165163
 11
1221.496852
 21
106.497163
  0
LINE
  5
A8
100
AcDbEntity
  8
0
  6
CONTINUOUS
 62
           7
100
AcDbLine
 10
1219.446852
 20
105.854163
 11
1220.486852
 21
106.165163
  0
LINE
  5
A7
100
AcDbEntity
  8
0
  6
CONTINUOUS
 62
           7
100
AcDbLine
 10
1218.366852
 20
105.565163
 11
1219.446852
 21
105.854163
  0
LINE
  5
A6
100
AcDbEntity
  8
0
  6
CONTINUOUS
 62
           7
100
AcDbLine
 10
1217.256852
 20
105.299163
 11
1218.366852
 21
105.565163
  0
LINE
  5
A5
100
AcDbEntity
  8
0
  6
CONTINUOUS
 62
           7
100
AcDbLine
 10
1216.116852
 20
105.056163
 11
1217.256852
 21
105.299163
  0
LINE
  5
A4
100
AcDbEntity
  8
0
  6
CONTINUOUS
 62
           7
100
AcDbLine
 10
1214.946852
 20
104.837163
 11
1216.116852
 21
105.056163
  0
LINE
  5
A3
100
AcDbEntity
  8
0
  6
CONTINUOUS
 62
           7
100
AcDbLine
 10
1213.756852
 20
104.643163
 11
1214.946852
 21
104.837163
  0
LINE
  5
A2
100
AcDbEntity
  8
0
  6
CONTINUOUS
 62
           7
100
AcDbLine
 10
1212.546852
 20
104.473163
 11
1213.756852
 21
104.643163
  0
LINE
  5
A1
100
AcDbEntity
  8
0
  6
CONTINUOUS
 62
           7
100
AcDbLine
 10
1211.316852
 20
104.329163
 11
1212.546852
 21
104.473163
  0
LINE
  5
A0
100
AcDbEntity
  8
0
  6
CONTINUOUS
 62
           7
100
AcDbLine
 10
1210.076852
 20
104.211163
 11
1211.316852
 21
104.329163
  0
LINE
  5
9F
100
AcDbEntity
  8
0
  6
CONTINUOUS
 62
           7
100
AcDbLine
 10
1208.816852
 20
104.119163
 11
1210.076852
 21
104.211163
  0
LINE
  5
9E
100
AcDbEntity
  8
0
  6
CONTINUOUS
 62
           7
100
AcDbLine
 10
1207.546852
 20
104.053163
 11
1208.816852
 21
104.119163
  0
LINE
  5
9D
100
AcDbEntity
  8
0
  6
CONTINUOUS
 62
           7
100
AcDbLine
 10
1206.276852
 20
104.013163
 11
1207.546852
 21
104.053163
  0
LINE
  5
9C
100
AcDbEntity
  8
0
  6
CONTINUOUS
 62
           7
100
AcDbLine
 10
1204.996852
 20
104.000163
 11
1206.276852
 21
104.013163
  0
LINE
  5
9B
100
AcDbEntity
  8
0
  6
CONTINUOUS
 62
           7
100
AcDbLine
 10
1203.726852
 20
104.013163
 11
1204.996852
 21
104.000163
  0
LINE
  5
9A
100
AcDbEntity
  8
0
  6
CONTINUOUS
 62
           7
100
AcDbLine
 10
1202.446852
 20
104.053163
 11
1203.726852
 21
104.013163
  0
LINE
  5
99
100
AcDbEntity
  8
0
  6
CONTINUOUS
 62
           7
100
AcDbLine
 10
1201.186852
 20
104.119163
 11
1202.446852
 21
104.053163
  0
LINE
  5
98
100
AcDbEntity
  8
0
  6
CONTINUOUS
 62
           7
100
AcDbLine
 10
1199.926852
 20
104.211163
 11
1201.186852
 21
104.119163
  0
LINE
  5
97
100
AcDbEntity
  8
0
  6
CONTINUOUS
 62
           7
100
AcDbLine
 10
1198.686852
 20
104.329163
 11
1199.926852
 21
104.211163
  0
LINE
  5
96
100
AcDbEntity
  8
0
  6
CONTINUOUS
 62
           7
100
AcDbLine
 10
1197.456852
 20
104.473163
 11
1198.686852
 21
104.329163
  0
LINE
  5
95
100
AcDbEntity
  8
0
  6
CONTINUOUS
 62
           7
100
AcDbLine
 10
1196.236852
 20
104.643163
 11
1197.456852
 21
104.473163
  0
LINE
  5
94
100
AcDbEntity
  8
0
  6
CONTINUOUS
 62
           7
100
AcDbLine
 10
1195.046852
 20
104.837163
 11
1196.236852
 21
104.643163
  0
LINE
  5
93
100
AcDbEntity
  8
0
  6
CONTINUOUS
 62
           7
100
AcDbLine
 10
1193.886852
 20
105.056163
 11
1195.046852
 21
104.837163
  0
LINE
  5
92
100
AcDbEntity
  8
0
  6
CONTINUOUS
 62
           7
100
AcDbLine
 10
1192.746852
 20
105.299163
 11
1193.886852
 21
105.056163
  0
LINE
  5
91
100
AcDbEntity
  8
0
  6
CONTINUOUS
 62
           7
100
AcDbLine
 10
1191.636852
 20
105.565163
 11
1192.746852
 21
105.299163
  0
LINE
  5
90
100
AcDbEntity
  8
0
  6
CONTINUOUS
 62
           7
100
AcDbLine
 10
1190.556852
 20
105.854163
 11
1191.636852
 21
105.565163
  0
LINE
  5
8F
100
AcDbEntity
  8
0
  6
CONTINUOUS
 62
           7
100
AcDbLine
 10
1189.506852
 20
106.165163
 11
1190.556852
 21
105.854163
  0
LINE
  5
8E
100
AcDbEntity
  8
0
  6
CONTINUOUS
 62
           7
100
AcDbLine
 10
1188.506852
 20
106.497163
 11
1189.506852
 21
106.165163
  0
LINE
  5
8D
100
AcDbEntity
  8
0
  6
CONTINUOUS
 62
           7
100
AcDbLine
 10
1187.536852
 20
106.849163
 11
1188.506852
 21
106.497163
  0
LINE
  5
8C
100
AcDbEntity
  8
0
  6
CONTINUOUS
 62
           7
100
AcDbLine
 10
1186.616852
 20
107.222163
 11
1187.536852
 21
106.849163
  0
LINE
  5
8B
100
AcDbEntity
  8
0
  6
CONTINUOUS
 62
           7
100
AcDbLine
 10
1185.736852
 20
107.613163
 11
1186.616852
 21
107.222163
  0
LINE
  5
8A
100
AcDbEntity
  8
0
  6
CONTINUOUS
 62
           7
100
AcDbLine
 10
1184.896852
 20
108.022163
 11
1185.736852
 21
107.613163
  0
LINE
  5
89
100
AcDbEntity
  8
0
  6
CONTINUOUS
 62
           7
100
AcDbLine
 10
1184.116852
 20
108.447163
 11
1184.896852
 21
108.022163
  0
LINE
  5
88
100
AcDbEntity
  8
0
  6
CONTINUOUS
 62
           7
100
AcDbLine
 10
1183.376852
 20
108.889163
 11
1184.116852
 21
108.447163
  0
LINE
  5
87
100
AcDbEntity
  8
0
  6
CONTINUOUS
 62
           7
100
AcDbLine
 10
1182.696852
 20
109.345163
 11
1183.376852
 21
108.889163
  0
LINE
  5
86
100
AcDbEntity
  8
0
  6
CONTINUOUS
 62
           7
100
AcDbLine
 10
1182.066852
 20
109.814163
 11
1182.696852
 21
109.345163
  0
LINE
  5
85
100
AcDbEntity
  8
0
  6
CONTINUOUS
 62
           7
100
AcDbLine
 10
1181.496852
 20
110.297163
 11
1182.066852
 21
109.814163
  0
LINE
  5
84
100
AcDbEntity
  8
0
  6
CONTINUOUS
 62
           7
100
AcDbLine
 10
1180.976852
 20
110.790163
 11
1181.496852
 21
110.297163
  0
LINE
  5
83
100
AcDbEntity
  8
0
  6
CONTINUOUS
 62
           7
100
AcDbLine
 10
1180.516852
 20
111.294163
 11
1180.976852
 21
110.790163
  0
LINE
  5
82
100
AcDbEntity
  8
0
  6
CONTINUOUS
 62
           7
100
AcDbLine
 10
1180.116852
 20
111.807163
 11
1180.516852
 21
111.294163
  0
LINE
  5
81
100
AcDbEntity
  8
0
  6
CONTINUOUS
 62
           7
100
AcDbLine
 10
1179.776852
 20
112.327163
 11
1180.116852
 21
111.807163
  0
LINE
  5
80
100
AcDbEntity
  8
0
  6
CONTINUOUS
 62
           7
100
AcDbLine
 10
1179.496852
 20
112.854163
 11
1179.776852
 21
112.327163
  0
LINE
  5
7F
100
AcDbEntity
  8
0
  6
CONTINUOUS
 62
           7
100
AcDbLine
 10
1179.276852
 20
113.386163
 11
1179.496852
 21
112.854163
  0
LINE
  5
7E
100
AcDbEntity
  8
0
  6
CONTINUOUS
 62
           7
100
AcDbLine
 10
1179.126852
 20
113.922163
 11
1179.276852
 21
113.386163
  0
LINE
  5
7D
100
AcDbEntity
  8
0
  6
CONTINUOUS
 62
           7
100
AcDbLine
 10
1179.026852
 20
114.460163
 11
1179.126852
 21
113.922163
  0
LINE
  5
7C
100
AcDbEntity
  8
0
  6
CONTINUOUS
 62
           7
100
AcDbLine
 10
1178.996852
 20
115.000163
 11
1179.026852
 21
114.460163
  0
LINE
  5
7B
100
AcDbEntity
  8
0
  6
CONTINUOUS
 62
           7
100
AcDbLine
 10
1179.026852
 20
115.540163
 11
1178.996852
 21
115.000163
  0
LINE
  5
7A
100
AcDbEntity
  8
0
  6
CONTINUOUS
 62
           7
100
AcDbLine
 10
1179.126852
 20
116.078163
 11
1179.026852
 21
115.540163
  0
LINE
  5
79
100
AcDbEntity
  8
0
  6
CONTINUOUS
 62
           7
100
AcDbLine
 10
1179.276852
 20
116.614163
 11
1179.126852
 21
116.078163
  0
LINE
  5
78
100
AcDbEntity
  8
0
  6
CONTINUOUS
 62
           7
100
AcDbLine
 10
1179.496852
 20
117.146163
 11
1179.276852
 21
116.614163
  0
LINE
  5
77
100
AcDbEntity
  8
0
  6
CONTINUOUS
 62
           7
100
AcDbLine
 10
1179.776852
 20
117.673163
 11
1179.496852
 21
117.146163
  0
LINE
  5
76
100
AcDbEntity
  8
0
  6
CONTINUOUS
 62
           7
100
AcDbLine
 10
1180.116852
 20
118.193163
 11
1179.776852
 21
117.673163
  0
LINE
  5
75
100
AcDbEntity
  8
0
  6
CONTINUOUS
 62
           7
100
AcDbLine
 10
1180.516852
 20
118.706163
 11
1180.116852
 21
118.193163
  0
LINE
  5
74
100
AcDbEntity
  8
0
  6
CONTINUOUS
 62
           7
100
AcDbLine
 10
1180.976852
 20
119.209163
 11
1180.516852
 21
118.706163
  0
LINE
  5
73
100
AcDbEntity
  8
0
  6
CONTINUOUS
 62
           7
100
AcDbLine
 10
1181.496852
 20
119.703163
 11
1180.976852
 21
119.209163
  0
LINE
  5
72
100
AcDbEntity
  8
0
  6
CONTINUOUS
 62
           7
100
AcDbLine
 10
1182.066852
 20
120.185163
 11
1181.496852
 21
119.703163
  0
LINE
  5
71
100
AcDbEntity
  8
0
  6
CONTINUOUS
 62
           7
100
AcDbLine
 10
1182.696852
 20
120.655163
 11
1182.066852
 21
120.185163
  0
LINE
  5
70
100
AcDbEntity
  8
0
  6
CONTINUOUS
 62
           7
100
AcDbLine
 10
1183.376852
 20
121.111163
 11
1182.696852
 21
120.655163
  0
LINE
  5
6F
100
AcDbEntity
  8
0
  6
CONTINUOUS
 62
           7
100
AcDbLine
 10
1184.116852
 20
121.553163
 11
1183.376852
 21
121.111163
  0
LINE
  5
6E
100
AcDbEntity
  8
0
  6
CONTINUOUS
 62
           7
100
AcDbLine
 10
1184.896852
 20
121.978163
 11
1184.116852
 21
121.553163
  0
LINE
  5
6D
100
AcDbEntity
  8
0
  6
CONTINUOUS
 62
           7
100
AcDbLine
 10
1185.736852
 20
122.387163
 11
1184.896852
 21
121.978163
  0
LINE
  5
6C
100
AcDbEntity
  8
0
  6
CONTINUOUS
 62
           7
100
AcDbLine
 10
1186.616852
 20
122.778163
 11
1185.736852
 21
122.387163
  0
LINE
  5
6B
100
AcDbEntity
  8
0
  6
CONTINUOUS
 62
           7
100
AcDbLine
 10
1187.536852
 20
123.150163
 11
1186.616852
 21
122.778163
  0
LINE
  5
6A
100
AcDbEntity
  8
0
  6
CONTINUOUS
 62
           7
100
AcDbLine
 10
1188.506852
 20
123.503163
 11
1187.536852
 21
123.150163
  0
LINE
  5
69
100
AcDbEntity
  8
0
  6
CONTINUOUS
 62
           7
100
AcDbLine
 10
1189.506852
 20
123.835163
 11
1188.506852
 21
123.503163
  0
LINE
  5
68
100
AcDbEntity
  8
0
  6
CONTINUOUS
 62
           7
100
AcDbLine
 10
1190.556852
 20
124.146163
 11
1189.506852
 21
123.835163
  0
LINE
  5
67
100
AcDbEntity
  8
0
  6
CONTINUOUS
 62
           7
100
AcDbLine
 10
1191.636852
 20
124.435163
 11
1190.556852
 21
124.146163
  0
LINE
  5
66
100
AcDbEntity
  8
0
  6
CONTINUOUS
 62
           7
100
AcDbLine
 10
1192.746852
 20
124.701163
 11
1191.636852
 21
124.435163
  0
LINE
  5
65
100
AcDbEntity
  8
0
  6
CONTINUOUS
 62
           7
100
AcDbLine
 10
1193.886852
 20
124.944163
 11
1192.746852
 21
124.701163
  0
LINE
  5
64
100
AcDbEntity
  8
0
  6
CONTINUOUS
 62
           7
100
AcDbLine
 10
1195.046852
 20
125.163163
 11
1193.886852
 21
124.944163
  0
LINE
  5
63
100
AcDbEntity
  8
0
  6
CONTINUOUS
 62
           7
100
AcDbLine
 10
1196.236852
 20
125.357163
 11
1195.046852
 21
125.163163
  0
LINE
  5
62
100
AcDbEntity
  8
0
  6
CONTINUOUS
 62
           7
100
AcDbLine
 10
1197.456852
 20
125.526163
 11
1196.236852
 21
125.357163
  0
LINE
  5
61
100
AcDbEntity
  8
0
  6
CONTINUOUS
 62
           7
100
AcDbLine
 10
1198.686852
 20
125.670163
 11
1197.456852
 21
125.526163
  0
LINE
  5
60
100
AcDbEntity
  8
0
  6
CONTINUOUS
 62
           7
100
AcDbLine
 10
1199.926852
 20
125.788163
 11
1198.686852
 21
125.670163
  0
LINE
  5
5F
100
AcDbEntity
  8
0
  6
CONTINUOUS
 62
           7
100
AcDbLine
 10
1201.186852
 20
125.881163
 11
1199.926852
 21
125.788163
  0
LINE
  5
5E
100
AcDbEntity
  8
0
  6
CONTINUOUS
 62
           7
100
AcDbLine
 10
1202.446852
 20
125.947163
 11
1201.186852
 21
125.881163
  0
LINE
  5
5D
100
AcDbEntity
  8
0
  6
CONTINUOUS
 62
           7
100
AcDbLine
 10
1203.726852
 20
125.987163
 11
1202.446852
 21
125.947163
  0
LINE
  5
5C
100
AcDbEntity
  8
0
  6
CONTINUOUS
 62
           7
100
AcDbLine
 10
1204.996852
 20
126.000163
 11
1203.726852
 21
125.987163
  0
LINE
  5
5B
100
AcDbEntity
  8
0
  6
CONTINUOUS
 62
           7
100
AcDbLine
 10
1206.276852
 20
125.987163
 11
1204.996852
 21
126.000163
  0
LINE
  5
5A
100
AcDbEntity
  8
0
  6
CONTINUOUS
 62
           7
100
AcDbLine
 10
1207.546852
 20
125.947163
 11
1206.276852
 21
125.987163
  0
LINE
  5
59
100
AcDbEntity
  8
0
  6
CONTINUOUS
 62
           7
100
AcDbLine
 10
1208.816852
 20
125.881163
 11
1207.546852
 21
125.947163
  0
LINE
  5
58
100
AcDbEntity
  8
0
  6
CONTINUOUS
 62
           7
100
AcDbLine
 10
1210.076852
 20
125.788163
 11
1208.816852
 21
125.881163
  0
LINE
  5
57
100
AcDbEntity
  8
0
  6
CONTINUOUS
 62
           7
100
AcDbLine
 10
1211.316852
 20
125.670163
 11
1210.076852
 21
125.788163
  0
LINE
  5
56
100
AcDbEntity
  8
0
  6
CONTINUOUS
 62
           7
100
AcDbLine
 10
1212.546852
 20
125.526163
 11
1211.316852
 21
125.670163
  0
LINE
  5
55
100
AcDbEntity
  8
0
  6
CONTINUOUS
 62
           7
100
AcDbLine
 10
1213.756852
 20
125.357163
 11
1212.546852
 21
125.526163
  0
LINE
  5
54
100
AcDbEntity
  8
0
  6
CONTINUOUS
 62
           7
100
AcDbLine
 10
1214.946852
 20
125.163163
 11
1213.756852
 21
125.357163
  0
LINE
  5
53
100
AcDbEntity
  8
0
  6
CONTINUOUS
 62
           7
100
AcDbLine
 10
1216.116852
 20
124.944163
 11
1214.946852
 21
125.163163
  0
LINE
  5
52
100
AcDbEntity
  8
0
  6
CONTINUOUS
 62
           7
100
AcDbLine
 10
1217.256852
 20
124.701163
 11
1216.116852
 21
124.944163
  0
LINE
  5
51
100
AcDbEntity
  8
0
  6
CONTINUOUS
 62
           7
100
AcDbLine
 10
1218.366852
 20
124.435163
 11
1217.256852
 21
124.701163
  0
LINE
  5
50
100
AcDbEntity
  8
0
  6
CONTINUOUS
 62
           7
100
AcDbLine
 10
1219.446852
 20
124.146163
 11
1218.366852
 21
124.435163
  0
LINE
  5
4F
100
AcDbEntity
  8
0
  6
CONTINUOUS
 62
           7
100
AcDbLine
 10
1220.486852
 20
123.835163
 11
1219.446852
 21
124.146163
  0
LINE
  5
4E
100
AcDbEntity
  8
0
  6
CONTINUOUS
 62
           7
100
AcDbLine
 10
1221.496852
 20
123.503163
 11
1220.486852
 21
123.835163
  0
LINE
  5
4D
100
AcDbEntity
  8
0
  6
CONTINUOUS
 62
           7
100
AcDbLine
 10
1222.456852
 20
123.150163
 11
1221.496852
 21
123.503163
  0
LINE
  5
4C
100
AcDbEntity
  8
0
  6
CONTINUOUS
 62
           7
100
AcDbLine
 10
1223.386852
 20
122.778163
 11
1222.456852
 21
123.150163
  0
LINE
  5
4B
100
AcDbEntity
  8
0
  6
CONTINUOUS
 62
           7
100
AcDbLine
 10
1224.266852
 20
122.387163
 11
1223.386852
 21
122.778163
  0
LINE
  5
4A
100
AcDbEntity
  8
0
  6
CONTINUOUS
 62
           7
100
AcDbLine
 10
1225.096852
 20
121.978163
 11
1224.266852
 21
122.387163
  0
LINE
  5
49
100
AcDbEntity
  8
0
  6
CONTINUOUS
 62
           7
100
AcDbLine
 10
1225.886852
 20
121.553163
 11
1225.096852
 21
121.978163
  0
LINE
  5
48
100
AcDbEntity
  8
0
  6
CONTINUOUS
 62
           7
100
AcDbLine
 10
1226.616852
 20
121.111163
 11
1225.886852
 21
121.553163
  0
LINE
  5
47
100
AcDbEntity
  8
0
  6
CONTINUOUS
 62
           7
100
AcDbLine
 10
1227.296852
 20
120.655163
 11
1226.616852
 21
121.111163
  0
LINE
  5
46
100
AcDbEntity
  8
0
  6
CONTINUOUS
 62
           7
100
AcDbLine
 10
1227.926852
 20
120.185163
 11
1227.296852
 21
120.655163
  0
LINE
  5
45
100
AcDbEntity
  8
0
  6
CONTINUOUS
 62
           7
100
AcDbLine
 10
1228.506852
 20
119.703163
 11
1227.926852
 21
120.185163
  0
LINE
  5
44
100
AcDbEntity
  8
0
  6
CONTINUOUS
 62
           7
100
AcDbLine
 10
1229.016852
 20
119.209163
 11
1228.506852
 21
119.703163
  0
LINE
  5
43
100
AcDbEntity
  8
0
  6
CONTINUOUS
 62
           7
100
AcDbLine
 10
1229.476852
 20
118.706163
 11
1229.016852
 21
119.209163
  0
LINE
  5
42
100
AcDbEntity
  8
0
  6
CONTINUOUS
 62
           7
100
AcDbLine
 10
1229.876852
 20
118.193163
 11
1229.476852
 21
118.706163
  0
LINE
  5
41
100
AcDbEntity
  8
0
  6
CONTINUOUS
 62
           7
100
AcDbLine
 10
1230.216852
 20
117.673163
 11
1229.876852
 21
118.193163
  0
LINE
  5
40
100
AcDbEntity
  8
0
  6
CONTINUOUS
 62
           7
100
AcDbLine
 10
1230.496852
 20
117.146163
 11
1230.216852
 21
117.673163
  0
LINE
  5
3F
100
AcDbEntity
  8
0
  6
CONTINUOUS
 62
           7
100
AcDbLine
 10
1230.716852
 20
116.614163
 11
1230.496852
 21
117.146163
  0
LINE
  5
3E
100
AcDbEntity
  8
0
  6
CONTINUOUS
 62
           7
100
AcDbLine
 10
1230.876852
 20
116.078163
 11
1230.716852
 21
116.614163
  0
LINE
  5
3D
100
AcDbEntity
  8
0
  6
CONTINUOUS
 62
           7
100
AcDbLine
 10
1230.966852
 20
115.540163
 11
1230.876852
 21
116.078163
  0
LINE
  5
3C
100
AcDbEntity
  8
0
  6
CONTINUOUS
 62
           7
100
AcDbLine
 10
1230.996852
 20
115.000163
 11
1230.966852
 21
115.540163
  0
LINE
  5
3B
100
AcDbEntity
  8
WANNE
  6
CONTINUOUS
 62
           7
100
AcDbLine
 10
1075.0
 20
100.0
 11
1350.0
 21
100.0
  0
LINE
  5
3A
100
AcDbEntity
  8
WANNE
  6
CONTINUOUS
 62
           7
100
AcDbLine
 10
350.0
 20
100.0
 11
625.0
 21
100.0
  0
LINE
  5
39
100
AcDbEntity
  8
WANNE
  6
CONTINUOUS
 62
           7
100
AcDbLine
 10
625.0
 20
700.0
 11
350.0
 21
700.0
  0
LINE
  5
38
100
AcDbEntity
  8
WANNE
  6
CONTINUOUS
 62
           7
100
AcDbLine
 10
1350.0
 20
700.0
 11
1075.0
 21
700.0
  0
LINE
  5
37
100
AcDbEntity
  8
GEOMETRIE
  6
CONTINUOUS
 62
           7
100
AcDbLine
 10
0.0
 20
0.0
 11
0.0
 21
800.0
  0
LINE
  5
36
100
AcDbEntity
  8
GEOMETRIE
  6
CONTINUOUS
 62
           7
100
AcDbLine
 10
1700.0
 20
0.0
 11
1700.0
 21
800.0
  0
LINE
  5
35
100
AcDbEntity
  8
GEOMETRIE
  6
CONTINUOUS
 62
           7
100
AcDbLine
 10
1700.0
 20
800.0
 11
0.0
 21
800.0
  0
LINE
  5
34
100
AcDbEntity
  8
GEOMETRIE
  6
CONTINUOUS
 62
           7
100
AcDbLine
 10
1700.0
 20
0.0
 11
0.0
 21
0.0
  0
LINE
  5
33
100
AcDbEntity
  8
1
  6
CONTINUOUS
 62
           7
100
AcDbLine
 10
1350.0
 20
663.5
 11
498.777778
 21
663.5
  0
LINE
  5
32
100
AcDbEntity
  8
1
  6
CONTINUOUS
 62
           7
100
AcDbLine
 10
1350.0
 20
136.5
 11
498.777778
 21
136.5
  0
LINE
  5
31
100
AcDbEntity
  8
1
  6
CONTINUOUS
 62
           7
100
AcDbLine
 10
350.0
 20
100.0
 11
498.777778
 21
136.5
  0
LINE
  5
30
100
AcDbEntity
  8
1
  6
CONTINUOUS
 62
           7
100
AcDbLine
 10
349.9
 20
700.0
 11
498.777778
 21
663.5
  0
ENDBLK
  5
D9
100
AcDbEntity
  8
0
100
AcDbBlockEnd
  0
BLOCK
  5
2B
100
AcDbEntity
  8
0
100
AcDbBlockBegin
  2
DLX
 70
           0
 10
0.0
 20
0.0
 30
0.0
  3
DLX
  1

  0
CIRCLE
  5
18D
100
AcDbEntity
  8
1
  6
CONTINUOUS
 62
           3
100
AcDbCircle
 10
722.735875237937
 20
500.878787878755
 40
5.972862778754
  0
CIRCLE
  5
18C
100
AcDbEntity
  8
1
  6
CONTINUOUS
 62
           3
100
AcDbCircle
 10
722.735875237937
 20
500.878787878755
 40
5.530127989696
  0
ARC
  5
18B
100
AcDbEntity
  8
1
  6
CONTINUOUS
 62
           3
100
AcDbCircle
 10
722.942694069316
 20
502.303919921381
 40
2.009798008862
100
AcDbArc
 50
-55.929988464574
 51
86.297888718258
  0
ARC
  5
18A
100
AcDbEntity
  8
1
  6
CONTINUOUS
 62
           3
100
AcDbCircle
 10
722.864376243302
 20
502.264025930551
 40
1.257687287767
100
AcDbArc
 50
-74.800419047056
 51
80.931395238788
  0
ARC
  5
189
100
AcDbEntity
  8
1
  6
CONTINUOUS
 62
           3
100
AcDbCircle
 10
722.789193605106
 20
499.053039389822
 40
1.155889798232
100
AcDbArc
 50
0.985058170482
 51
82.918254632932
  0
ARC
  5
188
100
AcDbEntity
  8
1
  6
CONTINUOUS
 62
           3
100
AcDbCircle
 10
723.514586791596
 20
499.362233682226
 40
1.391870091328
100
AcDbArc
 50
-1.298612665727
 51
66.544866494044
  0
LINE
  5
187
100
AcDbEntity
  8
1
  6
CONTINUOUS
 62
           3
100
AcDbLine
 10
615.328223469318
 20
496.979895810782
 11
615.032820381937
 21
497.978447872363
  0
LINE
  5
186
100
AcDbEntity
  8
1
  6
CONTINUOUS
 62
           3
100
AcDbLine
 10
615.764903150884
 20
498.762204858332
 11
615.032820381937
 21
497.978447872363
  0
LINE
  5
185
100
AcDbEntity
  8
1
  6
CONTINUOUS
 62
           3
100
AcDbLine
 10
650.795927119554
 20
468.237708784527
 11
654.180334610435
 21
482.051175145079
  0
LINE
  5
184
100
AcDbEntity
  8
1
  6
CONTINUOUS
 62
           3
100
AcDbLine
 10
646.607772964315
 20
468.237708784527
 11
649.992180455331
 21
482.051175145079
  0
LINE
  5
183
100
AcDbEntity
  8
1
  6
CONTINUOUS
 62
           3
100
AcDbLine
 10
646.607772964315
 20
468.237708784527
 11
650.795927119554
 21
468.237708784527
  0
LINE
  5
182
100
AcDbEntity
  8
1
  6
CONTINUOUS
 62
           3
100
AcDbLine
 10
645.523798905146
 20
463.813466360341
 11
649.711953060334
 21
463.813466360341
  0
LINE
  5
181
100
AcDbEntity
  8
1
  6
CONTINUOUS
 62
           3
100
AcDbLine
 10
646.327545569439
 20
450.0
 11
652.609776802336
 21
450.0
  0
LINE
  5
180
100
AcDbEntity
  8
1
  6
CONTINUOUS
 62
           3
100
AcDbLine
 10
649.992180455331
 20
482.051175145079
 11
643.709949222466
 21
482.051175145079
  0
LINE
  5
17F
100
AcDbEntity
  8
1
  6
CONTINUOUS
 62
           3
100
AcDbLine
 10
681.403336619289
 20
482.051175145079
 11
673.55054757827
 21
450.0
  0
LINE
  5
17E
100
AcDbEntity
  8
1
  6
CONTINUOUS
 62
           3
100
AcDbLine
 10
674.037131327292
 20
477.626932720839
 11
668.352290404568
 21
454.424242424182
  0
LINE
  5
17D
100
AcDbEntity
  8
1
  6
CONTINUOUS
 62
           3
100
AcDbLine
 10
669.848977172042
 20
477.626932720839
 11
674.037131327292
 21
477.626932720839
  0
LINE
  5
17C
100
AcDbEntity
  8
1
  6
CONTINUOUS
 62
           3
100
AcDbLine
 10
681.403336619289
 20
482.051175145079
 11
664.650719998459
 21
482.051175145079
  0
LINE
  5
17B
100
AcDbEntity
  8
1
  6
CONTINUOUS
 62
           3
100
AcDbLine
 10
664.164136249467
 20
454.424242424182
 11
669.848977172042
 21
477.626932720839
  0
LINE
  5
17A
100
AcDbEntity
  8
1
  6
CONTINUOUS
 62
           3
100
AcDbLine
 10
664.650719998459
 20
482.051175145079
 11
656.797930957462
 21
450.0
  0
LINE
  5
179
100
AcDbEntity
  8
1
  6
CONTINUOUS
 62
           3
100
AcDbLine
 10
668.352290404568
 20
454.424242424182
 11
664.164136249467
 21
454.424242424182
  0
LINE
  5
178
100
AcDbEntity
  8
1
  6
CONTINUOUS
 62
           3
100
AcDbLine
 10
656.797930957462
 20
450.0
 11
673.55054757827
 21
450.0
  0
LINE
  5
177
100
AcDbEntity
  8
1
  6
CONTINUOUS
 62
           3
100
AcDbLine
 10
660.462565843351
 20
482.051175145079
 11
654.180334610435
 21
482.051175145079
  0
LINE
  5
176
100
AcDbEntity
  8
1
  6
CONTINUOUS
 62
           3
100
AcDbLine
 10
643.709949222466
 20
482.051175145079
 11
635.857160181473
 21
450.0
  0
LINE
  5
175
100
AcDbEntity
  8
1
  6
CONTINUOUS
 62
           3
100
AcDbLine
 10
642.139391414261
 20
450.0
 11
645.523798905146
 21
463.813466360341
  0
LINE
  5
174
100
AcDbEntity
  8
1
  6
CONTINUOUS
 62
           3
100
AcDbLine
 10
646.327545569439
 20
450.0
 11
649.711953060334
 21
463.813466360341
  0
LINE
  5
173
100
AcDbEntity
  8
1
  6
CONTINUOUS
 62
           3
100
AcDbLine
 10
652.609776802336
 20
450.0
 11
660.462565843351
 21
482.051175145079
  0
LINE
  5
172
100
AcDbEntity
  8
1
  6
CONTINUOUS
 62
           3
100
AcDbLine
 10
635.857160181473
 20
450.0
 11
642.139391414261
 21
450.0
  0
LINE
  5
171
100
AcDbEntity
  8
1
  6
CONTINUOUS
 62
           3
100
AcDbLine
 10
630.529628686516
 20
470.990569084413
 11
636.811859919322
 21
470.990569084413
  0
LINE
  5
170
100
AcDbEntity
  8
1
  6
CONTINUOUS
 62
           3
100
AcDbLine
 10
632.15558977531
 20
477.626932720839
 11
630.529628686516
 21
470.990569084413
  0
LINE
  5
16F
100
AcDbEntity
  8
1
  6
CONTINUOUS
 62
           3
100
AcDbLine
 10
627.967435620118
 20
477.626932720839
 11
632.15558977531
 21
477.626932720839
  0
LINE
  5
16E
100
AcDbEntity
  8
1
  6
CONTINUOUS
 62
           3
100
AcDbLine
 10
622.282594697488
 20
454.424242424182
 11
627.967435620118
 21
477.626932720839
  0
LINE
  5
16D
100
AcDbEntity
  8
1
  6
CONTINUOUS
 62
           3
100
AcDbLine
 10
626.470748852691
 20
454.424242424182
 11
622.282594697488
 21
454.424242424182
  0
LINE
  5
16C
100
AcDbEntity
  8
1
  6
CONTINUOUS
 62
           3
100
AcDbLine
 10
628.096709941478
 20
461.060606060608
 11
626.470748852691
 21
454.424242424182
  0
LINE
  5
16B
100
AcDbEntity
  8
1
  6
CONTINUOUS
 62
           3
100
AcDbLine
 10
634.378941174266
 20
461.060606060608
 11
628.096709941478
 21
461.060606060608
  0
LINE
  5
16A
100
AcDbEntity
  8
1
  6
CONTINUOUS
 62
           3
100
AcDbLine
 10
631.669006026292
 20
450.0
 11
634.378941174266
 21
461.060606060608
  0
LINE
  5
169
100
AcDbEntity
  8
1
  6
CONTINUOUS
 62
           3
100
AcDbLine
 10
614.916389405538
 20
450.0
 11
631.669006026292
 21
450.0
  0
LINE
  5
168
100
AcDbEntity
  8
1
  6
CONTINUOUS
 62
           3
100
AcDbLine
 10
622.769178446531
 20
482.051175145079
 11
614.916389405538
 21
450.0
  0
LINE
  5
167
100
AcDbEntity
  8
1
  6
CONTINUOUS
 62
           3
100
AcDbLine
 10
639.521795067252
 20
482.051175145079
 11
622.769178446531
 21
482.051175145079
  0
LINE
  5
166
100
AcDbEntity
  8
1
  6
CONTINUOUS
 62
           3
100
AcDbLine
 10
636.811859919322
 20
470.990569084413
 11
639.521795067252
 21
482.051175145079
  0
LINE
  5
165
100
AcDbEntity
  8
1
  6
CONTINUOUS
 62
           3
100
AcDbLine
 10
617.497050232156
 20
477.626932720839
 11
618.581024291314
 21
482.051175145079
  0
LINE
  5
164
100
AcDbEntity
  8
1
  6
CONTINUOUS
 62
           3
100
AcDbLine
 10
607.026664844176
 20
477.626932720839
 11
617.497050232156
 21
477.626932720839
  0
LINE
  5
163
100
AcDbEntity
  8
1
  6
CONTINUOUS
 62
           3
100
AcDbLine
 10
604.593746099163
 20
467.696969696953
 11
607.026664844176
 21
477.626932720839
  0
LINE
  5
162
100
AcDbEntity
  8
1
  6
CONTINUOUS
 62
           3
100
AcDbLine
 10
615.064131487226
 20
467.696969696953
 11
604.593746099163
 21
467.696969696953
  0
LINE
  5
161
100
AcDbEntity
  8
1
  6
CONTINUOUS
 62
           3
100
AcDbLine
 10
610.728235250302
 20
450.0
 11
615.064131487226
 21
467.696969696953
  0
LINE
  5
160
100
AcDbEntity
  8
1
  6
CONTINUOUS
 62
           3
100
AcDbLine
 10
593.97561862948
 20
450.0
 11
610.728235250302
 21
450.0
  0
LINE
  5
15F
100
AcDbEntity
  8
1
  6
CONTINUOUS
 62
           3
100
AcDbLine
 10
595.059592688787
 20
454.424242424182
 11
593.97561862948
 21
450.0
  0
LINE
  5
15E
100
AcDbEntity
  8
1
  6
CONTINUOUS
 62
           3
100
AcDbLine
 10
605.529978076698
 20
454.424242424182
 11
595.059592688787
 21
454.424242424182
  0
LINE
  5
15D
100
AcDbEntity
  8
1
  6
CONTINUOUS
 62
           3
100
AcDbLine
 10
607.697926195116
 20
463.272727272797
 11
605.529978076698
 21
454.424242424182
  0
LINE
  5
15C
100
AcDbEntity
  8
1
  6
CONTINUOUS
 62
           3
100
AcDbLine
 10
597.227540807151
 20
463.272727272797
 11
607.697926195116
 21
463.272727272797
  0
LINE
  5
15B
100
AcDbEntity
  8
1
  6
CONTINUOUS
 62
           3
100
AcDbLine
 10
601.828407670542
 20
482.051175145079
 11
597.227540807151
 21
463.272727272797
  0
LINE
  5
15A
100
AcDbEntity
  8
1
  6
CONTINUOUS
 62
           3
100
AcDbLine
 10
618.581024291314
 20
482.051175145079
 11
601.828407670542
 21
482.051175145079
  0
LINE
  5
159
100
AcDbEntity
  8
1
  6
CONTINUOUS
 62
           3
100
AcDbLine
 10
597.640253515379
 20
482.051175145079
 11
589.787464474364
 21
450.0
  0
LINE
  5
158
100
AcDbEntity
  8
1
  6
CONTINUOUS
 62
           3
100
AcDbLine
 10
591.358022282573
 20
482.051175145079
 11
597.640253515379
 21
482.051175145079
  0
LINE
  5
157
100
AcDbEntity
  8
1
  6
CONTINUOUS
 62
           3
100
AcDbLine
 10
589.787464474364
 20
450.0
 11
571.987809314774
 21
450.0
  0
LINE
  5
156
100
AcDbEntity
  8
1
  6
CONTINUOUS
 62
           3
100
AcDbLine
 10
584.589207300767
 20
454.424242424182
 11
591.358022282573
 21
482.051175145079
  0
LINE
  5
155
100
AcDbEntity
  8
1
  6
CONTINUOUS
 62
           3
100
AcDbLine
 10
579.354014606783
 20
454.424242424182
 11
584.589207300767
 21
454.424242424182
  0
LINE
  5
154
100
AcDbEntity
  8
1
  6
CONTINUOUS
 62
           3
100
AcDbLine
 10
586.122829588577
 20
482.051175145079
 11
579.354014606783
 21
454.424242424182
  0
LINE
  5
153
100
AcDbEntity
  8
1
  6
CONTINUOUS
 62
           3
100
AcDbLine
 10
579.840598355768
 20
482.051175145079
 11
586.122829588577
 21
482.051175145079
  0
LINE
  5
152
100
AcDbEntity
  8
1
  6
CONTINUOUS
 62
           3
100
AcDbLine
 10
571.987809314774
 20
450.0
 11
579.840598355768
 21
482.051175145079
  0
LINE
  5
151
100
AcDbEntity
  8
1
  6
CONTINUOUS
 62
           3
100
AcDbLine
 10
567.799655159648
 20
450.0
 11
550.0
 21
450.0
  0
LINE
  5
150
100
AcDbEntity
  8
1
  6
CONTINUOUS
 62
           3
100
AcDbLine
 10
578.362379348567
 20
493.111781205662
 11
567.799655159648
 21
450.0
  0
LINE
  5
14F
100
AcDbEntity
  8
1
  6
CONTINUOUS
 62
           3
100
AcDbLine
 10
554.389052271275
 20
493.111781205662
 11
578.362379348567
 21
493.111781205662
  0
LINE
  5
14E
100
AcDbEntity
  8
1
  6
CONTINUOUS
 62
           3
100
AcDbLine
 10
553.03408469729
 20
487.581478175405
 11
554.389052271275
 21
493.111781205662
  0
LINE
  5
14D
100
AcDbEntity
  8
1
  6
CONTINUOUS
 62
           3
100
AcDbLine
 10
570.725180541824
 20
487.581478175405
 11
553.03408469729
 21
487.581478175405
  0
LINE
  5
14C
100
AcDbEntity
  8
1
  6
CONTINUOUS
 62
           3
100
AcDbLine
 10
562.601397985942
 20
454.424242424182
 11
570.725180541824
 21
487.581478175405
  0
LINE
  5
14B
100
AcDbEntity
  8
1
  6
CONTINUOUS
 62
           3
100
AcDbLine
 10
557.366205292063
 20
454.424242424182
 11
562.601397985942
 21
454.424242424182
  0
LINE
  5
14A
100
AcDbEntity
  8
1
  6
CONTINUOUS
 62
           3
100
AcDbLine
 10
564.135020273752
 20
482.051175145079
 11
557.366205292063
 21
454.424242424182
  0
LINE
  5
149
100
AcDbEntity
  8
1
  6
CONTINUOUS
 62
           3
100
AcDbLine
 10
557.852789041055
 20
482.051175145079
 11
564.135020273752
 21
482.051175145079
  0
LINE
  5
148
100
AcDbEntity
  8
1
  6
CONTINUOUS
 62
           3
100
AcDbLine
 10
550.0
 20
450.0
 11
557.852789041055
 21
482.051175145079
  0
LINE
  5
147
100
AcDbEntity
  8
1
  6
CONTINUOUS
 62
           3
100
AcDbLine
 10
685.119681233515
 20
456.19393939391
 11
694.164841739606
 21
493.111781205662
  0
LINE
  5
146
100
AcDbEntity
  8
1
  6
CONTINUOUS
 62
           3
100
AcDbLine
 10
694.164841739606
 20
493.111781205662
 11
688.301425922338
 21
493.111781205662
  0
LINE
  5
145
100
AcDbEntity
  8
1
  6
CONTINUOUS
 62
           3
100
AcDbLine
 10
688.301425922338
 20
493.111781205662
 11
677.738701733397
 21
450.0
  0
LINE
  5
144
100
AcDbEntity
  8
1
  6
CONTINUOUS
 62
           3
100
AcDbLine
 10
695.643060746967
 20
482.051175145079
 11
689.958219824279
 21
458.848484848477
  0
LINE
  5
143
100
AcDbEntity
  8
1
  6
CONTINUOUS
 62
           3
100
AcDbLine
 10
689.958219824279
 20
458.848484848477
 11
705.6637979062
 21
458.848484848477
  0
LINE
  5
142
100
AcDbEntity
  8
1
  6
CONTINUOUS
 62
           3
100
AcDbLine
 10
705.6637979062
 20
458.848484848477
 11
711.348638828808
 21
482.051175145079
  0
LINE
  5
141
100
AcDbEntity
  8
1
  6
CONTINUOUS
 62
           3
100
AcDbLine
 10
711.348638828808
 20
482.051175145079
 11
706.113446134885
 21
482.051175145079
  0
LINE
  5
140
100
AcDbEntity
  8
1
  6
CONTINUOUS
 62
           3
100
AcDbLine
 10
706.113446134885
 20
482.051175145079
 11
701.51257927149
 21
463.272727272797
  0
LINE
  5
13F
100
AcDbEntity
  8
1
  6
CONTINUOUS
 62
           3
100
AcDbLine
 10
701.51257927149
 20
463.272727272797
 11
696.277386577538
 21
463.272727272797
  0
LINE
  5
13E
100
AcDbEntity
  8
1
  6
CONTINUOUS
 62
           3
100
AcDbLine
 10
696.277386577538
 20
463.272727272797
 11
700.878253440889
 21
482.051175145079
  0
LINE
  5
13D
100
AcDbEntity
  8
1
  6
CONTINUOUS
 62
           3
100
AcDbLine
 10
700.878253440889
 20
482.051175145079
 11
695.643060746967
 21
482.051175145079
  0
LINE
  5
13C
100
AcDbEntity
  8
1
  6
CONTINUOUS
 62
           3
100
AcDbLine
 10
717.906977584949
 20
482.051175145079
 11
713.861531321934
 21
482.051175145079
  0
LINE
  5
13B
100
AcDbEntity
  8
1
  6
CONTINUOUS
 62
           3
100
AcDbLine
 10
713.861531321934
 20
482.051175145079
 11
717.983826844131
 21
471.415301218661
  0
LINE
  5
13A
100
AcDbEntity
  8
1
  6
CONTINUOUS
 62
           3
100
AcDbLine
 10
717.983826844131
 20
471.415301218661
 11
708.176690399341
 21
458.848484848477
  0
LINE
  5
139
100
AcDbEntity
  8
1
  6
CONTINUOUS
 62
           3
100
AcDbLine
 10
708.176690399341
 20
458.848484848477
 11
712.222136662338
 21
458.848484848477
  0
LINE
  5
138
100
AcDbEntity
  8
1
  6
CONTINUOUS
 62
           3
100
AcDbLine
 10
712.222136662338
 20
458.848484848477
 11
719.32626924244
 21
467.951685370502
  0
LINE
  5
137
100
AcDbEntity
  8
1
  6
CONTINUOUS
 62
           3
100
AcDbLine
 10
719.32626924244
 20
467.951685370502
 11
722.854524937124
 21
458.848484848477
  0
LINE
  5
136
100
AcDbEntity
  8
1
  6
CONTINUOUS
 62
           3
100
AcDbLine
 10
722.854524937124
 20
458.848484848477
 11
726.899971200172
 21
458.848484848477
  0
LINE
  5
135
100
AcDbEntity
  8
1
  6
CONTINUOUS
 62
           3
100
AcDbLine
 10
726.899971200172
 20
458.848484848477
 11
722.029273107168
 21
471.415301218603
  0
LINE
  5
134
100
AcDbEntity
  8
1
  6
CONTINUOUS
 62
           3
100
AcDbLine
 10
722.029273107168
 20
471.415301218603
 11
730.32950315225
 21
482.051175145079
  0
LINE
  5
133
100
AcDbEntity
  8
1
  6
CONTINUOUS
 62
           3
100
AcDbLine
 10
730.32950315225
 20
482.051175145079
 11
726.284056889192
 21
482.051175145079
  0
LINE
  5
132
100
AcDbEntity
  8
1
  6
CONTINUOUS
 62
           3
100
AcDbLine
 10
726.284056889192
 20
482.051175145079
 11
720.686830708906
 21
474.878917066824
  0
LINE
  5
131
100
AcDbEntity
  8
1
  6
CONTINUOUS
 62
           3
100
AcDbLine
 10
720.686830708906
 20
474.878917066824
 11
717.906977584949
 21
482.051175145079
  0
LINE
  5
130
100
AcDbEntity
  8
1
  6
CONTINUOUS
 62
           3
100
AcDbLine
 10
727.928830785688
 20
456.19393939391
 11
730.329503152207
 21
450.0
  0
LINE
  5
12F
100
AcDbEntity
  8
1
  6
CONTINUOUS
 62
           3
100
AcDbLine
 10
727.928830785688
 20
456.19393939391
 11
685.119681233515
 21
456.19393939391
  0
LINE
  5
12E
100
AcDbEntity
  8
1
  6
CONTINUOUS
 62
           3
100
AcDbLine
 10
730.329503152207
 20
450.0
 11
677.738701733397
 21
450.0
  0
LINE
  5
12D
100
AcDbEntity
  8
1
  6
CONTINUOUS
 62
           3
100
AcDbLine
 10
586.738687658966
 20
493.111781205662
 11
589.990609836448
 21
506.38450847832
  0
LINE
  5
12C
100
AcDbEntity
  8
1
  6
CONTINUOUS
 62
           3
100
AcDbLine
 10
589.990609836448
 20
506.38450847832
 11
602.555072302166
 21
506.38450847832
  0
LINE
  5
12B
100
AcDbEntity
  8
1
  6
CONTINUOUS
 62
           3
100
AcDbLine
 10
602.555072302166
 20
506.38450847832
 11
599.303150124491
 21
493.111781205662
  0
LINE
  5
12A
100
AcDbEntity
  8
1
  6
CONTINUOUS
 62
           3
100
AcDbLine
 10
599.303150124491
 20
493.111781205662
 11
586.738687658966
 21
493.111781205662
  0
LINE
  5
129
100
AcDbEntity
  8
1
  6
CONTINUOUS
 62
           3
100
AcDbLine
 10
597.751060076487
 20
495.323902417793
 11
589.374751766132
 21
495.323902417793
  0
LINE
  5
128
100
AcDbEntity
  8
1
  6
CONTINUOUS
 62
           3
100
AcDbLine
 10
599.919008194964
 20
504.172387266269
 11
597.751060076487
 21
495.323902417793
  0
LINE
  5
127
100
AcDbEntity
  8
1
  6
CONTINUOUS
 62
           3
100
AcDbLine
 10
591.542699884474
 20
504.172387266269
 11
599.919008194964
 21
504.172387266269
  0
LINE
  5
126
100
AcDbEntity
  8
1
  6
CONTINUOUS
 62
           3
100
AcDbLine
 10
589.374751766132
 20
495.323902417793
 11
591.542699884474
 21
504.172387266269
  0
LINE
  5
125
100
AcDbEntity
  8
1
  6
CONTINUOUS
 62
           3
100
AcDbLine
 10
605.067964795158
 20
506.38450847832
 11
601.816042617622
 21
493.111781205662
  0
LINE
  5
124
100
AcDbEntity
  8
1
  6
CONTINUOUS
 62
           3
100
AcDbLine
 10
605.067964795158
 20
506.38450847832
 11
617.632427260738
 21
506.38450847832
  0
LINE
  5
123
100
AcDbEntity
  8
1
  6
CONTINUOUS
 62
           3
100
AcDbLine
 10
617.632427260738
 20
506.38450847832
 11
615.764903150884
 21
498.762204858332
  0
LINE
  5
122
100
AcDbEntity
  8
1
  6
CONTINUOUS
 62
           3
100
AcDbLine
 10
614.380505083205
 20
493.111781205662
 11
612.286428005565
 21
493.111781205662
  0
LINE
  5
121
100
AcDbEntity
  8
1
  6
CONTINUOUS
 62
           3
100
AcDbLine
 10
612.286428005565
 20
493.111781205662
 11
613.370402064938
 21
497.536023629844
  0
LINE
  5
120
100
AcDbEntity
  8
1
  6
CONTINUOUS
 62
           3
100
AcDbLine
 10
613.370402064938
 20
497.536023629844
 11
604.994093754409
 21
497.536023629844
  0
LINE
  5
11F
100
AcDbEntity
  8
1
  6
CONTINUOUS
 62
           3
100
AcDbLine
 10
605.536080784001
 20
499.748144842033
 11
613.912389094381
 21
499.748144842033
  0
LINE
  5
11E
100
AcDbEntity
  8
1
  6
CONTINUOUS
 62
           3
100
AcDbLine
 10
613.912389094381
 20
499.748144842033
 11
614.996363153703
 21
504.172387266269
  0
LINE
  5
11D
100
AcDbEntity
  8
1
  6
CONTINUOUS
 62
           3
100
AcDbLine
 10
614.996363153703
 20
504.172387266269
 11
606.620054843184
 21
504.172387266269
  0
LINE
  5
11C
100
AcDbEntity
  8
1
  6
CONTINUOUS
 62
           3
100
AcDbLine
 10
606.620054843184
 20
504.172387266269
 11
605.536080784001
 21
499.748144842033
  0
LINE
  5
11B
100
AcDbEntity
  8
1
  6
CONTINUOUS
 62
           3
100
AcDbLine
 10
615.328223469318
 20
496.979895810782
 11
614.380505083205
 21
493.111781205662
  0
LINE
  5
11A
100
AcDbEntity
  8
1
  6
CONTINUOUS
 62
           3
100
AcDbLine
 10
601.816042617622
 20
493.111781205662
 11
603.910119695298
 21
493.111781205662
  0
LINE
  5
119
100
AcDbEntity
  8
1
  6
CONTINUOUS
 62
           3
100
AcDbLine
 10
603.910119695298
 20
493.111781205662
 11
604.994093754409
 21
497.536023629844
  0
LINE
  5
118
100
AcDbEntity
  8
1
  6
CONTINUOUS
 62
           3
100
AcDbLine
 10
622.239396831465
 20
506.38450847832
 11
620.145319753901
 21
506.38450847832
  0
LINE
  5
117
100
AcDbEntity
  8
1
  6
CONTINUOUS
 62
           3
100
AcDbLine
 10
620.145319753901
 20
506.38450847832
 11
616.893397576336
 21
493.111781205662
  0
LINE
  5
116
100
AcDbEntity
  8
1
  6
CONTINUOUS
 62
           3
100
AcDbLine
 10
616.893397576336
 20
493.111781205662
 11
618.987474654055
 21
493.111781205662
  0
LINE
  5
115
100
AcDbEntity
  8
1
  6
CONTINUOUS
 62
           3
100
AcDbLine
 10
618.987474654055
 20
493.111781205662
 11
622.239396831465
 21
506.38450847832
  0
LINE
  5
114
100
AcDbEntity
  8
1
  6
CONTINUOUS
 62
           3
100
AcDbLine
 10
621.50036714704
 20
493.111781205662
 11
624.752289324584
 21
506.38450847832
  0
LINE
  5
113
100
AcDbEntity
  8
1
  6
CONTINUOUS
 62
           3
100
AcDbLine
 10
624.752289324584
 20
506.38450847832
 11
637.316751790175
 21
506.38450847832
  0
LINE
  5
112
100
AcDbEntity
  8
1
  6
CONTINUOUS
 62
           3
100
AcDbLine
 10
637.316751790175
 20
506.38450847832
 11
636.178579028048
 21
501.739053932891
  0
LINE
  5
111
100
AcDbEntity
  8
1
  6
CONTINUOUS
 62
           3
100
AcDbLine
 10
634.064829612653
 20
493.111781205662
 11
621.50036714704
 21
493.111781205662
  0
LINE
  5
110
100
AcDbEntity
  8
1
  6
CONTINUOUS
 62
           3
100
AcDbLine
 10
632.512739564605
 20
495.323902417793
 11
624.136431254275
 21
495.323902417793
  0
LINE
  5
10F
100
AcDbEntity
  8
1
  6
CONTINUOUS
 62
           3
100
AcDbLine
 10
634.6806876829
 20
504.172387266269
 11
634.084501950522
 21
501.739053932891
  0
LINE
  5
10E
100
AcDbEntity
  8
1
  6
CONTINUOUS
 62
           3
100
AcDbLine
 10
626.304379372603
 20
504.172387266269
 11
634.6806876829
 21
504.172387266269
  0
LINE
  5
10D
100
AcDbEntity
  8
1
  6
CONTINUOUS
 62
           3
100
AcDbLine
 10
624.136431254275
 20
495.323902417793
 11
626.304379372603
 21
504.172387266269
  0
LINE
  5
10C
100
AcDbEntity
  8
1
  6
CONTINUOUS
 62
           3
100
AcDbLine
 10
635.690790701425
 20
499.748144842033
 11
629.408559468619
 21
499.748144842033
  0
LINE
  5
10B
100
AcDbEntity
  8
1
  6
CONTINUOUS
 62
           3
100
AcDbLine
 10
635.690790701425
 20
499.748144842033
 11
634.064829612653
 21
493.111781205662
  0
LINE
  5
10A
100
AcDbEntity
  8
1
  6
CONTINUOUS
 62
           3
100
AcDbLine
 10
629.408559468619
 20
499.748144842033
 11
628.866572438972
 21
497.536023629844
  0
LINE
  5
109
100
AcDbEntity
  8
1
  6
CONTINUOUS
 62
           3
100
AcDbLine
 10
628.866572438972
 20
497.536023629844
 11
633.054726594372
 21
497.536023629844
  0
LINE
  5
108
100
AcDbEntity
  8
1
  6
CONTINUOUS
 62
           3
100
AcDbLine
 10
633.054726594372
 20
497.536023629844
 11
632.512739564605
 21
495.323902417793
  0
LINE
  5
107
100
AcDbEntity
  8
1
  6
CONTINUOUS
 62
           3
100
AcDbLine
 10
634.084501950522
 20
501.739053932891
 11
636.178579028048
 21
501.739053932891
  0
LINE
  5
106
100
AcDbEntity
  8
1
  6
CONTINUOUS
 62
           3
100
AcDbLine
 10
636.577722105769
 20
493.111781205662
 11
638.671799183329
 21
493.111781205662
  0
LINE
  5
105
100
AcDbEntity
  8
1
  6
CONTINUOUS
 62
           3
100
AcDbLine
 10
638.671799183329
 20
493.111781205662
 11
641.923721360898
 21
506.38450847832
  0
LINE
  5
104
100
AcDbEntity
  8
1
  6
CONTINUOUS
 62
           3
100
AcDbLine
 10
639.829644283334
 20
506.38450847832
 11
636.577722105769
 21
493.111781205662
  0
LINE
  5
103
100
AcDbEntity
  8
1
  6
CONTINUOUS
 62
           3
100
AcDbLine
 10
641.923721360898
 20
506.38450847832
 11
639.829644283334
 21
506.38450847832
  0
LINE
  5
102
100
AcDbEntity
  8
1
  6
CONTINUOUS
 62
           3
100
AcDbLine
 10
641.184691676499
 20
493.111781205662
 11
644.436613854014
 21
506.38450847832
  0
LINE
  5
101
100
AcDbEntity
  8
1
  6
CONTINUOUS
 62
           3
100
AcDbLine
 10
644.436613854014
 20
506.38450847832
 11
647.577729470355
 21
506.38450847832
  0
LINE
  5
100
100
AcDbEntity
  8
1
  6
CONTINUOUS
 62
           3
100
AcDbLine
 10
647.577729470355
 20
506.38450847832
 11
652.06156733663
 21
494.770872114746
  0
LINE
  5
FF
100
AcDbEntity
  8
1
  6
CONTINUOUS
 62
           3
100
AcDbLine
 10
652.06156733663
 20
494.770872114746
 11
654.906999241983
 21
506.38450847832
  0
LINE
  5
FE
100
AcDbEntity
  8
1
  6
CONTINUOUS
 62
           3
100
AcDbLine
 10
654.906999241983
 20
506.38450847832
 11
657.001076319597
 21
506.38450847832
  0
LINE
  5
FD
100
AcDbEntity
  8
1
  6
CONTINUOUS
 62
           3
100
AcDbLine
 10
657.001076319597
 20
506.38450847832
 11
653.749154141977
 21
493.111781205662
  0
LINE
  5
FC
100
AcDbEntity
  8
1
  6
CONTINUOUS
 62
           3
100
AcDbLine
 10
653.749154141977
 20
493.111781205662
 11
650.506475653208
 21
493.111781205662
  0
LINE
  5
FB
100
AcDbEntity
  8
1
  6
CONTINUOUS
 62
           3
100
AcDbLine
 10
650.506475653208
 20
493.111781205662
 11
646.725319317498
 21
502.905394629535
  0
LINE
  5
FA
100
AcDbEntity
  8
1
  6
CONTINUOUS
 62
           3
100
AcDbLine
 10
646.725319317498
 20
502.905394629535
 11
646.084771050988
 21
504.564485538598
  0
LINE
  5
F9
100
AcDbEntity
  8
1
  6
CONTINUOUS
 62
           3
100
AcDbLine
 10
646.084771050988
 20
504.564485538598
 11
643.278768754059
 21
493.111781205662
  0
LINE
  5
F8
100
AcDbEntity
  8
1
  6
CONTINUOUS
 62
           3
100
AcDbLine
 10
643.278768754059
 20
493.111781205662
 11
641.184691676499
 21
493.111781205662
  0
LINE
  5
F7
100
AcDbEntity
  8
1
  6
CONTINUOUS
 62
           3
100
AcDbLine
 10
656.262046635093
 20
493.111781205662
 11
663.77347691399
 21
506.38450847832
  0
LINE
  5
F6
100
AcDbEntity
  8
1
  6
CONTINUOUS
 62
           3
100
AcDbLine
 10
663.77347691399
 20
506.38450847832
 11
667.818923176965
 21
506.38450847832
  0
LINE
  5
F5
100
AcDbEntity
  8
1
  6
CONTINUOUS
 62
           3
100
AcDbLine
 10
667.818923176965
 20
506.38450847832
 11
668.826509100727
 21
493.111781205662
  0
LINE
  5
F4
100
AcDbEntity
  8
1
  6
CONTINUOUS
 62
           3
100
AcDbLine
 10
668.826509100727
 20
493.111781205662
 11
666.796826937658
 21
493.111781205662
  0
LINE
  5
F3
100
AcDbEntity
  8
1
  6
CONTINUOUS
 62
           3
100
AcDbLine
 10
666.796826937658
 20
493.111781205662
 11
666.628895950391
 21
495.323902417793
  0
LINE
  5
F2
100
AcDbEntity
  8
1
  6
CONTINUOUS
 62
           3
100
AcDbLine
 10
666.628895950391
 20
495.323902417793
 11
659.892748670027
 21
495.323902417793
  0
LINE
  5
F1
100
AcDbEntity
  8
1
  6
CONTINUOUS
 62
           3
100
AcDbLine
 10
659.892748670027
 20
495.323902417793
 11
658.640843623664
 21
493.111781205662
  0
LINE
  5
F0
100
AcDbEntity
  8
1
  6
CONTINUOUS
 62
           3
100
AcDbLine
 10
658.640843623664
 20
493.111781205662
 11
656.262046635093
 21
493.111781205662
  0
LINE
  5
EF
100
AcDbEntity
  8
1
  6
CONTINUOUS
 62
           3
100
AcDbLine
 10
661.144653716558
 20
497.536023629844
 11
666.460964963069
 21
497.536023629844
  0
LINE
  5
EE
100
AcDbEntity
  8
1
  6
CONTINUOUS
 62
           3
100
AcDbLine
 10
666.460964963069
 20
497.536023629844
 11
665.957172001214
 21
504.172387266269
  0
LINE
  5
ED
100
AcDbEntity
  8
1
  6
CONTINUOUS
 62
           3
100
AcDbLine
 10
665.957172001214
 20
504.172387266269
 11
664.900368855924
 21
504.172387266269
  0
LINE
  5
EC
100
AcDbEntity
  8
1
  6
CONTINUOUS
 62
           3
100
AcDbLine
 10
661.144653716558
 20
497.536023629844
 11
664.900368855924
 21
504.172387266269
  0
LINE
  5
EB
100
AcDbEntity
  8
1
  6
CONTINUOUS
 62
           3
100
AcDbLine
 10
674.591323771416
 20
506.38450847832
 11
671.339401593847
 21
493.111781205662
  0
LINE
  5
EA
100
AcDbEntity
  8
1
  6
CONTINUOUS
 62
           3
100
AcDbLine
 10
671.339401593847
 20
493.111781205662
 11
683.903864059426
 21
493.111781205662
  0
LINE
  5
E9
100
AcDbEntity
  8
1
  6
CONTINUOUS
 62
           3
100
AcDbLine
 10
683.903864059426
 20
493.111781205662
 11
684.445851089087
 21
495.323902417793
  0
LINE
  5
E8
100
AcDbEntity
  8
1
  6
CONTINUOUS
 62
           3
100
AcDbLine
 10
684.445851089087
 20
495.323902417793
 11
673.975465701067
 21
495.323902417793
  0
LINE
  5
E7
100
AcDbEntity
  8
1
  6
CONTINUOUS
 62
           3
100
AcDbLine
 10
673.975465701067
 20
495.323902417793
 11
676.68540084903
 21
506.38450847832
  0
LINE
  5
E6
100
AcDbEntity
  8
1
  6
CONTINUOUS
 62
           3
100
AcDbLine
 10
676.68540084903
 20
506.38450847832
 11
674.591323771416
 21
506.38450847832
  0
LINE
  5
E5
100
AcDbEntity
  8
1
  6
CONTINUOUS
 62
           3
100
AcDbLine
 10
721.206636135699
 20
500.200111213842
 11
721.206636135699
 21
497.451055788282
  0
LINE
  5
E4
100
AcDbEntity
  8
1
  6
CONTINUOUS
 62
           3
100
AcDbLine
 10
720.334188436584
 20
497.451055788282
 11
720.334188436584
 21
504.309523963456
  0
LINE
  5
E3
100
AcDbEntity
  8
1
  6
CONTINUOUS
 62
           3
100
AcDbLine
 10
720.334188436584
 20
504.309523963456
 11
722.776108295824
 21
504.309523963456
  0
LINE
  5
E2
100
AcDbEntity
  8
1
  6
CONTINUOUS
 62
           3
100
AcDbLine
 10
722.776108295824
 20
504.309523963456
 11
723.072464878176
 21
504.309523963456
  0
LINE
  5
E1
100
AcDbEntity
  8
1
  6
CONTINUOUS
 62
           3
100
AcDbLine
 10
724.906099392742
 20
499.330689554626
 11
724.906099392742
 21
497.451055788282
  0
LINE
  5
E0
100
AcDbEntity
  8
1
  6
CONTINUOUS
 62
           3
100
AcDbLine
 10
724.906099392742
 20
497.451055788282
 11
723.944912577237
 21
497.451055788282
  0
LINE
  5
DF
100
AcDbEntity
  8
1
  6
CONTINUOUS
 62
           3
100
AcDbLine
 10
723.944912577237
 20
497.451055788282
 11
723.944912577237
 21
499.0729110559
  0
LINE
  5
DE
100
AcDbEntity
  8
1
  6
CONTINUOUS
 62
           3
100
AcDbLine
 10
722.931697837317
 20
500.200111213842
 11
721.206636135699
 21
500.200111213842
  0
LINE
  5
DD
100
AcDbEntity
  8
1
  6
CONTINUOUS
 62
           3
100
AcDbLine
 10
721.206636135699
 20
497.451055788282
 11
720.334188436584
 21
497.451055788282
  0
LINE
  5
DC
100
AcDbEntity
  8
1
  6
CONTINUOUS
 62
           3
100
AcDbLine
 10
721.206636135699
 20
501.050334541276
 11
723.194119363641
 21
501.050334541276
  0
LINE
  5
DB
100
AcDbEntity
  8
1
  6
CONTINUOUS
 62
           3
100
AcDbLine
 10
723.062609127785
 20
503.505992531278
 11
721.206636135699
 21
503.505992531278
  0
LINE
  5
DA
100
AcDbEntity
  8
1
  6
CONTINUOUS
 62
           3
100
AcDbLine
 10
721.206636135699
 20
503.505992531278
 11
721.206636135699
 21
501.050334541276
  0
ENDBLK
  5
18E
100
AcDbEntity
  8
0
100
AcDbBlockEnd
  0
ENDSEC
  0
SECTION
  2
ENTITIES
  0
TEXT
  5
192
100
AcDbEntity
  8
1
 62
           2
100
AcDbText
 10
550.0
 20
285.0
 40
35.0
  1
ANCONA Vario 243
 41
0.71262
  7
CONVERTER_1
100
AcDbText
  0
MTEXT
  5
191
100
AcDbEntity
  8
1
 62
           3
100
AcDbMText
 10
1155.0
 20
450.0
 30
0.0
 40
35.0
 41
0.0
 71
           9
 72
           1
  1
ø 52
  7
CONVERTER_1
  0
INSERT
  5
2E
100
AcDbEntity
  8
0
100
AcDbBlockReference
  2
WANNE_ANCONA_VARIO_243
 10
0.0
 20
0.0
  0
INSERT
  5
2F
100
AcDbEntity
  8
0
100
AcDbBlockReference
  2
DLX
 10
0.0
 20
0.0
  0
ENDSEC
  0
SECTION
  2
OBJECTS
  0
DICTIONARY
  5
19
100
AcDbDictionary
  3
ACAD_GROUP
350
1A
  3
ACAD_MLINESTYLE
350
1B
  0
DICTIONARY
  5
1A
102
{ACAD_REACTORS
330
19
102
}
100
AcDbDictionary
  0
DICTIONARY
  5
1B
102
{ACAD_REACTORS
330
19
102
}
100
AcDbDictionary
  3
STANDARD
350
1C
  0
MLINESTYLE
  5
1C
102
{ACAD_REACTORS
330
1B
102
}
100
AcDbMlineStyle
  2
STANDARD
 70
           0
  3

 62
           0
 51
90.0
 52
90.0
 71
           2
 49
0.5
 62
         256
  6
BYLAYER
 49
-0.5
 62
         256
  6
BYLAYER
  0
ENDSEC
  0
EOF
