  0
SECTION
  2
HEADER
  9
$ACADVER
  1
AC1014
  9
$ACADMAINTVER
 70
           0
  9
$DWGCODEPAGE
  3
ANSI_1252
  9
$INSBASE
 10
0.0
 20
0.0
 30
0.0
  9
$EXTMIN
 10
1.000000000000E+20
 20
1.000000000000E+20
 30
1.000000000000E+20
  9
$EXTMAX
 10
-1.000000000000E+20
 20
-1.000000000000E+20
 30
-1.000000000000E+20
  9
$LIMMIN
 10
0.0
 20
0.0
  9
$LIMMAX
 10
0.0
 20
0.0
  9
$ORTHOMODE
 70
           0
  9
$REGENMODE
 70
           1
  9
$FILLMODE
 70
           1
  9
$QTEXTMODE
 70
           0
  9
$MIRRTEXT
 70
           1
  9
$DRAGMODE
 70
           2
  9
$LTSCALE
 40
1.0
  9
$OSMODE
 70
           0
  9
$ATTMODE
 70
           1
  9
$TEXTSIZE
 40
0.2
  9
$TRACEWID
 40
0.05
  9
$TEXTSTYLE
  7
STANDARD
  9
$CLAYER
  8
0
  9
$CELTYPE
  6
CONTINUOUS
  9
$CECOLOR
 62
         256
  9
$CELTSCALE
 40
1.0
  9
$DELOBJ
 70
           1
  9
$DISPSILH
 70
           0
  9
$DIMSCALE
 40
1.0
  9
$DIMASZ
 40
0.18
  9
$DIMEXO
 40
0.0625
  9
$DIMDLI
 40
0.38
  9
$DIMRND
 40
0.0
  9
$DIMDLE
 40
0.0
  9
$DIMEXE
 40
0.18
  9
$DIMTP
 40
0.0
  9
$DIMTM
 40
0.0
  9
$DIMTXT
 40
0.18
  9
$DIMCEN
 40
0.09
  9
$DIMTSZ
 40
0.0
  9
$DIMTOL
 70
           0
  9
$DIMLIM
 70
           0
  9
$DIMTIH
 70
           1
  9
$DIMTOH
 70
           1
  9
$DIMSE1
 70
           0
  9
$DIMSE2
 70
           0
  9
$DIMTAD
 70
           0
  9
$DIMZIN
 70
           0
  9
$DIMBLK
  1

  9
$DIMASO
 70
           1
  9
$DIMSHO
 70
           1
  9
$DIMPOST
  1

  9
$DIMAPOST
  1

  9
$DIMALT
 70
           0
  9
$DIMALTD
 70
           2
  9
$DIMALTF
 40
25.4
  9
$DIMLFAC
 40
1.0
  9
$DIMTOFL
 70
           0
  9
$DIMTVP
 40
0.0
  9
$DIMTIX
 70
           0
  9
$DIMSOXD
 70
           0
  9
$DIMSAH
 70
           0
  9
$DIMBLK1
  1

  9
$DIMBLK2
  1

  9
$DIMSTYLE
  2
STANDARD
  9
$DIMCLRD
 70
           0
  9
$DIMCLRE
 70
           0
  9
$DIMCLRT
 70
           0
  9
$DIMTFAC
 40
1.0
  9
$DIMGAP
 40
0.09
  9
$DIMJUST
 70
           0
  9
$DIMSD1
 70
           0
  9
$DIMSD2
 70
           0
  9
$DIMTOLJ
 70
           1
  9
$DIMTZIN
 70
           0
  9
$DIMALTZ
 70
           0
  9
$DIMALTTZ
 70
           0
  9
$DIMFIT
 70
           3
  9
$DIMUPT
 70
           0
  9
$DIMUNIT
 70
           2
  9
$DIMDEC
 70
           4
  9
$DIMTDEC
 70
           4
  9
$DIMALTU
 70
           2
  9
$DIMALTTD
 70
           2
  9
$DIMTXSTY
  7
STANDARD
  9
$DIMAUNIT
 70
           0
  9
$LUNITS
 70
           2
  9
$LUPREC
 70
           4
  9
$SKETCHINC
 40
0.1
  9
$FILLETRAD
 40
0.0
  9
$AUNITS
 70
           0
  9
$AUPREC
 70
           0
  9
$MENU
  1
acad
  9
$ELEVATION
 40
0.0
  9
$PELEVATION
 40
0.0
  9
$THICKNESS
 40
0.0
  9
$LIMCHECK
 70
           0
  9
$BLIPMODE
 70
           1
  9
$CHAMFERA
 40
0.0
  9
$CHAMFERB
 40
0.0
  9
$CHAMFERC
 40
0.0
  9
$CHAMFERD
 40
0.0
  9
$SKPOLY
 70
           0
  9
$TDCREATE
 40
0.000000000
  9
$TDUPDATE
 40
0.000000000
  9
$TDINDWG
 40
0.0000000000
  9
$TDUSRTIMER
 40
0.0000000000
  9
$USRTIMER
 70
           1
  9
$ANGBASE
 50
0.0
  9
$ANGDIR
 70
           0
  9
$PDMODE
 70
           0
  9
$PDSIZE
 40
0.0
  9
$PLINEWID
 40
0.0
  9
$COORDS
 70
           0
  9
$SPLFRAME
 70
           0
  9
$SPLINETYPE
 70
           6
  9
$SPLINESEGS
 70
           8
  9
$ATTDIA
 70
           0
  9
$ATTREQ
 70
           1
  9
$HANDLING
 70
           1
  9
$HANDSEED
  5
1C8
  9
$SURFTAB1
 70
           6
  9
$SURFTAB2
 70
           6
  9
$SURFTYPE
 70
           6
  9
$SURFU
 70
           6
  9
$SURFV
 70
           6
  9
$UCSNAME
  2

  9
$UCSORG
 10
0.0
 20
0.0
 30
0.0
  9
$UCSXDIR
 10
1.0
 20
0.0
 30
0.0
  9
$UCSYDIR
 10
0.0
 20
1.0
 30
0.0
  9
$PUCSNAME
  2

  9
$PUCSORG
 10
0.0
 20
0.0
 30
0.0
  9
$PUCSXDIR
 10
1.0
 20
0.0
 30
0.0
  9
$PUCSYDIR
 10
0.0
 20
1.0
 30
0.0
  9
$USERI1
 70
           0
  9
$USERI2
 70
           0
  9
$USERI3
 70
           0
  9
$USERI4
 70
           0
  9
$USERI5
 70
           0
  9
$USERR1
 40
0.0
  9
$USERR2
 40
0.0
  9
$USERR3
 40
0.0
  9
$USERR4
 40
0.0
  9
$USERR5
 40
0.0
  9
$WORLDVIEW
 70
           1
  9
$SHADEDGE
 70
           3
  9
$SHADEDIF
 70
          70
  9
$TILEMODE
 70
           1
  9
$MAXACTVP
 70
          16
  9
$PINSBASE
 10
0.0
 20
0.0
 30
0.0
  9
$PLIMCHECK
 70
           0
  9
$PEXTMIN
 10
1.000000000000E+20
 20
1.000000000000E+20
 30
1.000000000000E+20
  9
$PEXTMAX
 10
-1.000000000000E+20
 20
-1.000000000000E+20
 30
-1.000000000000E+20
  9
$PLIMMIN
 10
0.0
 20
0.0
  9
$PLIMMAX
 10
12.0
 20
9.0
  9
$UNITMODE
 70
           0
  9
$VISRETAIN
 70
           0
  9
$PLINEGEN
 70
           1
  9
$PSLTSCALE
 70
           0
  9
$TREEDEPTH
 70
        3020
  9
$PICKSTYLE
 70
           1
  9
$CMLSTYLE
  2
STANDARD
  9
$CMLJUST
 70
           0
  9
$CMLSCALE
 40
1.0
  9
$PROXYGRAPHICS
 70
           0
  9
$MEASUREMENT
 70
           0
  0
ENDSEC
  0
SECTION
  2
CLASSES
  0
CLASS
  1
LWPOLYLINE
  2
AcDbPolyline
  3
"AutoCAD"
 90
        0
280
           0
281
           1
  0
CLASS
  1
IMAGE
  2
AcDbRasterImage
  3
ISM
 90
      127
280
           0
281
           1
  0
CLASS
  1
OLE2FRAME
  2
AcDbOle2Frame
  3
""
 90
        0
280
           0
281
           1
  0
CLASS
  1
HATCH
  2
AcDbHatch
  3
"ACAD_SEDONA"
 90
        0
280
           0
281
           1
  0
CLASS
  1
DICTIONARYVAR
  2
AcDbDictionaryVar
  3
"AutoCAD"
 90
        0
280
           0
281
           0
  0
CLASS
  1
RASTERVARIABLES
  2
AcDbRasterVariables
  3
ISM
 90
        0
280
           0
281
           0
  0
CLASS
  1
IMAGEDEF
  2
AcDbRasterImageDef
  3
ISM
 90
        0
280
           0
281
           0
  0
CLASS
  1
IMAGEDEF_REACTOR
  2
AcDbRasterImageDefReactor
  3
ISM
 90
        1
280
           0
281
           0
  0
CLASS
  1
IDBUFFER
  2
AcDbIdBuffer
  3
"Acad"
 90
        0
280
           0
281
           0
  0
CLASS
  1
SPATIAL_FILTER
  2
AcDbSpatialFilter
  3
"Acad"
 90
        0
280
           0
281
           0
  0
CLASS
  1
XRECORD
  2
AcDbXrecord
  3
"<Built In>"
 90
        0
280
           0
281
           0
  0
CLASS
  1
SORTENTSTABLE
  2
AcDbSortentsTable
  3
"AutoCAD"
 90
        0
280
           0
281
           0
  0
CLASS
  1
LAYER_INDEX
  2
AcDbLayerIndex
  3
"Acad"
 90
        0
280
           0
281
           0
  0
CLASS
  1
SPATIAL_INDEX
  2
AcDbSpatialIndex
  3
"Acad"
 90
        0
280
           0
281
           0
  0
CLASS
  1
OBJECT_PTR
  2
CAseDLPNTableRecord
  3
"ASE-LPNTableRecord"
 90
        1
280
           0
281
           0
  0
CLASS
  1
LAYOUT
  2
AcDbLayout
  3
"AutoCAD 2000"
 90
        1
280
           0
281
           0
  0
CLASS
  1
PLOTSETTINGS
  2
AcDbPlotSettings
  3
"AutoCAD 2000"
 90
        1
280
           0
281
           0
  0
CLASS
  1
ACDBDICTIONARYWDFLT
  2
AcDbDictionaryWithDefault
  3
"AutoCAD 2000"
 90
        1
280
           0
281
           0
  0
CLASS
  1
ACDBPLACEHOLDER
  2
AcDbPlaceHolder
  3
"AutoCAD 2000"
 90
        1
280
           0
281
           0
  0
CLASS
  1
VBA_PROJECT
  2
AcDbVbaProject
  3
"acadvba"
 90
        1
280
           0
281
           0
  0
CLASS
  1
WIPEOUT
  2
AcDbWipeout
  3
WipeOut|AutoCAD Express Tool|expresstools@autodesk.com
 90
      127
280
           0
281
           1
  0
CLASS
  1
WIPEOUTVARIABLES
  2
AcDbWipeoutVariables
  3
WipeOut|AutoCAD Express Tool|expresstools@autodesk.com
 90
        0
280
           0
281
           0
  0
CLASS
  1
RTEXT
  2
RText
  3
RText|AutoCAD Express Tool|expresstools@autodesk.com
 90
        0
280
           0
281
           1
  0
CLASS
  1
ARCALIGNEDTEXT
  2
AcDbArcAlignedText
  3
ATEXT|AutoCAD Express Tool|expresstools@autodesk.com
 90
        0
280
           0
281
           1
  0
ENDSEC
  0
SECTION
  2
TABLES
  0
TABLE
  2
VPORT
  5
7
100
AcDbSymbolTable
 70
           1
  0
VPORT
  5
15
100
AcDbSymbolTableRecord
100
AcDbViewportTableRecord
  2
*ACTIVE
 70
           0
 10
0.0
 20
0.0
 11
1.0
 21
1.0
 12
6.591288
 22
4.579184
 13
0.0
 23
0.0
 14
1.0
 24
1.0
 15
0.0
 25
0.0
 16
0.0
 26
0.0
 36
1.0
 17
0.0
 27
0.0
 37
0.0
 40
9.158369
 41
0.688564
 42
50.0
 43
0.0
 44
0.0
 50
0.0
 51
0.0
 71
           0
 72
         100
 73
           1
 74
           1
 75
           0
 76
           0
 77
           0
 78
           0
  0
ENDTAB
  0
TABLE
  2
LTYPE
  5
4
100
AcDbSymbolTable
 70
          10
  0
LTYPE
  5
11
100
AcDbSymbolTableRecord
100
AcDbLinetypeTableRecord
  2
BYBLOCK
 70
          64
  3

 72
          65
 73
           0
 40
0.0
  0
LTYPE
  5
12
100
AcDbSymbolTableRecord
100
AcDbLinetypeTableRecord
  2
BYLAYER
 70
          64
  3

 72
          65
 73
           0
 40
0.0
  0
LTYPE
  5
13
100
AcDbSymbolTableRecord
100
AcDbLinetypeTableRecord
  2
CONTINUOUS
 70
          64
  3
Solid line
 72
          65
 73
           0
 40
0.0
  0
LTYPE
  5
1D
100
AcDbSymbolTableRecord
100
AcDbLinetypeTableRecord
  2
DASHED
 70
          64
  3
Dashed
 72
          65
 73
           2
 40
15.0
 49
12.0
 74
           0
 49
-3.0
 74
           0
  0
LTYPE
  5
1E
100
AcDbSymbolTableRecord
100
AcDbLinetypeTableRecord
  2
DOTTED
 70
          64
  3
Dotted
 72
          65
 73
           2
 40
3.5
 49
0.5
 74
           0
 49
-3.0
 74
           0
  0
LTYPE
  5
1F
100
AcDbSymbolTableRecord
100
AcDbLinetypeTableRecord
  2
DOT_CENTER
 70
          64
  3
Dot_Center
 72
          65
 73
           4
 40
2.0
 49
1.25
 74
           0
 49
-0.25
 74
           0
 49
0.25
 74
           0
 49
-0.25
 74
           0
  0
LTYPE
  5
20
100
AcDbSymbolTableRecord
100
AcDbLinetypeTableRecord
  2
LONG_DASHED
 70
          64
  3
Long_Dashed
 72
          65
 73
           2
 40
2.0
 49
1.5
 74
           0
 49
-0.5
 74
           0
  0
LTYPE
  5
21
100
AcDbSymbolTableRecord
100
AcDbLinetypeTableRecord
  2
DASH_CENTER
 70
          64
  3
Dash_Center
 72
          65
 73
           4
 40
36.0
 49
24.0
 74
           0
 49
-3.0
 74
           0
 49
6.0
 74
           0
 49
-3.0
 74
           0
  0
LTYPE
  5
22
100
AcDbSymbolTableRecord
100
AcDbLinetypeTableRecord
  2
PHANTOM
 70
          64
  3
Phantom
 72
          65
 73
           6
 40
2.5
 49
1.25
 74
           0
 49
-0.25
 74
           0
 49
0.25
 74
           0
 49
-0.25
 74
           0
 49
0.25
 74
           0
 49
-0.25
 74
           0
  0
LTYPE
  5
23
100
AcDbSymbolTableRecord
100
AcDbLinetypeTableRecord
  2
CENTER_DASH_DASH
 70
          64
  3
Center_Dash_Dash
 72
          65
 73
           6
 40
22.0
 49
12.0
 74
           0
 49
-3.0
 74
           0
 49
0.5
 74
           0
 49
-3.0
 74
           0
 49
0.5
 74
           0
 49
-3.0
 74
           0
  0
ENDTAB
  0
TABLE
  2
LAYER
  5
2
100
AcDbSymbolTable
 70
           2
  0
LAYER
  5
14
100
AcDbSymbolTableRecord
100
AcDbLayerTableRecord
  2
0
 70
           0
 62
           7
  6
CONTINUOUS
  0
LAYER
  5
24
100
AcDbSymbolTableRecord
100
AcDbLayerTableRecord
  2
1
 70
           0
 62
           7
  6
CONTINUOUS
  0
ENDTAB
  0
TABLE
  2
STYLE
  5
3
100
AcDbSymbolTable
 70
           2
  0
STYLE
  5
17
100
AcDbSymbolTableRecord
100
AcDbTextStyleTableRecord
  2
STANDARD
 70
           0
 40
0.0
 41
1.0
 50
0.0
 71
           0
 42
0.0
  3
txt
  4

  0
STYLE
  5
1C2
100
AcDbSymbolTableRecord
100
AcDbTextStyleTableRecord
  2
CONVERTER_1
 70
           0
 40
0.0
 41
0.71262
 50
0.0
 71
           0
 42
0.0
  3
txt.shx
  4

  0
ENDTAB
  0
TABLE
  2
VIEW
  5
5
100
AcDbSymbolTable
 70
           0
  0
ENDTAB
  0
TABLE
  2
UCS
  5
6
100
AcDbSymbolTable
 70
           0
  0
ENDTAB
  0
TABLE
  2
APPID
  5
8
100
AcDbSymbolTable
 70
           1
  0
APPID
  5
16
100
AcDbSymbolTableRecord
100
AcDbRegAppTableRecord
  2
ACAD
 70
           0
  0
ENDTAB
  0
TABLE
  2
DIMSTYLE
  5
9
100
AcDbSymbolTable
 70
           1
  0
DIMSTYLE
105
18
100
AcDbSymbolTableRecord
100
AcDbDimStyleTableRecord
  2
STANDARD
 70
           0
  3

  4

  5

  6

  7

 40
1.0
 41
0.18
 42
0.0625
 43
0.38
 44
0.18
 45
0.0
 46
0.0
 47
0.0
 48
0.0
 71
           0
 72
           0
 73
           1
 74
           1
 75
           0
 76
           0
 77
           0
 78
           0
140
0.18
141
0.09
142
0.0
143
25.4
144
1.0
145
0.0
146
1.0
147
0.09
170
           0
171
           2
172
           0
173
           0
174
           0
175
           0
176
           0
177
           0
178
           0
270
           2
271
           4
272
           4
273
           2
274
           2
275
           0
280
           0
281
           0
282
           0
283
           1
284
           0
285
           0
286
           0
287
           0
288
           0
340
17
  0
ENDTAB
  0
TABLE
  2
BLOCK_RECORD
  5
1
100
AcDbSymbolTable
 70
           3
  0
BLOCK_RECORD
  5
A
100
AcDbSymbolTableRecord
100
AcDbBlockTableRecord
  2
*MODEL_SPACE
  0
BLOCK_RECORD
  5
B
100
AcDbSymbolTableRecord
100
AcDbBlockTableRecord
  2
*PAPER_SPACE
  0
BLOCK_RECORD
  5
25
100
AcDbSymbolTableRecord
100
AcDbBlockTableRecord
  2
WANNENF_SSE
  0
BLOCK_RECORD
  5
27
100
AcDbSymbolTableRecord
100
AcDbBlockTableRecord
  2
WANNE_CAPRIVI_580
  0
BLOCK_RECORD
  5
2A
100
AcDbSymbolTableRecord
100
AcDbBlockTableRecord
  2
DLX
  0
ENDTAB
  0
ENDSEC
  0
SECTION
  2
BLOCKS
  0
BLOCK
  5
D
100
AcDbEntity
  8
0
100
AcDbBlockBegin
  2
*MODEL_SPACE
 70
           0
 10
0.0
 20
0.0
 30
0.0
  3
*MODEL_SPACE
  1

  0
ENDBLK
  5
E
100
AcDbEntity
  8
0
100
AcDbBlockEnd
  0
BLOCK
  5
F
100
AcDbEntity
 67
           1
  8
0
100
AcDbBlockBegin
  2
*PAPER_SPACE
 70
           0
 10
0.0
 20
0.0
 30
0.0
  3
*PAPER_SPACE
  1

  0
ENDBLK
  5
10
100
AcDbEntity
 67
           1
  8
0
100
AcDbBlockEnd
  0
BLOCK
  5
26
100
AcDbEntity
  8
0
100
AcDbBlockBegin
  2
WANNENF_SSE
 70
           0
 10
0.0
 20
0.0
 30
0.0
  3
WANNENF_SSE
  1

  0
LINE
  5
C5
100
AcDbEntity
  8
1
  6
CONTINUOUS
 62
           2
100
AcDbLine
 10
599.788126681055
 20
112.444399391356
 11
599.641339159936
 21
107.446554513446
  0
LINE
  5
C4
100
AcDbEntity
  8
1
  6
CONTINUOUS
 62
           2
100
AcDbLine
 10
605.0795466012
 20
122.293301626056
 11
604.785971558964
 21
112.297611870237
  0
LINE
  5
C3
100
AcDbEntity
  8
1
  6
CONTINUOUS
 62
           2
100
AcDbLine
 10
620.073081234928
 20
121.8529390627
 11
620.219868756046
 21
126.850783940609
  0
LINE
  5
C2
100
AcDbEntity
  8
1
  6
CONTINUOUS
 62
           2
100
AcDbLine
 10
600.22848924441
 20
127.437934025084
 11
620.219868756046
 21
126.850783940609
  0
LINE
  5
C1
100
AcDbEntity
  8
1
  6
CONTINUOUS
 62
           2
100
AcDbLine
 10
599.934914202173
 20
117.442244269265
 11
600.22848924441
 21
127.437934025084
  0
LINE
  5
C0
100
AcDbEntity
  8
1
  6
CONTINUOUS
 62
           2
100
AcDbLine
 10
594.790281803145
 20
112.591186912474
 11
594.937069324264
 21
117.589031790384
  0
LINE
  5
BF
100
AcDbEntity
  8
1
  6
CONTINUOUS
 62
           2
100
AcDbLine
 10
559.80536765778
 20
113.618699560304
 11
559.658580136662
 21
108.620854682395
  0
LINE
  5
BE
100
AcDbEntity
  8
1
  6
CONTINUOUS
 62
           2
100
AcDbLine
 10
564.950000056808
 20
118.469756917095
 11
564.80321253569
 21
113.471912039186
  0
LINE
  5
BD
100
AcDbEntity
  8
1
  6
CONTINUOUS
 62
           2
100
AcDbLine
 10
555.101097822108
 20
123.761176837241
 11
554.807522779871
 21
113.765487081423
  0
LINE
  5
BC
100
AcDbEntity
  8
1
  6
CONTINUOUS
 62
           2
100
AcDbLine
 10
560.245730221136
 20
128.612234194032
 11
559.952155178899
 21
118.616544438213
  0
LINE
  5
BB
100
AcDbEntity
  8
1
  6
CONTINUOUS
 62
           2
100
AcDbLine
 10
540.254350709499
 20
129.199384278506
 11
560.245730221136
 21
128.612234194032
  0
LINE
  5
BA
100
AcDbEntity
  8
1
  6
CONTINUOUS
 62
           2
100
AcDbLine
 10
540.10756318838
 20
124.201539400597
 11
540.254350709499
 21
129.199384278506
  0
LINE
  5
B9
100
AcDbEntity
  8
1
  6
CONTINUOUS
 62
           2
100
AcDbLine
 10
585.18129648954
 20
85.475516864572
 11
585.18129648954
 21
107.871248330623
  0
LINE
  5
B8
100
AcDbEntity
  8
1
  6
CONTINUOUS
 62
           2
100
AcDbLine
 10
575.18129648954
 20
85.475516864572
 11
575.18129648954
 21
108.164949965436
  0
LINE
  5
B7
100
AcDbEntity
  8
1
  6
CONTINUOUS
 62
           2
100
AcDbLine
 10
595.18129648954
 20
55.475516864572
 11
590.18129648954
 21
85.475516864572
  0
LINE
  5
B6
100
AcDbEntity
  8
1
  6
CONTINUOUS
 62
           2
100
AcDbLine
 10
565.18129648954
 20
55.475516864572
 11
570.18129648954
 21
85.475516864572
  0
LINE
  5
B5
100
AcDbEntity
  8
1
  6
CONTINUOUS
 62
           2
100
AcDbLine
 10
565.18129648954
 20
25.475516864572
 11
565.18129648954
 21
55.475516864572
  0
LINE
  5
B4
100
AcDbEntity
  8
1
  6
CONTINUOUS
 62
           2
100
AcDbLine
 10
595.18129648954
 20
25.475516864572
 11
595.18129648954
 21
55.475516864572
  0
LINE
  5
B3
100
AcDbEntity
  8
1
  6
CONTINUOUS
 62
           2
100
AcDbLine
 10
600.18129648954
 20
0.0
 11
600.18129648954
 21
25.475516864572
  0
LINE
  5
B2
100
AcDbEntity
  8
1
  6
CONTINUOUS
 62
           2
100
AcDbLine
 10
560.18129648954
 20
0.0
 11
560.18129648954
 21
25.475516864572
  0
LINE
  5
B1
100
AcDbEntity
  8
1
  6
CONTINUOUS
 62
           2
100
AcDbLine
 10
594.937069324264
 20
117.589031790384
 11
599.934914202173
 21
117.442244269265
  0
LINE
  5
B0
100
AcDbEntity
  8
1
  6
CONTINUOUS
 62
           2
100
AcDbLine
 10
559.952155178899
 20
118.616544438213
 11
564.950000056808
 21
118.469756917095
  0
LINE
  5
AF
100
AcDbEntity
  8
1
  6
CONTINUOUS
 62
           2
100
AcDbLine
 10
605.0795466012
 20
122.293301626056
 11
620.073081234928
 21
121.8529390627
  0
LINE
  5
AE
100
AcDbEntity
  8
1
  6
CONTINUOUS
 62
           2
100
AcDbLine
 10
540.10756318838
 20
124.201539400597
 11
555.101097822108
 21
123.761176837241
  0
LINE
  5
AD
100
AcDbEntity
  8
1
  6
CONTINUOUS
 62
           2
100
AcDbLine
 10
599.788126681055
 20
112.444399391356
 11
604.785971558964
 21
112.297611870237
  0
LINE
  5
AC
100
AcDbEntity
  8
1
  6
CONTINUOUS
 62
           2
100
AcDbLine
 10
564.80321253569
 20
113.471912039186
 11
594.790281803145
 21
112.591186912474
  0
LINE
  5
AB
100
AcDbEntity
  8
1
  6
CONTINUOUS
 62
           2
100
AcDbLine
 10
554.807522779871
 20
113.765487081423
 11
559.80536765778
 21
113.618699560304
  0
LINE
  5
AA
100
AcDbEntity
  8
1
  6
CONTINUOUS
 62
           2
100
AcDbLine
 10
559.658580136662
 20
108.620854682395
 11
599.641339159936
 21
107.446554513446
  0
LINE
  5
A9
100
AcDbEntity
  8
1
  6
CONTINUOUS
 62
           2
100
AcDbLine
 10
570.18129648954
 20
85.475516864572
 11
590.18129648954
 21
85.475516864572
  0
LINE
  5
A8
100
AcDbEntity
  8
1
  6
CONTINUOUS
 62
           2
100
AcDbLine
 10
565.18129648954
 20
55.475516864572
 11
595.18129648954
 21
55.475516864572
  0
LINE
  5
A7
100
AcDbEntity
  8
1
  6
CONTINUOUS
 62
           2
100
AcDbLine
 10
560.18129648954
 20
25.475516864572
 11
600.18129648954
 21
25.475516864572
  0
LINE
  5
A6
100
AcDbEntity
  8
1
  6
CONTINUOUS
 62
           2
100
AcDbLine
 10
585.18129648954
 20
374.65878509371
 11
585.18129648954
 21
418.082580439012
  0
LINE
  5
A5
100
AcDbEntity
  8
1
  6
CONTINUOUS
 62
           2
100
AcDbLine
 10
575.18129648954
 20
374.65878509371
 11
575.18129648954
 21
418.082580439012
  0
LINE
  5
A4
100
AcDbEntity
  8
1
  6
CONTINUOUS
 62
           2
100
AcDbLine
 10
590.18129648954
 20
418.082580439012
 11
595.18129648954
 21
448.082580439012
  0
LINE
  5
A3
100
AcDbEntity
  8
1
  6
CONTINUOUS
 62
           2
100
AcDbLine
 10
570.18129648954
 20
418.082580439012
 11
565.18129648954
 21
448.082580439012
  0
LINE
  5
A2
100
AcDbEntity
  8
1
  6
CONTINUOUS
 62
           2
100
AcDbLine
 10
565.18129648954
 20
448.082580439012
 11
565.18129648954
 21
478.082580439012
  0
LINE
  5
A1
100
AcDbEntity
  8
1
  6
CONTINUOUS
 62
           2
100
AcDbLine
 10
595.18129648954
 20
448.082580439012
 11
595.18129648954
 21
478.082580439012
  0
LINE
  5
A0
100
AcDbEntity
  8
1
  6
CONTINUOUS
 62
           2
100
AcDbLine
 10
600.18129648954
 20
478.082580439012
 11
600.18129648954
 21
503.082580439012
  0
LINE
  5
9F
100
AcDbEntity
  8
1
  6
CONTINUOUS
 62
           2
100
AcDbLine
 10
560.18129648954
 20
478.082580439012
 11
560.18129648954
 21
503.082580439012
  0
LINE
  5
9E
100
AcDbEntity
  8
1
  6
CONTINUOUS
 62
           2
100
AcDbLine
 10
590.18129648954
 20
418.082580439012
 11
570.18129648954
 21
418.082580439012
  0
LINE
  5
9D
100
AcDbEntity
  8
1
  6
CONTINUOUS
 62
           2
100
AcDbLine
 10
595.18129648954
 20
448.082580439012
 11
565.18129648954
 21
448.082580439012
  0
LINE
  5
9C
100
AcDbEntity
  8
1
  6
CONTINUOUS
 62
           2
100
AcDbLine
 10
600.18129648954
 20
478.082580439012
 11
560.18129648954
 21
478.082580439012
  0
LINE
  5
9B
100
AcDbEntity
  8
1
  6
CONTINUOUS
 62
           2
100
AcDbLine
 10
560.18129648954
 20
503.082580439012
 11
600.18129648954
 21
503.082580439012
  0
LINE
  5
9A
100
AcDbEntity
  8
1
  6
CONTINUOUS
 62
           2
100
AcDbLine
 10
569.678092897833
 20
374.65878509371
 11
590.817700797241
 21
374.65878509371
  0
LINE
  5
99
100
AcDbEntity
  8
1
  6
CONTINUOUS
 62
           2
100
AcDbLine
 10
590.817700797241
 20
374.65878509371
 11
590.817700797241
 21
112.707862266061
  0
LINE
  5
98
100
AcDbEntity
  8
1
  6
CONTINUOUS
 62
           2
100
AcDbLine
 10
569.678092897833
 20
374.65878509371
 11
569.678092897833
 21
113.328736005998
  0
LINE
  5
97
100
AcDbEntity
  8
1
  6
CONTINUOUS
 62
           2
100
AcDbLine
 10
1492.972984518214
 20
110.714609830124
 11
1492.826196997095
 21
115.712454708033
  0
LINE
  5
96
100
AcDbEntity
  8
1
  6
CONTINUOUS
 62
           2
100
AcDbLine
 10
1487.828352119186
 20
115.565667186915
 11
1487.53477707695
 21
125.561356942733
  0
LINE
  5
95
100
AcDbEntity
  8
1
  6
CONTINUOUS
 62
           2
100
AcDbLine
 10
1472.394454922104
 20
130.118839257287
 11
1472.541242443222
 21
125.120994379378
  0
LINE
  5
94
100
AcDbEntity
  8
1
  6
CONTINUOUS
 62
           2
100
AcDbLine
 10
1472.394454922104
 20
130.118839257287
 11
1492.385834433741
 21
130.705989341761
  0
LINE
  5
93
100
AcDbEntity
  8
1
  6
CONTINUOUS
 62
           2
100
AcDbLine
 10
1492.385834433741
 20
130.705989341761
 11
1492.679409475977
 21
120.710299585942
  0
LINE
  5
92
100
AcDbEntity
  8
1
  6
CONTINUOUS
 62
           2
100
AcDbLine
 10
1497.677254353886
 20
120.857087107061
 11
1497.824041875005
 21
115.859242229152
  0
LINE
  5
91
100
AcDbEntity
  8
1
  6
CONTINUOUS
 62
           2
100
AcDbLine
 10
1532.955743541488
 20
111.888909999072
 11
1532.80895602037
 21
116.886754876982
  0
LINE
  5
90
100
AcDbEntity
  8
1
  6
CONTINUOUS
 62
           2
100
AcDbLine
 10
1527.81111114246
 20
116.739967355863
 11
1527.664323621342
 21
121.737812233772
  0
LINE
  5
8F
100
AcDbEntity
  8
1
  6
CONTINUOUS
 62
           2
100
AcDbLine
 10
1537.806800898279
 20
117.0335423981
 11
1537.513225856042
 21
127.029232153919
  0
LINE
  5
8E
100
AcDbEntity
  8
1
  6
CONTINUOUS
 62
           2
100
AcDbLine
 10
1532.662168499251
 20
121.884599754891
 11
1532.368593457014
 21
131.880289510709
  0
LINE
  5
8D
100
AcDbEntity
  8
1
  6
CONTINUOUS
 62
           2
100
AcDbLine
 10
1532.368593457014
 20
131.880289510709
 11
1552.359972968651
 21
132.467439595183
  0
LINE
  5
8C
100
AcDbEntity
  8
1
  6
CONTINUOUS
 62
           2
100
AcDbLine
 10
1552.359972968651
 20
132.467439595183
 11
1552.50676048977
 21
127.469594717275
  0
LINE
  5
8B
100
AcDbEntity
  8
1
  6
CONTINUOUS
 62
           2
100
AcDbLine
 10
1517.43302718861
 20
85.475516864572
 11
1517.43302718861
 21
111.433005282114
  0
LINE
  5
8A
100
AcDbEntity
  8
1
  6
CONTINUOUS
 62
           2
100
AcDbLine
 10
1507.43302718861
 20
85.475516864572
 11
1507.43302718861
 21
111.1393036473
  0
LINE
  5
89
100
AcDbEntity
  8
1
  6
CONTINUOUS
 62
           2
100
AcDbLine
 10
1527.43302718861
 20
55.475516864572
 11
1522.43302718861
 21
85.475516864572
  0
LINE
  5
88
100
AcDbEntity
  8
1
  6
CONTINUOUS
 62
           2
100
AcDbLine
 10
1497.43302718861
 20
55.475516864572
 11
1502.43302718861
 21
85.475516864572
  0
LINE
  5
87
100
AcDbEntity
  8
1
  6
CONTINUOUS
 62
           2
100
AcDbLine
 10
1497.43302718861
 20
25.475516864572
 11
1497.43302718861
 21
55.475516864572
  0
LINE
  5
86
100
AcDbEntity
  8
1
  6
CONTINUOUS
 62
           2
100
AcDbLine
 10
1527.43302718861
 20
25.475516864572
 11
1527.43302718861
 21
55.475516864572
  0
LINE
  5
85
100
AcDbEntity
  8
1
  6
CONTINUOUS
 62
           2
100
AcDbLine
 10
1532.43302718861
 20
0.0
 11
1532.43302718861
 21
25.475516864572
  0
LINE
  5
84
100
AcDbEntity
  8
1
  6
CONTINUOUS
 62
           2
100
AcDbLine
 10
1492.43302718861
 20
0.0
 11
1492.43302718861
 21
25.475516864572
  0
LINE
  5
83
100
AcDbEntity
  8
1
  6
CONTINUOUS
 62
           2
100
AcDbLine
 10
1492.679409475977
 20
120.710299585942
 11
1497.677254353886
 21
120.857087107061
  0
LINE
  5
82
100
AcDbEntity
  8
1
  6
CONTINUOUS
 62
           2
100
AcDbLine
 10
1527.664323621342
 20
121.737812233772
 11
1532.662168499251
 21
121.884599754891
  0
LINE
  5
81
100
AcDbEntity
  8
1
  6
CONTINUOUS
 62
           2
100
AcDbLine
 10
1472.541242443222
 20
125.120994379378
 11
1487.53477707695
 21
125.561356942733
  0
LINE
  5
80
100
AcDbEntity
  8
1
  6
CONTINUOUS
 62
           2
100
AcDbLine
 10
1537.513225856042
 20
127.029232153919
 11
1552.50676048977
 21
127.469594717275
  0
LINE
  5
7F
100
AcDbEntity
  8
1
  6
CONTINUOUS
 62
           2
100
AcDbLine
 10
1487.828352119186
 20
115.565667186915
 11
1492.826196997095
 21
115.712454708033
  0
LINE
  5
7E
100
AcDbEntity
  8
1
  6
CONTINUOUS
 62
           2
100
AcDbLine
 10
1497.824041875005
 20
115.859242229152
 11
1527.81111114246
 21
116.739967355863
  0
LINE
  5
7D
100
AcDbEntity
  8
1
  6
CONTINUOUS
 62
           2
100
AcDbLine
 10
1532.80895602037
 20
116.886754876982
 11
1537.806800898279
 21
117.0335423981
  0
LINE
  5
7C
100
AcDbEntity
  8
1
  6
CONTINUOUS
 62
           2
100
AcDbLine
 10
1492.972984518214
 20
110.714609830124
 11
1532.955743541488
 21
111.888909999072
  0
LINE
  5
7B
100
AcDbEntity
  8
1
  6
CONTINUOUS
 62
           2
100
AcDbLine
 10
1502.43302718861
 20
85.475516864572
 11
1522.43302718861
 21
85.475516864572
  0
LINE
  5
7A
100
AcDbEntity
  8
1
  6
CONTINUOUS
 62
           2
100
AcDbLine
 10
1497.43302718861
 20
55.475516864572
 11
1527.43302718861
 21
55.475516864572
  0
LINE
  5
79
100
AcDbEntity
  8
1
  6
CONTINUOUS
 62
           2
100
AcDbLine
 10
1492.43302718861
 20
25.475516864572
 11
1532.43302718861
 21
25.475516864572
  0
LINE
  5
78
100
AcDbEntity
  8
1
  6
CONTINUOUS
 62
           2
100
AcDbLine
 10
1517.43302718861
 20
379.65878509371
 11
1517.43302718861
 21
423.082580439012
  0
LINE
  5
77
100
AcDbEntity
  8
1
  6
CONTINUOUS
 62
           2
100
AcDbLine
 10
1507.43302718861
 20
379.65878509371
 11
1507.43302718861
 21
423.082580439012
  0
LINE
  5
76
100
AcDbEntity
  8
1
  6
CONTINUOUS
 62
           2
100
AcDbLine
 10
1522.43302718861
 20
423.082580439012
 11
1527.43302718861
 21
453.082580439012
  0
LINE
  5
75
100
AcDbEntity
  8
1
  6
CONTINUOUS
 62
           2
100
AcDbLine
 10
1502.43302718861
 20
423.082580439012
 11
1497.43302718861
 21
453.082580439012
  0
LINE
  5
74
100
AcDbEntity
  8
1
  6
CONTINUOUS
 62
           2
100
AcDbLine
 10
1497.43302718861
 20
453.082580439012
 11
1497.43302718861
 21
483.082580439012
  0
LINE
  5
73
100
AcDbEntity
  8
1
  6
CONTINUOUS
 62
           2
100
AcDbLine
 10
1527.43302718861
 20
453.082580439012
 11
1527.43302718861
 21
483.082580439012
  0
LINE
  5
72
100
AcDbEntity
  8
1
  6
CONTINUOUS
 62
           2
100
AcDbLine
 10
1532.43302718861
 20
483.082580439012
 11
1532.43302718861
 21
508.082580439012
  0
LINE
  5
71
100
AcDbEntity
  8
1
  6
CONTINUOUS
 62
           2
100
AcDbLine
 10
1492.43302718861
 20
483.082580439012
 11
1492.43302718861
 21
508.082580439012
  0
LINE
  5
70
100
AcDbEntity
  8
1
  6
CONTINUOUS
 62
           2
100
AcDbLine
 10
1522.43302718861
 20
423.082580439012
 11
1502.43302718861
 21
423.082580439012
  0
LINE
  5
6F
100
AcDbEntity
  8
1
  6
CONTINUOUS
 62
           2
100
AcDbLine
 10
1527.43302718861
 20
453.082580439012
 11
1497.43302718861
 21
453.082580439012
  0
LINE
  5
6E
100
AcDbEntity
  8
1
  6
CONTINUOUS
 62
           2
100
AcDbLine
 10
1532.43302718861
 20
483.082580439012
 11
1492.43302718861
 21
483.082580439012
  0
LINE
  5
6D
100
AcDbEntity
  8
1
  6
CONTINUOUS
 62
           2
100
AcDbLine
 10
1492.43302718861
 20
508.082580439012
 11
1532.43302718861
 21
508.082580439012
  0
LINE
  5
6C
100
AcDbEntity
  8
1
  6
CONTINUOUS
 62
           2
100
AcDbLine
 10
1501.929823596904
 20
379.65878509371
 11
1523.069431496311
 21
379.65878509371
  0
LINE
  5
6B
100
AcDbEntity
  8
1
  6
CONTINUOUS
 62
           2
100
AcDbLine
 10
1523.069431496311
 20
379.65878509371
 11
1523.069431496311
 21
116.60070344948
  0
LINE
  5
6A
100
AcDbEntity
  8
1
  6
CONTINUOUS
 62
           2
100
AcDbLine
 10
1501.929823596904
 20
379.65878509371
 11
1501.929823596904
 21
115.979829709543
  0
LINE
  5
69
100
AcDbEntity
  8
1
  6
CONTINUOUS
 62
           2
100
AcDbLine
 10
1915.479534327849
 20
85.475516864572
 11
1915.479534327849
 21
89.320962925161
  0
LINE
  5
68
100
AcDbEntity
  8
1
  6
CONTINUOUS
 62
           2
100
AcDbLine
 10
1905.479534327849
 20
85.475516864572
 11
1905.479534327849
 21
89.320962925161
  0
LINE
  5
67
100
AcDbEntity
  8
1
  6
CONTINUOUS
 62
           2
100
AcDbLine
 10
1925.479534327849
 20
55.475516864572
 11
1920.479534327849
 21
85.475516864572
  0
LINE
  5
66
100
AcDbEntity
  8
1
  6
CONTINUOUS
 62
           2
100
AcDbLine
 10
1895.479534327849
 20
55.475516864572
 11
1900.479534327849
 21
85.475516864572
  0
LINE
  5
65
100
AcDbEntity
  8
1
  6
CONTINUOUS
 62
           2
100
AcDbLine
 10
1895.479534327849
 20
25.475516864572
 11
1895.479534327849
 21
55.475516864572
  0
LINE
  5
64
100
AcDbEntity
  8
1
  6
CONTINUOUS
 62
           2
100
AcDbLine
 10
1925.479534327849
 20
25.475516864572
 11
1925.479534327849
 21
55.475516864572
  0
LINE
  5
63
100
AcDbEntity
  8
1
  6
CONTINUOUS
 62
           2
100
AcDbLine
 10
1930.479534327849
 20
0.0
 11
1930.479534327849
 21
25.475516864572
  0
LINE
  5
62
100
AcDbEntity
  8
1
  6
CONTINUOUS
 62
           2
100
AcDbLine
 10
1890.479534327849
 20
0.0
 11
1890.479534327849
 21
25.475516864572
  0
LINE
  5
61
100
AcDbEntity
  8
1
  6
CONTINUOUS
 62
           2
100
AcDbLine
 10
1900.479534327849
 20
85.475516864572
 11
1920.479534327849
 21
85.475516864572
  0
LINE
  5
60
100
AcDbEntity
  8
1
  6
CONTINUOUS
 62
           2
100
AcDbLine
 10
1895.479534327849
 20
55.475516864572
 11
1925.479534327849
 21
55.475516864572
  0
LINE
  5
5F
100
AcDbEntity
  8
1
  6
CONTINUOUS
 62
           2
100
AcDbLine
 10
1890.479534327849
 20
25.475516864572
 11
1930.479534327849
 21
25.475516864572
  0
LINE
  5
5E
100
AcDbEntity
  8
1
  6
CONTINUOUS
 62
           2
100
AcDbLine
 10
1915.479534327849
 20
268.630840620241
 11
1915.479534327849
 21
312.054635965542
  0
LINE
  5
5D
100
AcDbEntity
  8
1
  6
CONTINUOUS
 62
           2
100
AcDbLine
 10
1905.479534327849
 20
268.630840620241
 11
1905.479534327849
 21
312.054635965542
  0
LINE
  5
5C
100
AcDbEntity
  8
1
  6
CONTINUOUS
 62
           2
100
AcDbLine
 10
1920.479534327849
 20
312.054635965542
 11
1925.479534327849
 21
342.054635965542
  0
LINE
  5
5B
100
AcDbEntity
  8
1
  6
CONTINUOUS
 62
           2
100
AcDbLine
 10
1900.479534327849
 20
312.054635965542
 11
1895.479534327849
 21
342.054635965542
  0
LINE
  5
5A
100
AcDbEntity
  8
1
  6
CONTINUOUS
 62
           2
100
AcDbLine
 10
1895.479534327849
 20
342.054635965542
 11
1895.479534327849
 21
372.054635965542
  0
LINE
  5
59
100
AcDbEntity
  8
1
  6
CONTINUOUS
 62
           2
100
AcDbLine
 10
1925.479534327849
 20
342.054635965542
 11
1925.479534327849
 21
372.054635965542
  0
LINE
  5
58
100
AcDbEntity
  8
1
  6
CONTINUOUS
 62
           2
100
AcDbLine
 10
1930.479534327849
 20
372.054635965542
 11
1930.479534327849
 21
397.054635965542
  0
LINE
  5
57
100
AcDbEntity
  8
1
  6
CONTINUOUS
 62
           2
100
AcDbLine
 10
1890.479534327849
 20
372.054635965542
 11
1890.479534327849
 21
397.054635965542
  0
LINE
  5
56
100
AcDbEntity
  8
1
  6
CONTINUOUS
 62
           2
100
AcDbLine
 10
1920.479534327849
 20
312.054635965542
 11
1900.479534327849
 21
312.054635965542
  0
LINE
  5
55
100
AcDbEntity
  8
1
  6
CONTINUOUS
 62
           2
100
AcDbLine
 10
1925.479534327849
 20
342.054635965542
 11
1895.479534327849
 21
342.054635965542
  0
LINE
  5
54
100
AcDbEntity
  8
1
  6
CONTINUOUS
 62
           2
100
AcDbLine
 10
1930.479534327849
 20
372.054635965542
 11
1890.479534327849
 21
372.054635965542
  0
LINE
  5
53
100
AcDbEntity
  8
1
  6
CONTINUOUS
 62
           2
100
AcDbLine
 10
1890.479534327849
 20
397.054635965542
 11
1930.479534327849
 21
397.054635965542
  0
LINE
  5
52
100
AcDbEntity
  8
1
  6
CONTINUOUS
 62
           2
100
AcDbLine
 10
1899.976330736142
 20
268.630840620241
 11
1921.11593863555
 21
268.630840620241
  0
LINE
  5
51
100
AcDbEntity
  8
1
  6
CONTINUOUS
 62
           2
100
AcDbLine
 10
1921.11593863555
 20
268.630840620241
 11
1921.11593863555
 21
89.320962925161
  0
LINE
  5
50
100
AcDbEntity
  8
1
  6
CONTINUOUS
 62
           2
100
AcDbLine
 10
1899.976330736142
 20
268.630840620241
 11
1899.976330736142
 21
89.320962925161
  0
LINE
  5
4F
100
AcDbEntity
  8
1
  6
CONTINUOUS
 62
           2
100
AcDbLine
 10
1899.976330736142
 20
89.320962925161
 11
1921.11593863555
 21
89.320962925161
  0
LINE
  5
4E
100
AcDbEntity
  8
1
  6
CONTINUOUS
 62
           2
100
AcDbLine
 10
73.072647227704
 20
85.475516864572
 11
73.072647227704
 21
89.320962925161
  0
LINE
  5
4D
100
AcDbEntity
  8
1
  6
CONTINUOUS
 62
           2
100
AcDbLine
 10
63.072647227704
 20
85.475516864572
 11
63.072647227704
 21
89.320962925161
  0
LINE
  5
4C
100
AcDbEntity
  8
1
  6
CONTINUOUS
 62
           2
100
AcDbLine
 10
83.072647227704
 20
55.475516864572
 11
78.072647227704
 21
85.475516864572
  0
LINE
  5
4B
100
AcDbEntity
  8
1
  6
CONTINUOUS
 62
           2
100
AcDbLine
 10
53.072647227704
 20
55.475516864572
 11
58.072647227704
 21
85.475516864572
  0
LINE
  5
4A
100
AcDbEntity
  8
1
  6
CONTINUOUS
 62
           2
100
AcDbLine
 10
53.072647227704
 20
25.475516864572
 11
53.072647227704
 21
55.475516864572
  0
LINE
  5
49
100
AcDbEntity
  8
1
  6
CONTINUOUS
 62
           2
100
AcDbLine
 10
83.072647227704
 20
25.475516864572
 11
83.072647227704
 21
55.475516864572
  0
LINE
  5
48
100
AcDbEntity
  8
1
  6
CONTINUOUS
 62
           2
100
AcDbLine
 10
88.072647227704
 20
0.0
 11
88.072647227704
 21
25.475516864572
  0
LINE
  5
47
100
AcDbEntity
  8
1
  6
CONTINUOUS
 62
           2
100
AcDbLine
 10
48.072647227704
 20
0.0
 11
48.072647227704
 21
25.475516864572
  0
LINE
  5
46
100
AcDbEntity
  8
1
  6
CONTINUOUS
 62
           2
100
AcDbLine
 10
58.072647227704
 20
85.475516864572
 11
78.072647227704
 21
85.475516864572
  0
LINE
  5
45
100
AcDbEntity
  8
1
  6
CONTINUOUS
 62
           2
100
AcDbLine
 10
53.072647227704
 20
55.475516864572
 11
83.072647227704
 21
55.475516864572
  0
LINE
  5
44
100
AcDbEntity
  8
1
  6
CONTINUOUS
 62
           2
100
AcDbLine
 10
48.072647227704
 20
25.475516864572
 11
88.072647227704
 21
25.475516864572
  0
LINE
  5
43
100
AcDbEntity
  8
1
  6
CONTINUOUS
 62
           2
100
AcDbLine
 10
73.072647227704
 20
268.630840620241
 11
73.072647227704
 21
312.054635965542
  0
LINE
  5
42
100
AcDbEntity
  8
1
  6
CONTINUOUS
 62
           2
100
AcDbLine
 10
63.072647227704
 20
268.630840620241
 11
63.072647227704
 21
312.054635965542
  0
LINE
  5
41
100
AcDbEntity
  8
1
  6
CONTINUOUS
 62
           2
100
AcDbLine
 10
78.072647227704
 20
312.054635965542
 11
83.072647227704
 21
342.054635965542
  0
LINE
  5
40
100
AcDbEntity
  8
1
  6
CONTINUOUS
 62
           2
100
AcDbLine
 10
58.072647227704
 20
312.054635965542
 11
53.072647227704
 21
342.054635965542
  0
LINE
  5
3F
100
AcDbEntity
  8
1
  6
CONTINUOUS
 62
           2
100
AcDbLine
 10
53.072647227704
 20
342.054635965542
 11
53.072647227704
 21
372.054635965542
  0
LINE
  5
3E
100
AcDbEntity
  8
1
  6
CONTINUOUS
 62
           2
100
AcDbLine
 10
83.072647227704
 20
342.054635965542
 11
83.072647227704
 21
372.054635965542
  0
LINE
  5
3D
100
AcDbEntity
  8
1
  6
CONTINUOUS
 62
           2
100
AcDbLine
 10
88.072647227704
 20
372.054635965542
 11
88.072647227704
 21
397.054635965542
  0
LINE
  5
3C
100
AcDbEntity
  8
1
  6
CONTINUOUS
 62
           2
100
AcDbLine
 10
48.072647227704
 20
372.054635965542
 11
48.072647227704
 21
397.054635965542
  0
LINE
  5
3B
100
AcDbEntity
  8
1
  6
CONTINUOUS
 62
           2
100
AcDbLine
 10
78.072647227704
 20
312.054635965542
 11
58.072647227704
 21
312.054635965542
  0
LINE
  5
3A
100
AcDbEntity
  8
1
  6
CONTINUOUS
 62
           2
100
AcDbLine
 10
83.072647227704
 20
342.054635965542
 11
53.072647227704
 21
342.054635965542
  0
LINE
  5
39
100
AcDbEntity
  8
1
  6
CONTINUOUS
 62
           2
100
AcDbLine
 10
88.072647227704
 20
372.054635965542
 11
48.072647227704
 21
372.054635965542
  0
LINE
  5
38
100
AcDbEntity
  8
1
  6
CONTINUOUS
 62
           2
100
AcDbLine
 10
48.072647227704
 20
397.054635965542
 11
88.072647227704
 21
397.054635965542
  0
LINE
  5
37
100
AcDbEntity
  8
1
  6
CONTINUOUS
 62
           2
100
AcDbLine
 10
57.569443635998
 20
268.630840620241
 11
78.709051535405
 21
268.630840620241
  0
LINE
  5
36
100
AcDbEntity
  8
1
  6
CONTINUOUS
 62
           2
100
AcDbLine
 10
78.709051535405
 20
268.630840620241
 11
78.709051535405
 21
89.320962925161
  0
LINE
  5
35
100
AcDbEntity
  8
1
  6
CONTINUOUS
 62
           2
100
AcDbLine
 10
57.569443635998
 20
268.630840620241
 11
57.569443635998
 21
89.320962925161
  0
LINE
  5
34
100
AcDbEntity
  8
1
  6
CONTINUOUS
 62
           2
100
AcDbLine
 10
57.569443635998
 20
89.320962925161
 11
78.709051535405
 21
89.320962925161
  0
LINE
  5
33
100
AcDbEntity
  8
1
  6
CONTINUOUS
 62
           2
100
AcDbLine
 10
1537.770454135314
 20
118.271082767547
 11
1899.892002619079
 21
118.271082767547
  0
LINE
  5
32
100
AcDbEntity
  8
1
  6
CONTINUOUS
 62
           2
100
AcDbLine
 10
1899.892002619079
 20
131.618491161618
 11
1552.359972968651
 21
131.618491161618
  0
LINE
  5
31
100
AcDbEntity
  8
1
  6
CONTINUOUS
 62
           2
100
AcDbLine
 10
78.760772357726
 20
113.11521289036
 11
559.80536765778
 21
113.11521289036
  0
LINE
  5
30
100
AcDbEntity
  8
1
  6
CONTINUOUS
 62
           2
100
AcDbLine
 10
78.760772357726
 20
127.872318223188
 11
540.18129648954
 21
127.872318223188
  0
ENDBLK
  5
C6
100
AcDbEntity
  8
0
100
AcDbBlockEnd
  0
BLOCK
  5
28
100
AcDbEntity
  8
0
100
AcDbBlockBegin
  2
WANNE_CAPRIVI_580
 70
           0
 10
0.0
 20
0.0
 30
0.0
  3
WANNE_CAPRIVI_580
  1

  0
ARC
  5
10A
100
AcDbEntity
  8
1
  6
CONTINUOUS
 62
           7
100
AcDbCircle
 10
940.0
 20
102.143253679878
 40
5.0
100
AcDbArc
 50
0.0
 51
59.999999588969
  0
ARC
  5
109
100
AcDbEntity
  8
1
  6
CONTINUOUS
 62
           7
100
AcDbCircle
 10
940.0
 20
102.143254385959
 40
1.0
100
AcDbArc
 50
0.0
 51
60.000002154449
  0
ARC
  5
108
100
AcDbEntity
  8
1
  6
CONTINUOUS
 62
           7
100
AcDbCircle
 10
1040.0
 20
102.143253679878
 40
5.0
100
AcDbArc
 50
120.000000411023
 51
180.0
  0
ARC
  5
107
100
AcDbEntity
  8
1
  6
CONTINUOUS
 62
           7
100
AcDbCircle
 10
1040.0
 20
102.143254385959
 40
1.0
100
AcDbArc
 50
119.999997845528
 51
180.0
  0
ARC
  5
106
100
AcDbEntity
  8
1
  6
CONTINUOUS
 62
           7
100
AcDbCircle
 10
930.530263144817
 20
104.146509036651
 40
7.999998464377
100
AcDbArc
 50
59.999986577929
 51
84.999992472474
  0
ARC
  5
105
100
AcDbEntity
  8
1
  6
CONTINUOUS
 62
           7
100
AcDbCircle
 10
930.53026195531
 20
104.146502123523
 40
4.000005245499
100
AcDbArc
 50
60.00000215445
 51
84.981471676988
  0
ARC
  5
104
100
AcDbEntity
  8
1
  6
CONTINUOUS
 62
           7
100
AcDbCircle
 10
924.29073827396
 20
117.742052336843
 40
8.999999021816
100
AcDbArc
 50
-150.281157142679
 51
-94.999997919786
  0
ARC
  5
103
100
AcDbEntity
  8
1
  6
CONTINUOUS
 62
           7
100
AcDbCircle
 10
1055.709261726041
 20
117.742052336843
 40
8.999999021816
100
AcDbArc
 50
-85.000002080218
 51
-29.718842857324
  0
ARC
  5
102
100
AcDbEntity
  8
1
  6
CONTINUOUS
 62
           7
100
AcDbCircle
 10
1049.469736855183
 20
104.146509036651
 40
7.999998464376
100
AcDbArc
 50
95.000007527519
 51
120.000013422058
  0
ARC
  5
101
100
AcDbEntity
  8
1
  6
CONTINUOUS
 62
           7
100
AcDbCircle
 10
1049.469738044691
 20
104.146502123523
 40
4.000005245205
100
AcDbArc
 50
95.018528323012
 51
119.999997845546
  0
ARC
  5
100
100
AcDbEntity
  8
1
  6
CONTINUOUS
 62
           7
100
AcDbCircle
 10
1055.577676208545
 20
117.628608962136
 40
4.900484629518
100
AcDbArc
 50
-83.35155226112
 51
-33.366094619022
  0
ARC
  5
FF
100
AcDbEntity
  8
1
  6
CONTINUOUS
 62
           7
100
AcDbCircle
 10
1066.343394171083
 20
110.520748727078
 40
8.000000000165
100
AcDbArc
 50
109.293432889021
 51
146.524359155104
  0
ARC
  5
FE
100
AcDbEntity
  8
1
  6
CONTINUOUS
 62
           7
100
AcDbCircle
 10
924.422642794717
 20
117.6291266606
 40
4.901035786575
100
AcDbArc
 50
-146.630901840603
 51
-96.651451278616
  0
ARC
  5
FD
100
AcDbEntity
  8
1
  6
CONTINUOUS
 62
           7
100
AcDbCircle
 10
913.656605829011
 20
110.520748727247
 40
7.999999999957
100
AcDbArc
 50
33.475640844431
 51
70.706567111332
  0
ARC
  5
FC
100
AcDbEntity
  8
1
  6
CONTINUOUS
 62
           7
100
AcDbCircle
 10
1072.210162870982
 20
108.322910962287
 40
9.999999999998
100
AcDbArc
 50
90.231826180822
 51
150.281157142674
  0
ARC
  5
FB
100
AcDbEntity
  8
1
  6
CONTINUOUS
 62
           7
100
AcDbCircle
 10
907.789837129018
 20
108.322910962287
 40
10.0
100
AcDbArc
 50
29.718842857326
 51
89.768173819177
  0
ARC
  5
FA
100
AcDbEntity
  8
1
  6
CONTINUOUS
 62
           7
100
AcDbCircle
 10
1633.157470212248
 20
184.982134525217
 40
50.018489560196
100
AcDbArc
 50
-88.285581834782
 51
-3.476218955479
  0
ARC
  5
F9
100
AcDbEntity
  8
1
  6
CONTINUOUS
 62
           7
100
AcDbCircle
 10
2341.425650382364
 20
133.134868191119
 40
660.148977021739
100
AcDbArc
 50
149.820380680856
 51
175.759417736442
  0
ARC
  5
F8
100
AcDbEntity
  8
1
  6
CONTINUOUS
 62
           7
100
AcDbCircle
 10
1823.095128338567
 20
521.999999999883
 40
8.000000000029
100
AcDbArc
 50
5.000000000168
 51
89.999999999778
  0
ARC
  5
F7
100
AcDbEntity
  8
1
  6
CONTINUOUS
 62
           7
100
AcDbCircle
 10
1857.786669181552
 20
414.746715479388
 40
17.211859556496
100
AcDbArc
 50
-174.836388457304
 51
-82.192331030838
  0
ARC
  5
F6
100
AcDbEntity
  8
1
  6
CONTINUOUS
 62
           7
100
AcDbCircle
 10
1945.817695467246
 20
413.604564018088
 40
17.295243279838
100
AcDbArc
 50
-100.576717872176
 51
-5.185495812929
  0
ARC
  5
F5
100
AcDbEntity
  8
1
  6
CONTINUOUS
 62
           7
100
AcDbCircle
 10
156.904871661296
 20
521.999999999978
 40
8.000000000022
100
AcDbArc
 50
90.0
 51
175.000000000456
  0
ARC
  5
F4
100
AcDbEntity
  8
1
  6
CONTINUOUS
 62
           7
100
AcDbCircle
 10
-265.819947323322
 20
-79.284251670232
 40
747.033450673938
100
AcDbArc
 50
19.109925188971
 51
46.768671367413
  0
ARC
  5
F3
100
AcDbEntity
  8
1
  6
CONTINUOUS
 62
           7
100
AcDbCircle
 10
487.610297566969
 20
180.827496633896
 40
50.040485522905
100
AcDbArc
 50
-161.899573771927
 51
-91.723100784615
  0
ARC
  5
F2
100
AcDbEntity
  8
1
  6
CONTINUOUS
 62
           7
100
AcDbCircle
 10
122.213330818448
 20
414.746715479388
 40
17.211859556496
100
AcDbArc
 50
-97.807668969164
 51
-5.163611542695
  0
ARC
  5
F1
100
AcDbEntity
  8
1
  6
CONTINUOUS
 62
           7
100
AcDbCircle
 10
34.182304532754
 20
413.604564018088
 40
17.295243279838
100
AcDbArc
 50
-174.814504187071
 51
-79.423282127823
  0
LINE
  5
F0
100
AcDbEntity
  8
1
  6
CONTINUOUS
 62
           7
100
AcDbLine
 10
20.933843923098
 20
402.486842507671
 11
43.999999999997
 21
375.0
  0
LINE
  5
EF
100
AcDbEntity
  8
1
  6
CONTINUOUS
 62
           7
100
AcDbLine
 10
132.184438743229
 20
400.717277994409
 11
105.999999999997
 21
375.0
  0
LINE
  5
EE
100
AcDbEntity
  8
1
  6
CONTINUOUS
 62
           7
100
AcDbLine
 10
1847.815561256769
 20
400.717277994412
 11
1873.999999999991
 21
375.0
  0
LINE
  5
ED
100
AcDbEntity
  8
1
  6
CONTINUOUS
 62
           7
100
AcDbLine
 10
1959.066156076899
 20
402.486842507668
 11
1935.999999999991
 21
375.0
  0
LINE
  5
EC
100
AcDbEntity
  8
1
  6
CONTINUOUS
 62
           7
100
AcDbLine
 10
1979.99999999996
 20
499.999999999909
 11
1979.99999999996
 21
464.999999999909
  0
LINE
  5
EB
100
AcDbEntity
  8
1
  6
CONTINUOUS
 62
           7
100
AcDbLine
 10
0.0
 20
499.999999999909
 11
0.0
 21
464.999999999909
  0
LINE
  5
EA
100
AcDbEntity
  8
1
  6
CONTINUOUS
 62
           7
100
AcDbLine
 10
1979.99999999996
 20
464.999999999909
 11
0.0
 21
464.999999999909
  0
LINE
  5
E9
100
AcDbEntity
  8
1
  6
CONTINUOUS
 62
           7
100
AcDbLine
 10
156.904871661296
 20
530.0
 11
1823.095128338567
 21
530.0
  0
LINE
  5
E8
100
AcDbEntity
  8
1
  6
CONTINUOUS
 62
           7
100
AcDbLine
 10
918.770801726392
 20
118.0
 11
1061.159761774313
 21
118.0
  0
LINE
  5
E7
100
AcDbEntity
  8
1
  6
CONTINUOUS
 62
           7
100
AcDbLine
 10
923.854960000001
 20
112.761079
 11
931.227508366932
 21
112.116065142875
  0
LINE
  5
E6
100
AcDbEntity
  8
1
  6
CONTINUOUS
 62
           7
100
AcDbLine
 10
934.530262426705
 20
111.074710908342
 11
942.500000031064
 21
106.473380680865
  0
LINE
  5
E5
100
AcDbEntity
  8
1
  6
CONTINUOUS
 62
           7
100
AcDbLine
 10
945.0
 20
102.143253679878
 11
945.0
 21
95.0
  0
LINE
  5
E4
100
AcDbEntity
  8
1
  6
CONTINUOUS
 62
           7
100
AcDbLine
 10
941.0
 20
95.0
 11
941.0
 21
102.143254385959
  0
LINE
  5
E3
100
AcDbEntity
  8
1
  6
CONTINUOUS
 62
           7
100
AcDbLine
 10
940.499999967436
 20
103.009279808545
 11
932.530264447801
 21
107.610608356601
  0
LINE
  5
E2
100
AcDbEntity
  8
1
  6
CONTINUOUS
 62
           7
100
AcDbLine
 10
930.880173965617
 20
108.131173194855
 11
923.506337315272
 21
108.776300717175
  0
LINE
  5
E1
100
AcDbEntity
  8
1
  6
CONTINUOUS
 62
           7
100
AcDbLine
 10
941.0
 20
95.0
 11
1039.0
 21
95.0
  0
LINE
  5
E0
100
AcDbEntity
  8
1
  6
CONTINUOUS
 62
           7
100
AcDbLine
 10
945.0
 20
105.030005001913
 11
1035.0
 21
105.030005001913
  0
LINE
  5
DF
100
AcDbEntity
  8
1
  6
CONTINUOUS
 62
           7
100
AcDbLine
 10
1047.005682000001
 20
111.961489
 11
932.994316756721
 21
111.96148956906
  0
LINE
  5
DE
100
AcDbEntity
  8
1
  6
CONTINUOUS
 62
           7
100
AcDbLine
 10
1048.77249163307
 20
112.116065142875
 11
1056.14504
 21
112.761079
  0
LINE
  5
DD
100
AcDbEntity
  8
1
  6
CONTINUOUS
 62
           7
100
AcDbLine
 10
1037.499999968937
 20
106.473380680865
 11
1045.469737573296
 21
111.074710908342
  0
LINE
  5
DC
100
AcDbEntity
  8
1
  6
CONTINUOUS
 62
           7
100
AcDbLine
 10
1035.0
 20
95.0
 11
1035.0
 21
102.143253679878
  0
LINE
  5
DB
100
AcDbEntity
  8
1
  6
CONTINUOUS
 62
           7
100
AcDbLine
 10
1039.0
 20
102.143254385959
 11
1039.0
 21
95.0
  0
LINE
  5
DA
100
AcDbEntity
  8
1
  6
CONTINUOUS
 62
           7
100
AcDbLine
 10
1047.4697355522
 20
107.610608356601
 11
1039.500000032565
 21
103.009279808545
  0
LINE
  5
D9
100
AcDbEntity
  8
1
  6
CONTINUOUS
 62
           7
100
AcDbLine
 10
1056.493662684729
 20
108.776300717175
 11
1049.119826034384
 21
108.131173194855
  0
LINE
  5
D8
100
AcDbEntity
  8
1
  6
DOT_CENTER
 62
           3
100
AcDbLine
 10
990.0
 20
143.0
 11
990.0
 21
70.0
  0
LINE
  5
D7
100
AcDbEntity
  8
1
  6
DOT_CENTER
 62
           3
100
AcDbLine
 10
70.0
 20
420.0
 11
70.0
 21
350.0
  0
LINE
  5
D6
100
AcDbEntity
  8
1
  6
CONTINUOUS
 62
           7
100
AcDbLine
 10
43.999999999997
 20
375.0
 11
105.999999999997
 21
375.0
  0
LINE
  5
D5
100
AcDbEntity
  8
1
  6
DOT_CENTER
 62
           3
100
AcDbLine
 10
1909.999999999994
 20
420.0
 11
1909.999999999994
 21
350.0
  0
LINE
  5
D4
100
AcDbEntity
  8
1
  6
CONTINUOUS
 62
           7
100
AcDbLine
 10
1873.999999999991
 20
375.0
 11
1935.999999999991
 21
375.0
  0
LINE
  5
D3
100
AcDbEntity
  8
1
  6
CONTINUOUS
 62
           7
100
AcDbLine
 10
1061.159761774313
 20
118.0
 11
1634.653912220761
 21
134.986035085375
  0
LINE
  5
D2
100
AcDbEntity
  8
1
  6
CONTINUOUS
 62
           7
100
AcDbLine
 10
918.770801726392
 20
118.0
 11
486.105617749872
 21
130.809638522856
  0
LINE
  5
D1
100
AcDbEntity
  8
1
  6
CONTINUOUS
 62
           7
100
AcDbLine
 10
1831.064685923328
 20
522.69724594189
 11
1832.787971645934
 21
499.999999999909
  0
LINE
  5
D0
100
AcDbEntity
  8
1
  6
CONTINUOUS
 62
           7
100
AcDbLine
 10
1967.675430785974
 20
464.999999999909
 11
1963.04215467726
 21
412.041411744202
  0
LINE
  5
CF
100
AcDbEntity
  8
1
  6
CONTINUOUS
 62
           7
100
AcDbLine
 10
1860.124869004088
 20
397.694415605693
 11
1942.643120358673
 21
396.603166634672
  0
LINE
  5
CE
100
AcDbEntity
  8
1
  6
CONTINUOUS
 62
           7
100
AcDbLine
 10
1832.787971645939
 20
499.999999999909
 11
1979.99999999996
 21
499.999999999909
  0
LINE
  5
CD
100
AcDbEntity
  8
1
  6
CONTINUOUS
 62
           7
100
AcDbLine
 10
148.935314076622
 20
522.69724594189
 11
147.212028354021
 21
499.999999999909
  0
LINE
  5
CC
100
AcDbEntity
  8
1
  6
CONTINUOUS
 62
           7
100
AcDbLine
 10
147.212028354021
 20
499.999999999909
 11
0.0
 21
499.999999999909
  0
LINE
  5
CB
100
AcDbEntity
  8
1
  6
CONTINUOUS
 62
           7
100
AcDbLine
 10
139.355340490012
 20
413.197646787379
 11
143.887459140078
 21
464.999999999909
  0
LINE
  5
CA
100
AcDbEntity
  8
1
  6
CONTINUOUS
 62
           7
100
AcDbLine
 10
16.95784532274
 20
412.041411744202
 11
12.324569214026
 21
464.999999999909
  0
LINE
  5
C9
100
AcDbEntity
  8
1
  6
CONTINUOUS
 62
           7
100
AcDbLine
 10
1836.112540859922
 20
464.999999999909
 11
1840.644659509988
 21
413.197646787379
  0
LINE
  5
C8
100
AcDbEntity
  8
1
  6
CONTINUOUS
 62
           7
100
AcDbLine
 10
147.212028354066
 20
499.999999999909
 11
148.935314076673
 21
522.69724594189
  0
LINE
  5
C7
100
AcDbEntity
  8
1
  6
CONTINUOUS
 62
           7
100
AcDbLine
 10
37.32946620935
 20
396.605517981941
 11
119.591970580961
 21
397.69592673843
  0
INSERT
  5
29
100
AcDbEntity
  8
0
100
AcDbBlockReference
  2
WANNENF_SSE
 10
0.0
 20
0.0
  0
ENDBLK
  5
10B
100
AcDbEntity
  8
0
100
AcDbBlockEnd
  0
BLOCK
  5
2B
100
AcDbEntity
  8
0
100
AcDbBlockBegin
  2
DLX
 70
           0
 10
0.0
 20
0.0
 30
0.0
  3
DLX
  1

  0
CIRCLE
  5
1BF
100
AcDbEntity
  8
1
  6
CONTINUOUS
 62
           3
100
AcDbCircle
 10
822.735875237937
 20
310.878787878755
 40
5.972862778754
  0
CIRCLE
  5
1BE
100
AcDbEntity
  8
1
  6
CONTINUOUS
 62
           3
100
AcDbCircle
 10
822.735875237937
 20
310.878787878755
 40
5.530127989696
  0
ARC
  5
1BD
100
AcDbEntity
  8
1
  6
CONTINUOUS
 62
           3
100
AcDbCircle
 10
822.942694069316
 20
312.303919921381
 40
2.009798008862
100
AcDbArc
 50
-55.929988464574
 51
86.297888718259
  0
ARC
  5
1BC
100
AcDbEntity
  8
1
  6
CONTINUOUS
 62
           3
100
AcDbCircle
 10
822.864376243302
 20
312.264025930551
 40
1.257687287767
100
AcDbArc
 50
-74.800419047056
 51
80.931395238788
  0
ARC
  5
1BB
100
AcDbEntity
  8
1
  6
CONTINUOUS
 62
           3
100
AcDbCircle
 10
822.789193605106
 20
309.053039389822
 40
1.155889798232
100
AcDbArc
 50
0.985058170482
 51
82.918254632932
  0
ARC
  5
1BA
100
AcDbEntity
  8
1
  6
CONTINUOUS
 62
           3
100
AcDbCircle
 10
823.514586791596
 20
309.362233682226
 40
1.391870091328
100
AcDbArc
 50
-1.298612665727
 51
66.544866494044
  0
LINE
  5
1B9
100
AcDbEntity
  8
1
  6
CONTINUOUS
 62
           3
100
AcDbLine
 10
715.328223469318
 20
306.979895810782
 11
715.032820381937
 21
307.978447872363
  0
LINE
  5
1B8
100
AcDbEntity
  8
1
  6
CONTINUOUS
 62
           3
100
AcDbLine
 10
715.764903150884
 20
308.762204858332
 11
715.032820381937
 21
307.978447872363
  0
LINE
  5
1B7
100
AcDbEntity
  8
1
  6
CONTINUOUS
 62
           3
100
AcDbLine
 10
750.795927119554
 20
278.237708784527
 11
754.180334610435
 21
292.051175145079
  0
LINE
  5
1B6
100
AcDbEntity
  8
1
  6
CONTINUOUS
 62
           3
100
AcDbLine
 10
746.607772964315
 20
278.237708784527
 11
749.992180455331
 21
292.051175145079
  0
LINE
  5
1B5
100
AcDbEntity
  8
1
  6
CONTINUOUS
 62
           3
100
AcDbLine
 10
746.607772964315
 20
278.237708784527
 11
750.795927119554
 21
278.237708784527
  0
LINE
  5
1B4
100
AcDbEntity
  8
1
  6
CONTINUOUS
 62
           3
100
AcDbLine
 10
745.523798905146
 20
273.813466360341
 11
749.711953060334
 21
273.813466360341
  0
LINE
  5
1B3
100
AcDbEntity
  8
1
  6
CONTINUOUS
 62
           3
100
AcDbLine
 10
746.327545569439
 20
260.0
 11
752.609776802336
 21
260.0
  0
LINE
  5
1B2
100
AcDbEntity
  8
1
  6
CONTINUOUS
 62
           3
100
AcDbLine
 10
749.992180455331
 20
292.051175145079
 11
743.709949222466
 21
292.051175145079
  0
LINE
  5
1B1
100
AcDbEntity
  8
1
  6
CONTINUOUS
 62
           3
100
AcDbLine
 10
781.403336619289
 20
292.051175145079
 11
773.55054757827
 21
260.0
  0
LINE
  5
1B0
100
AcDbEntity
  8
1
  6
CONTINUOUS
 62
           3
100
AcDbLine
 10
774.037131327292
 20
287.626932720839
 11
768.352290404568
 21
264.424242424182
  0
LINE
  5
1AF
100
AcDbEntity
  8
1
  6
CONTINUOUS
 62
           3
100
AcDbLine
 10
769.848977172042
 20
287.626932720839
 11
774.037131327292
 21
287.626932720839
  0
LINE
  5
1AE
100
AcDbEntity
  8
1
  6
CONTINUOUS
 62
           3
100
AcDbLine
 10
781.403336619289
 20
292.051175145079
 11
764.650719998459
 21
292.051175145079
  0
LINE
  5
1AD
100
AcDbEntity
  8
1
  6
CONTINUOUS
 62
           3
100
AcDbLine
 10
764.164136249467
 20
264.424242424182
 11
769.848977172042
 21
287.626932720839
  0
LINE
  5
1AC
100
AcDbEntity
  8
1
  6
CONTINUOUS
 62
           3
100
AcDbLine
 10
764.650719998459
 20
292.051175145079
 11
756.797930957462
 21
260.0
  0
LINE
  5
1AB
100
AcDbEntity
  8
1
  6
CONTINUOUS
 62
           3
100
AcDbLine
 10
768.352290404568
 20
264.424242424182
 11
764.164136249467
 21
264.424242424182
  0
LINE
  5
1AA
100
AcDbEntity
  8
1
  6
CONTINUOUS
 62
           3
100
AcDbLine
 10
756.797930957462
 20
260.0
 11
773.55054757827
 21
260.0
  0
LINE
  5
1A9
100
AcDbEntity
  8
1
  6
CONTINUOUS
 62
           3
100
AcDbLine
 10
760.462565843351
 20
292.051175145079
 11
754.180334610435
 21
292.051175145079
  0
LINE
  5
1A8
100
AcDbEntity
  8
1
  6
CONTINUOUS
 62
           3
100
AcDbLine
 10
743.709949222466
 20
292.051175145079
 11
735.857160181473
 21
260.0
  0
LINE
  5
1A7
100
AcDbEntity
  8
1
  6
CONTINUOUS
 62
           3
100
AcDbLine
 10
742.139391414261
 20
260.0
 11
745.523798905146
 21
273.813466360341
  0
LINE
  5
1A6
100
AcDbEntity
  8
1
  6
CONTINUOUS
 62
           3
100
AcDbLine
 10
746.327545569439
 20
260.0
 11
749.711953060334
 21
273.813466360341
  0
LINE
  5
1A5
100
AcDbEntity
  8
1
  6
CONTINUOUS
 62
           3
100
AcDbLine
 10
752.609776802336
 20
260.0
 11
760.462565843351
 21
292.051175145079
  0
LINE
  5
1A4
100
AcDbEntity
  8
1
  6
CONTINUOUS
 62
           3
100
AcDbLine
 10
735.857160181473
 20
260.0
 11
742.139391414261
 21
260.0
  0
LINE
  5
1A3
100
AcDbEntity
  8
1
  6
CONTINUOUS
 62
           3
100
AcDbLine
 10
730.529628686516
 20
280.990569084413
 11
736.811859919322
 21
280.990569084413
  0
LINE
  5
1A2
100
AcDbEntity
  8
1
  6
CONTINUOUS
 62
           3
100
AcDbLine
 10
732.15558977531
 20
287.626932720839
 11
730.529628686516
 21
280.990569084413
  0
LINE
  5
1A1
100
AcDbEntity
  8
1
  6
CONTINUOUS
 62
           3
100
AcDbLine
 10
727.967435620118
 20
287.626932720839
 11
732.15558977531
 21
287.626932720839
  0
LINE
  5
1A0
100
AcDbEntity
  8
1
  6
CONTINUOUS
 62
           3
100
AcDbLine
 10
722.282594697488
 20
264.424242424182
 11
727.967435620118
 21
287.626932720839
  0
LINE
  5
19F
100
AcDbEntity
  8
1
  6
CONTINUOUS
 62
           3
100
AcDbLine
 10
726.470748852691
 20
264.424242424182
 11
722.282594697488
 21
264.424242424182
  0
LINE
  5
19E
100
AcDbEntity
  8
1
  6
CONTINUOUS
 62
           3
100
AcDbLine
 10
728.096709941478
 20
271.060606060608
 11
726.470748852691
 21
264.424242424182
  0
LINE
  5
19D
100
AcDbEntity
  8
1
  6
CONTINUOUS
 62
           3
100
AcDbLine
 10
734.378941174266
 20
271.060606060608
 11
728.096709941478
 21
271.060606060608
  0
LINE
  5
19C
100
AcDbEntity
  8
1
  6
CONTINUOUS
 62
           3
100
AcDbLine
 10
731.669006026292
 20
260.0
 11
734.378941174266
 21
271.060606060608
  0
LINE
  5
19B
100
AcDbEntity
  8
1
  6
CONTINUOUS
 62
           3
100
AcDbLine
 10
714.916389405538
 20
260.0
 11
731.669006026292
 21
260.0
  0
LINE
  5
19A
100
AcDbEntity
  8
1
  6
CONTINUOUS
 62
           3
100
AcDbLine
 10
722.769178446531
 20
292.051175145079
 11
714.916389405538
 21
260.0
  0
LINE
  5
199
100
AcDbEntity
  8
1
  6
CONTINUOUS
 62
           3
100
AcDbLine
 10
739.521795067252
 20
292.051175145079
 11
722.769178446531
 21
292.051175145079
  0
LINE
  5
198
100
AcDbEntity
  8
1
  6
CONTINUOUS
 62
           3
100
AcDbLine
 10
736.811859919322
 20
280.990569084413
 11
739.521795067252
 21
292.051175145079
  0
LINE
  5
197
100
AcDbEntity
  8
1
  6
CONTINUOUS
 62
           3
100
AcDbLine
 10
717.497050232156
 20
287.626932720839
 11
718.581024291314
 21
292.051175145079
  0
LINE
  5
196
100
AcDbEntity
  8
1
  6
CONTINUOUS
 62
           3
100
AcDbLine
 10
707.026664844176
 20
287.626932720839
 11
717.497050232156
 21
287.626932720839
  0
LINE
  5
195
100
AcDbEntity
  8
1
  6
CONTINUOUS
 62
           3
100
AcDbLine
 10
704.593746099163
 20
277.696969696953
 11
707.026664844176
 21
287.626932720839
  0
LINE
  5
194
100
AcDbEntity
  8
1
  6
CONTINUOUS
 62
           3
100
AcDbLine
 10
715.064131487226
 20
277.696969696953
 11
704.593746099163
 21
277.696969696953
  0
LINE
  5
193
100
AcDbEntity
  8
1
  6
CONTINUOUS
 62
           3
100
AcDbLine
 10
710.728235250303
 20
260.0
 11
715.064131487226
 21
277.696969696953
  0
LINE
  5
192
100
AcDbEntity
  8
1
  6
CONTINUOUS
 62
           3
100
AcDbLine
 10
693.97561862948
 20
260.0
 11
710.728235250303
 21
260.0
  0
LINE
  5
191
100
AcDbEntity
  8
1
  6
CONTINUOUS
 62
           3
100
AcDbLine
 10
695.059592688787
 20
264.424242424182
 11
693.97561862948
 21
260.0
  0
LINE
  5
190
100
AcDbEntity
  8
1
  6
CONTINUOUS
 62
           3
100
AcDbLine
 10
705.529978076698
 20
264.424242424182
 11
695.059592688787
 21
264.424242424182
  0
LINE
  5
18F
100
AcDbEntity
  8
1
  6
CONTINUOUS
 62
           3
100
AcDbLine
 10
707.697926195116
 20
273.272727272797
 11
705.529978076698
 21
264.424242424182
  0
LINE
  5
18E
100
AcDbEntity
  8
1
  6
CONTINUOUS
 62
           3
100
AcDbLine
 10
697.227540807151
 20
273.272727272797
 11
707.697926195116
 21
273.272727272797
  0
LINE
  5
18D
100
AcDbEntity
  8
1
  6
CONTINUOUS
 62
           3
100
AcDbLine
 10
701.828407670542
 20
292.051175145079
 11
697.227540807151
 21
273.272727272797
  0
LINE
  5
18C
100
AcDbEntity
  8
1
  6
CONTINUOUS
 62
           3
100
AcDbLine
 10
718.581024291314
 20
292.051175145079
 11
701.828407670542
 21
292.051175145079
  0
LINE
  5
18B
100
AcDbEntity
  8
1
  6
CONTINUOUS
 62
           3
100
AcDbLine
 10
697.640253515379
 20
292.051175145079
 11
689.787464474364
 21
260.0
  0
LINE
  5
18A
100
AcDbEntity
  8
1
  6
CONTINUOUS
 62
           3
100
AcDbLine
 10
691.358022282573
 20
292.051175145079
 11
697.640253515379
 21
292.051175145079
  0
LINE
  5
189
100
AcDbEntity
  8
1
  6
CONTINUOUS
 62
           3
100
AcDbLine
 10
689.787464474364
 20
260.0
 11
671.987809314774
 21
260.0
  0
LINE
  5
188
100
AcDbEntity
  8
1
  6
CONTINUOUS
 62
           3
100
AcDbLine
 10
684.589207300767
 20
264.424242424182
 11
691.358022282573
 21
292.051175145079
  0
LINE
  5
187
100
AcDbEntity
  8
1
  6
CONTINUOUS
 62
           3
100
AcDbLine
 10
679.354014606783
 20
264.424242424182
 11
684.589207300767
 21
264.424242424182
  0
LINE
  5
186
100
AcDbEntity
  8
1
  6
CONTINUOUS
 62
           3
100
AcDbLine
 10
686.122829588578
 20
292.051175145079
 11
679.354014606783
 21
264.424242424182
  0
LINE
  5
185
100
AcDbEntity
  8
1
  6
CONTINUOUS
 62
           3
100
AcDbLine
 10
679.840598355768
 20
292.051175145079
 11
686.122829588578
 21
292.051175145079
  0
LINE
  5
184
100
AcDbEntity
  8
1
  6
CONTINUOUS
 62
           3
100
AcDbLine
 10
671.987809314774
 20
260.0
 11
679.840598355768
 21
292.051175145079
  0
LINE
  5
183
100
AcDbEntity
  8
1
  6
CONTINUOUS
 62
           3
100
AcDbLine
 10
667.799655159648
 20
260.0
 11
650.0
 21
260.0
  0
LINE
  5
182
100
AcDbEntity
  8
1
  6
CONTINUOUS
 62
           3
100
AcDbLine
 10
678.362379348568
 20
303.111781205662
 11
667.799655159648
 21
260.0
  0
LINE
  5
181
100
AcDbEntity
  8
1
  6
CONTINUOUS
 62
           3
100
AcDbLine
 10
654.389052271275
 20
303.111781205662
 11
678.362379348568
 21
303.111781205662
  0
LINE
  5
180
100
AcDbEntity
  8
1
  6
CONTINUOUS
 62
           3
100
AcDbLine
 10
653.03408469729
 20
297.581478175405
 11
654.389052271275
 21
303.111781205662
  0
LINE
  5
17F
100
AcDbEntity
  8
1
  6
CONTINUOUS
 62
           3
100
AcDbLine
 10
670.725180541824
 20
297.581478175405
 11
653.03408469729
 21
297.581478175405
  0
LINE
  5
17E
100
AcDbEntity
  8
1
  6
CONTINUOUS
 62
           3
100
AcDbLine
 10
662.601397985942
 20
264.424242424182
 11
670.725180541824
 21
297.581478175405
  0
LINE
  5
17D
100
AcDbEntity
  8
1
  6
CONTINUOUS
 62
           3
100
AcDbLine
 10
657.366205292063
 20
264.424242424182
 11
662.601397985942
 21
264.424242424182
  0
LINE
  5
17C
100
AcDbEntity
  8
1
  6
CONTINUOUS
 62
           3
100
AcDbLine
 10
664.135020273752
 20
292.051175145079
 11
657.366205292063
 21
264.424242424182
  0
LINE
  5
17B
100
AcDbEntity
  8
1
  6
CONTINUOUS
 62
           3
100
AcDbLine
 10
657.852789041055
 20
292.051175145079
 11
664.135020273752
 21
292.051175145079
  0
LINE
  5
17A
100
AcDbEntity
  8
1
  6
CONTINUOUS
 62
           3
100
AcDbLine
 10
650.0
 20
260.0
 11
657.852789041055
 21
292.051175145079
  0
LINE
  5
179
100
AcDbEntity
  8
1
  6
CONTINUOUS
 62
           3
100
AcDbLine
 10
785.119681233515
 20
266.19393939391
 11
794.164841739606
 21
303.111781205662
  0
LINE
  5
178
100
AcDbEntity
  8
1
  6
CONTINUOUS
 62
           3
100
AcDbLine
 10
794.164841739606
 20
303.111781205662
 11
788.301425922338
 21
303.111781205662
  0
LINE
  5
177
100
AcDbEntity
  8
1
  6
CONTINUOUS
 62
           3
100
AcDbLine
 10
788.301425922338
 20
303.111781205662
 11
777.738701733397
 21
260.0
  0
LINE
  5
176
100
AcDbEntity
  8
1
  6
CONTINUOUS
 62
           3
100
AcDbLine
 10
795.643060746967
 20
292.051175145079
 11
789.958219824279
 21
268.848484848477
  0
LINE
  5
175
100
AcDbEntity
  8
1
  6
CONTINUOUS
 62
           3
100
AcDbLine
 10
789.958219824279
 20
268.848484848477
 11
805.6637979062
 21
268.848484848477
  0
LINE
  5
174
100
AcDbEntity
  8
1
  6
CONTINUOUS
 62
           3
100
AcDbLine
 10
805.6637979062
 20
268.848484848477
 11
811.348638828808
 21
292.051175145079
  0
LINE
  5
173
100
AcDbEntity
  8
1
  6
CONTINUOUS
 62
           3
100
AcDbLine
 10
811.348638828808
 20
292.051175145079
 11
806.113446134885
 21
292.051175145079
  0
LINE
  5
172
100
AcDbEntity
  8
1
  6
CONTINUOUS
 62
           3
100
AcDbLine
 10
806.113446134885
 20
292.051175145079
 11
801.51257927149
 21
273.272727272797
  0
LINE
  5
171
100
AcDbEntity
  8
1
  6
CONTINUOUS
 62
           3
100
AcDbLine
 10
801.51257927149
 20
273.272727272797
 11
796.277386577538
 21
273.272727272797
  0
LINE
  5
170
100
AcDbEntity
  8
1
  6
CONTINUOUS
 62
           3
100
AcDbLine
 10
796.277386577538
 20
273.272727272797
 11
800.878253440889
 21
292.051175145079
  0
LINE
  5
16F
100
AcDbEntity
  8
1
  6
CONTINUOUS
 62
           3
100
AcDbLine
 10
800.878253440889
 20
292.051175145079
 11
795.643060746967
 21
292.051175145079
  0
LINE
  5
16E
100
AcDbEntity
  8
1
  6
CONTINUOUS
 62
           3
100
AcDbLine
 10
817.906977584949
 20
292.051175145079
 11
813.861531321934
 21
292.051175145079
  0
LINE
  5
16D
100
AcDbEntity
  8
1
  6
CONTINUOUS
 62
           3
100
AcDbLine
 10
813.861531321934
 20
292.051175145079
 11
817.983826844131
 21
281.415301218661
  0
LINE
  5
16C
100
AcDbEntity
  8
1
  6
CONTINUOUS
 62
           3
100
AcDbLine
 10
817.983826844131
 20
281.415301218661
 11
808.176690399341
 21
268.848484848477
  0
LINE
  5
16B
100
AcDbEntity
  8
1
  6
CONTINUOUS
 62
           3
100
AcDbLine
 10
808.176690399341
 20
268.848484848477
 11
812.222136662338
 21
268.848484848477
  0
LINE
  5
16A
100
AcDbEntity
  8
1
  6
CONTINUOUS
 62
           3
100
AcDbLine
 10
812.222136662338
 20
268.848484848477
 11
819.32626924244
 21
277.951685370502
  0
LINE
  5
169
100
AcDbEntity
  8
1
  6
CONTINUOUS
 62
           3
100
AcDbLine
 10
819.32626924244
 20
277.951685370502
 11
822.854524937124
 21
268.848484848477
  0
LINE
  5
168
100
AcDbEntity
  8
1
  6
CONTINUOUS
 62
           3
100
AcDbLine
 10
822.854524937124
 20
268.848484848477
 11
826.899971200172
 21
268.848484848477
  0
LINE
  5
167
100
AcDbEntity
  8
1
  6
CONTINUOUS
 62
           3
100
AcDbLine
 10
826.899971200172
 20
268.848484848477
 11
822.029273107168
 21
281.415301218603
  0
LINE
  5
166
100
AcDbEntity
  8
1
  6
CONTINUOUS
 62
           3
100
AcDbLine
 10
822.029273107168
 20
281.415301218603
 11
830.32950315225
 21
292.051175145079
  0
LINE
  5
165
100
AcDbEntity
  8
1
  6
CONTINUOUS
 62
           3
100
AcDbLine
 10
830.32950315225
 20
292.051175145079
 11
826.284056889192
 21
292.051175145079
  0
LINE
  5
164
100
AcDbEntity
  8
1
  6
CONTINUOUS
 62
           3
100
AcDbLine
 10
826.284056889192
 20
292.051175145079
 11
820.686830708906
 21
284.878917066824
  0
LINE
  5
163
100
AcDbEntity
  8
1
  6
CONTINUOUS
 62
           3
100
AcDbLine
 10
820.686830708906
 20
284.878917066824
 11
817.906977584949
 21
292.051175145079
  0
LINE
  5
162
100
AcDbEntity
  8
1
  6
CONTINUOUS
 62
           3
100
AcDbLine
 10
827.928830785688
 20
266.19393939391
 11
830.329503152207
 21
260.0
  0
LINE
  5
161
100
AcDbEntity
  8
1
  6
CONTINUOUS
 62
           3
100
AcDbLine
 10
827.928830785688
 20
266.19393939391
 11
785.119681233515
 21
266.19393939391
  0
LINE
  5
160
100
AcDbEntity
  8
1
  6
CONTINUOUS
 62
           3
100
AcDbLine
 10
830.329503152207
 20
260.0
 11
777.738701733397
 21
260.0
  0
LINE
  5
15F
100
AcDbEntity
  8
1
  6
CONTINUOUS
 62
           3
100
AcDbLine
 10
686.738687658966
 20
303.111781205662
 11
689.990609836448
 21
316.38450847832
  0
LINE
  5
15E
100
AcDbEntity
  8
1
  6
CONTINUOUS
 62
           3
100
AcDbLine
 10
689.990609836448
 20
316.38450847832
 11
702.555072302166
 21
316.38450847832
  0
LINE
  5
15D
100
AcDbEntity
  8
1
  6
CONTINUOUS
 62
           3
100
AcDbLine
 10
702.555072302166
 20
316.38450847832
 11
699.303150124491
 21
303.111781205662
  0
LINE
  5
15C
100
AcDbEntity
  8
1
  6
CONTINUOUS
 62
           3
100
AcDbLine
 10
699.303150124491
 20
303.111781205662
 11
686.738687658966
 21
303.111781205662
  0
LINE
  5
15B
100
AcDbEntity
  8
1
  6
CONTINUOUS
 62
           3
100
AcDbLine
 10
697.751060076487
 20
305.323902417793
 11
689.374751766132
 21
305.323902417793
  0
LINE
  5
15A
100
AcDbEntity
  8
1
  6
CONTINUOUS
 62
           3
100
AcDbLine
 10
699.919008194964
 20
314.172387266269
 11
697.751060076487
 21
305.323902417793
  0
LINE
  5
159
100
AcDbEntity
  8
1
  6
CONTINUOUS
 62
           3
100
AcDbLine
 10
691.542699884474
 20
314.172387266269
 11
699.919008194964
 21
314.172387266269
  0
LINE
  5
158
100
AcDbEntity
  8
1
  6
CONTINUOUS
 62
           3
100
AcDbLine
 10
689.374751766132
 20
305.323902417793
 11
691.542699884474
 21
314.172387266269
  0
LINE
  5
157
100
AcDbEntity
  8
1
  6
CONTINUOUS
 62
           3
100
AcDbLine
 10
705.067964795158
 20
316.38450847832
 11
701.816042617622
 21
303.111781205662
  0
LINE
  5
156
100
AcDbEntity
  8
1
  6
CONTINUOUS
 62
           3
100
AcDbLine
 10
705.067964795158
 20
316.38450847832
 11
717.632427260738
 21
316.38450847832
  0
LINE
  5
155
100
AcDbEntity
  8
1
  6
CONTINUOUS
 62
           3
100
AcDbLine
 10
717.632427260738
 20
316.38450847832
 11
715.764903150884
 21
308.762204858332
  0
LINE
  5
154
100
AcDbEntity
  8
1
  6
CONTINUOUS
 62
           3
100
AcDbLine
 10
714.380505083205
 20
303.111781205662
 11
712.286428005566
 21
303.111781205662
  0
LINE
  5
153
100
AcDbEntity
  8
1
  6
CONTINUOUS
 62
           3
100
AcDbLine
 10
712.286428005566
 20
303.111781205662
 11
713.370402064938
 21
307.536023629844
  0
LINE
  5
152
100
AcDbEntity
  8
1
  6
CONTINUOUS
 62
           3
100
AcDbLine
 10
713.370402064938
 20
307.536023629844
 11
704.994093754409
 21
307.536023629844
  0
LINE
  5
151
100
AcDbEntity
  8
1
  6
CONTINUOUS
 62
           3
100
AcDbLine
 10
705.536080784001
 20
309.748144842033
 11
713.912389094381
 21
309.748144842033
  0
LINE
  5
150
100
AcDbEntity
  8
1
  6
CONTINUOUS
 62
           3
100
AcDbLine
 10
713.912389094381
 20
309.748144842033
 11
714.996363153703
 21
314.172387266269
  0
LINE
  5
14F
100
AcDbEntity
  8
1
  6
CONTINUOUS
 62
           3
100
AcDbLine
 10
714.996363153703
 20
314.172387266269
 11
706.620054843184
 21
314.172387266269
  0
LINE
  5
14E
100
AcDbEntity
  8
1
  6
CONTINUOUS
 62
           3
100
AcDbLine
 10
706.620054843184
 20
314.172387266269
 11
705.536080784001
 21
309.748144842033
  0
LINE
  5
14D
100
AcDbEntity
  8
1
  6
CONTINUOUS
 62
           3
100
AcDbLine
 10
715.328223469318
 20
306.979895810782
 11
714.380505083205
 21
303.111781205662
  0
LINE
  5
14C
100
AcDbEntity
  8
1
  6
CONTINUOUS
 62
           3
100
AcDbLine
 10
701.816042617622
 20
303.111781205662
 11
703.910119695298
 21
303.111781205662
  0
LINE
  5
14B
100
AcDbEntity
  8
1
  6
CONTINUOUS
 62
           3
100
AcDbLine
 10
703.910119695298
 20
303.111781205662
 11
704.994093754409
 21
307.536023629844
  0
LINE
  5
14A
100
AcDbEntity
  8
1
  6
CONTINUOUS
 62
           3
100
AcDbLine
 10
722.239396831465
 20
316.38450847832
 11
720.145319753901
 21
316.38450847832
  0
LINE
  5
149
100
AcDbEntity
  8
1
  6
CONTINUOUS
 62
           3
100
AcDbLine
 10
720.145319753901
 20
316.38450847832
 11
716.893397576336
 21
303.111781205662
  0
LINE
  5
148
100
AcDbEntity
  8
1
  6
CONTINUOUS
 62
           3
100
AcDbLine
 10
716.893397576336
 20
303.111781205662
 11
718.987474654055
 21
303.111781205662
  0
LINE
  5
147
100
AcDbEntity
  8
1
  6
CONTINUOUS
 62
           3
100
AcDbLine
 10
718.987474654055
 20
303.111781205662
 11
722.239396831465
 21
316.38450847832
  0
LINE
  5
146
100
AcDbEntity
  8
1
  6
CONTINUOUS
 62
           3
100
AcDbLine
 10
721.50036714704
 20
303.111781205662
 11
724.752289324584
 21
316.38450847832
  0
LINE
  5
145
100
AcDbEntity
  8
1
  6
CONTINUOUS
 62
           3
100
AcDbLine
 10
724.752289324584
 20
316.38450847832
 11
737.316751790175
 21
316.38450847832
  0
LINE
  5
144
100
AcDbEntity
  8
1
  6
CONTINUOUS
 62
           3
100
AcDbLine
 10
737.316751790175
 20
316.38450847832
 11
736.178579028048
 21
311.739053932891
  0
LINE
  5
143
100
AcDbEntity
  8
1
  6
CONTINUOUS
 62
           3
100
AcDbLine
 10
734.064829612653
 20
303.111781205662
 11
721.50036714704
 21
303.111781205662
  0
LINE
  5
142
100
AcDbEntity
  8
1
  6
CONTINUOUS
 62
           3
100
AcDbLine
 10
732.512739564605
 20
305.323902417793
 11
724.136431254276
 21
305.323902417793
  0
LINE
  5
141
100
AcDbEntity
  8
1
  6
CONTINUOUS
 62
           3
100
AcDbLine
 10
734.6806876829
 20
314.172387266269
 11
734.084501950522
 21
311.739053932891
  0
LINE
  5
140
100
AcDbEntity
  8
1
  6
CONTINUOUS
 62
           3
100
AcDbLine
 10
726.304379372603
 20
314.172387266269
 11
734.6806876829
 21
314.172387266269
  0
LINE
  5
13F
100
AcDbEntity
  8
1
  6
CONTINUOUS
 62
           3
100
AcDbLine
 10
724.136431254276
 20
305.323902417793
 11
726.304379372603
 21
314.172387266269
  0
LINE
  5
13E
100
AcDbEntity
  8
1
  6
CONTINUOUS
 62
           3
100
AcDbLine
 10
735.690790701425
 20
309.748144842033
 11
729.408559468619
 21
309.748144842033
  0
LINE
  5
13D
100
AcDbEntity
  8
1
  6
CONTINUOUS
 62
           3
100
AcDbLine
 10
735.690790701425
 20
309.748144842033
 11
734.064829612653
 21
303.111781205662
  0
LINE
  5
13C
100
AcDbEntity
  8
1
  6
CONTINUOUS
 62
           3
100
AcDbLine
 10
729.408559468619
 20
309.748144842033
 11
728.866572438972
 21
307.536023629844
  0
LINE
  5
13B
100
AcDbEntity
  8
1
  6
CONTINUOUS
 62
           3
100
AcDbLine
 10
728.866572438972
 20
307.536023629844
 11
733.054726594372
 21
307.536023629844
  0
LINE
  5
13A
100
AcDbEntity
  8
1
  6
CONTINUOUS
 62
           3
100
AcDbLine
 10
733.054726594372
 20
307.536023629844
 11
732.512739564605
 21
305.323902417793
  0
LINE
  5
139
100
AcDbEntity
  8
1
  6
CONTINUOUS
 62
           3
100
AcDbLine
 10
734.084501950522
 20
311.739053932891
 11
736.178579028048
 21
311.739053932891
  0
LINE
  5
138
100
AcDbEntity
  8
1
  6
CONTINUOUS
 62
           3
100
AcDbLine
 10
736.577722105769
 20
303.111781205662
 11
738.671799183329
 21
303.111781205662
  0
LINE
  5
137
100
AcDbEntity
  8
1
  6
CONTINUOUS
 62
           3
100
AcDbLine
 10
738.671799183329
 20
303.111781205662
 11
741.923721360898
 21
316.38450847832
  0
LINE
  5
136
100
AcDbEntity
  8
1
  6
CONTINUOUS
 62
           3
100
AcDbLine
 10
739.829644283334
 20
316.38450847832
 11
736.577722105769
 21
303.111781205662
  0
LINE
  5
135
100
AcDbEntity
  8
1
  6
CONTINUOUS
 62
           3
100
AcDbLine
 10
741.923721360898
 20
316.38450847832
 11
739.829644283334
 21
316.38450847832
  0
LINE
  5
134
100
AcDbEntity
  8
1
  6
CONTINUOUS
 62
           3
100
AcDbLine
 10
741.184691676499
 20
303.111781205662
 11
744.436613854014
 21
316.38450847832
  0
LINE
  5
133
100
AcDbEntity
  8
1
  6
CONTINUOUS
 62
           3
100
AcDbLine
 10
744.436613854014
 20
316.38450847832
 11
747.577729470355
 21
316.38450847832
  0
LINE
  5
132
100
AcDbEntity
  8
1
  6
CONTINUOUS
 62
           3
100
AcDbLine
 10
747.577729470355
 20
316.38450847832
 11
752.06156733663
 21
304.770872114746
  0
LINE
  5
131
100
AcDbEntity
  8
1
  6
CONTINUOUS
 62
           3
100
AcDbLine
 10
752.06156733663
 20
304.770872114746
 11
754.906999241983
 21
316.38450847832
  0
LINE
  5
130
100
AcDbEntity
  8
1
  6
CONTINUOUS
 62
           3
100
AcDbLine
 10
754.906999241983
 20
316.38450847832
 11
757.001076319597
 21
316.38450847832
  0
LINE
  5
12F
100
AcDbEntity
  8
1
  6
CONTINUOUS
 62
           3
100
AcDbLine
 10
757.001076319597
 20
316.38450847832
 11
753.749154141977
 21
303.111781205662
  0
LINE
  5
12E
100
AcDbEntity
  8
1
  6
CONTINUOUS
 62
           3
100
AcDbLine
 10
753.749154141977
 20
303.111781205662
 11
750.506475653208
 21
303.111781205662
  0
LINE
  5
12D
100
AcDbEntity
  8
1
  6
CONTINUOUS
 62
           3
100
AcDbLine
 10
750.506475653208
 20
303.111781205662
 11
746.725319317498
 21
312.905394629535
  0
LINE
  5
12C
100
AcDbEntity
  8
1
  6
CONTINUOUS
 62
           3
100
AcDbLine
 10
746.725319317498
 20
312.905394629535
 11
746.084771050988
 21
314.564485538598
  0
LINE
  5
12B
100
AcDbEntity
  8
1
  6
CONTINUOUS
 62
           3
100
AcDbLine
 10
746.084771050988
 20
314.564485538598
 11
743.278768754059
 21
303.111781205662
  0
LINE
  5
12A
100
AcDbEntity
  8
1
  6
CONTINUOUS
 62
           3
100
AcDbLine
 10
743.278768754059
 20
303.111781205662
 11
741.184691676499
 21
303.111781205662
  0
LINE
  5
129
100
AcDbEntity
  8
1
  6
CONTINUOUS
 62
           3
100
AcDbLine
 10
756.262046635093
 20
303.111781205662
 11
763.77347691399
 21
316.38450847832
  0
LINE
  5
128
100
AcDbEntity
  8
1
  6
CONTINUOUS
 62
           3
100
AcDbLine
 10
763.77347691399
 20
316.38450847832
 11
767.818923176965
 21
316.38450847832
  0
LINE
  5
127
100
AcDbEntity
  8
1
  6
CONTINUOUS
 62
           3
100
AcDbLine
 10
767.818923176965
 20
316.38450847832
 11
768.826509100727
 21
303.111781205662
  0
LINE
  5
126
100
AcDbEntity
  8
1
  6
CONTINUOUS
 62
           3
100
AcDbLine
 10
768.826509100727
 20
303.111781205662
 11
766.796826937658
 21
303.111781205662
  0
LINE
  5
125
100
AcDbEntity
  8
1
  6
CONTINUOUS
 62
           3
100
AcDbLine
 10
766.796826937658
 20
303.111781205662
 11
766.628895950391
 21
305.323902417793
  0
LINE
  5
124
100
AcDbEntity
  8
1
  6
CONTINUOUS
 62
           3
100
AcDbLine
 10
766.628895950391
 20
305.323902417793
 11
759.892748670027
 21
305.323902417793
  0
LINE
  5
123
100
AcDbEntity
  8
1
  6
CONTINUOUS
 62
           3
100
AcDbLine
 10
759.892748670027
 20
305.323902417793
 11
758.640843623664
 21
303.111781205662
  0
LINE
  5
122
100
AcDbEntity
  8
1
  6
CONTINUOUS
 62
           3
100
AcDbLine
 10
758.640843623664
 20
303.111781205662
 11
756.262046635093
 21
303.111781205662
  0
LINE
  5
121
100
AcDbEntity
  8
1
  6
CONTINUOUS
 62
           3
100
AcDbLine
 10
761.144653716558
 20
307.536023629844
 11
766.460964963069
 21
307.536023629844
  0
LINE
  5
120
100
AcDbEntity
  8
1
  6
CONTINUOUS
 62
           3
100
AcDbLine
 10
766.460964963069
 20
307.536023629844
 11
765.957172001214
 21
314.172387266269
  0
LINE
  5
11F
100
AcDbEntity
  8
1
  6
CONTINUOUS
 62
           3
100
AcDbLine
 10
765.957172001214
 20
314.172387266269
 11
764.900368855924
 21
314.172387266269
  0
LINE
  5
11E
100
AcDbEntity
  8
1
  6
CONTINUOUS
 62
           3
100
AcDbLine
 10
761.144653716558
 20
307.536023629844
 11
764.900368855924
 21
314.172387266269
  0
LINE
  5
11D
100
AcDbEntity
  8
1
  6
CONTINUOUS
 62
           3
100
AcDbLine
 10
774.591323771416
 20
316.38450847832
 11
771.339401593847
 21
303.111781205662
  0
LINE
  5
11C
100
AcDbEntity
  8
1
  6
CONTINUOUS
 62
           3
100
AcDbLine
 10
771.339401593847
 20
303.111781205662
 11
783.903864059426
 21
303.111781205662
  0
LINE
  5
11B
100
AcDbEntity
  8
1
  6
CONTINUOUS
 62
           3
100
AcDbLine
 10
783.903864059426
 20
303.111781205662
 11
784.445851089087
 21
305.323902417793
  0
LINE
  5
11A
100
AcDbEntity
  8
1
  6
CONTINUOUS
 62
           3
100
AcDbLine
 10
784.445851089087
 20
305.323902417793
 11
773.975465701067
 21
305.323902417793
  0
LINE
  5
119
100
AcDbEntity
  8
1
  6
CONTINUOUS
 62
           3
100
AcDbLine
 10
773.975465701067
 20
305.323902417793
 11
776.68540084903
 21
316.38450847832
  0
LINE
  5
118
100
AcDbEntity
  8
1
  6
CONTINUOUS
 62
           3
100
AcDbLine
 10
776.68540084903
 20
316.38450847832
 11
774.591323771416
 21
316.38450847832
  0
LINE
  5
117
100
AcDbEntity
  8
1
  6
CONTINUOUS
 62
           3
100
AcDbLine
 10
821.206636135699
 20
310.200111213842
 11
821.206636135699
 21
307.451055788282
  0
LINE
  5
116
100
AcDbEntity
  8
1
  6
CONTINUOUS
 62
           3
100
AcDbLine
 10
820.334188436584
 20
307.451055788282
 11
820.334188436584
 21
314.309523963456
  0
LINE
  5
115
100
AcDbEntity
  8
1
  6
CONTINUOUS
 62
           3
100
AcDbLine
 10
820.334188436584
 20
314.309523963456
 11
822.776108295824
 21
314.309523963456
  0
LINE
  5
114
100
AcDbEntity
  8
1
  6
CONTINUOUS
 62
           3
100
AcDbLine
 10
822.776108295824
 20
314.309523963456
 11
823.072464878176
 21
314.309523963456
  0
LINE
  5
113
100
AcDbEntity
  8
1
  6
CONTINUOUS
 62
           3
100
AcDbLine
 10
824.906099392742
 20
309.330689554626
 11
824.906099392742
 21
307.451055788282
  0
LINE
  5
112
100
AcDbEntity
  8
1
  6
CONTINUOUS
 62
           3
100
AcDbLine
 10
824.906099392742
 20
307.451055788282
 11
823.944912577237
 21
307.451055788282
  0
LINE
  5
111
100
AcDbEntity
  8
1
  6
CONTINUOUS
 62
           3
100
AcDbLine
 10
823.944912577237
 20
307.451055788282
 11
823.944912577237
 21
309.0729110559
  0
LINE
  5
110
100
AcDbEntity
  8
1
  6
CONTINUOUS
 62
           3
100
AcDbLine
 10
822.931697837317
 20
310.200111213842
 11
821.206636135699
 21
310.200111213842
  0
LINE
  5
10F
100
AcDbEntity
  8
1
  6
CONTINUOUS
 62
           3
100
AcDbLine
 10
821.206636135699
 20
307.451055788282
 11
820.334188436584
 21
307.451055788282
  0
LINE
  5
10E
100
AcDbEntity
  8
1
  6
CONTINUOUS
 62
           3
100
AcDbLine
 10
821.206636135699
 20
311.050334541276
 11
823.194119363641
 21
311.050334541276
  0
LINE
  5
10D
100
AcDbEntity
  8
1
  6
CONTINUOUS
 62
           3
100
AcDbLine
 10
823.062609127785
 20
313.505992531278
 11
821.206636135699
 21
313.505992531278
  0
LINE
  5
10C
100
AcDbEntity
  8
1
  6
CONTINUOUS
 62
           3
100
AcDbLine
 10
821.206636135699
 20
313.505992531278
 11
821.206636135699
 21
311.050334541276
  0
ENDBLK
  5
1C0
100
AcDbEntity
  8
0
100
AcDbBlockEnd
  0
ENDSEC
  0
SECTION
  2
ENTITIES
  0
TEXT
  5
1C6
100
AcDbEntity
  8
1
 62
           2
100
AcDbText
 10
650.0
 20
185.0
 40
35.0
  1
CAPRIVI 580
 41
0.71262
  7
CONVERTER_1
100
AcDbText
  0
MTEXT
  5
1C5
100
AcDbEntity
  8
1
 62
           3
100
AcDbMText
 10
1799.520723182688
 20
350.0
 30
0.0
 40
35.0
 41
0.0
 71
           2
 72
           1
  1
ø 52
  7
CONVERTER_1
  0
MTEXT
  5
1C4
100
AcDbEntity
  8
1
 62
           3
100
AcDbMText
 10
179.999999999994
 20
350.0
 30
0.0
 40
35.0
 41
0.0
 71
           2
 72
           1
  1
ø 52
  7
CONVERTER_1
  0
MTEXT
  5
1C3
100
AcDbEntity
  8
1
 62
           3
100
AcDbMText
 10
990.0
 20
55.0
 30
0.0
 40
35.0
 41
0.0
 71
           2
 72
           1
  1
ø 90
  7
CONVERTER_1
  0
INSERT
  5
2E
100
AcDbEntity
  8
0
100
AcDbBlockReference
  2
WANNE_CAPRIVI_580
 10
0.0
 20
0.0
  0
INSERT
  5
2F
100
AcDbEntity
  8
0
100
AcDbBlockReference
  2
DLX
 10
0.0
 20
0.0
  0
ENDSEC
  0
SECTION
  2
OBJECTS
  0
DICTIONARY
  5
19
100
AcDbDictionary
  3
ACAD_GROUP
350
1A
  3
ACAD_MLINESTYLE
350
1B
  0
DICTIONARY
  5
1A
102
{ACAD_REACTORS
330
19
102
}
100
AcDbDictionary
  0
DICTIONARY
  5
1B
102
{ACAD_REACTORS
330
19
102
}
100
AcDbDictionary
  3
STANDARD
350
1C
  0
MLINESTYLE
  5
1C
102
{ACAD_REACTORS
330
1B
102
}
100
AcDbMlineStyle
  2
STANDARD
 70
           0
  3

 62
           0
 51
90.0
 52
90.0
 71
           2
 49
0.5
 62
         256
  6
BYLAYER
 49
-0.5
 62
         256
  6
BYLAYER
  0
ENDSEC
  0
EOF
