  0
SECTION
  2
HEADER
  9
$ACADVER
  1
AC1014
  9
$ACADMAINTVER
 70
           0
  9
$DWGCODEPAGE
  3
ANSI_1252
  9
$INSBASE
 10
0.0
 20
0.0
 30
0.0
  9
$EXTMIN
 10
1.000000000000E+20
 20
1.000000000000E+20
 30
1.000000000000E+20
  9
$EXTMAX
 10
-1.000000000000E+20
 20
-1.000000000000E+20
 30
-1.000000000000E+20
  9
$LIMMIN
 10
0.0
 20
0.0
  9
$LIMMAX
 10
0.0
 20
0.0
  9
$ORTHOMODE
 70
           0
  9
$REGENMODE
 70
           1
  9
$FILLMODE
 70
           1
  9
$QTEXTMODE
 70
           0
  9
$MIRRTEXT
 70
           1
  9
$DRAGMODE
 70
           2
  9
$LTSCALE
 40
1.0
  9
$OSMODE
 70
           0
  9
$ATTMODE
 70
           1
  9
$TEXTSIZE
 40
0.2
  9
$TRACEWID
 40
0.05
  9
$TEXTSTYLE
  7
STANDARD
  9
$CLAYER
  8
0
  9
$CELTYPE
  6
CONTINUOUS
  9
$CECOLOR
 62
         256
  9
$CELTSCALE
 40
1.0
  9
$DELOBJ
 70
           1
  9
$DISPSILH
 70
           0
  9
$DIMSCALE
 40
1.0
  9
$DIMASZ
 40
0.18
  9
$DIMEXO
 40
0.0625
  9
$DIMDLI
 40
0.38
  9
$DIMRND
 40
0.0
  9
$DIMDLE
 40
0.0
  9
$DIMEXE
 40
0.18
  9
$DIMTP
 40
0.0
  9
$DIMTM
 40
0.0
  9
$DIMTXT
 40
0.18
  9
$DIMCEN
 40
0.09
  9
$DIMTSZ
 40
0.0
  9
$DIMTOL
 70
           0
  9
$DIMLIM
 70
           0
  9
$DIMTIH
 70
           1
  9
$DIMTOH
 70
           1
  9
$DIMSE1
 70
           0
  9
$DIMSE2
 70
           0
  9
$DIMTAD
 70
           0
  9
$DIMZIN
 70
           0
  9
$DIMBLK
  1

  9
$DIMASO
 70
           1
  9
$DIMSHO
 70
           1
  9
$DIMPOST
  1

  9
$DIMAPOST
  1

  9
$DIMALT
 70
           0
  9
$DIMALTD
 70
           2
  9
$DIMALTF
 40
25.4
  9
$DIMLFAC
 40
1.0
  9
$DIMTOFL
 70
           0
  9
$DIMTVP
 40
0.0
  9
$DIMTIX
 70
           0
  9
$DIMSOXD
 70
           0
  9
$DIMSAH
 70
           0
  9
$DIMBLK1
  1

  9
$DIMBLK2
  1

  9
$DIMSTYLE
  2
STANDARD
  9
$DIMCLRD
 70
           0
  9
$DIMCLRE
 70
           0
  9
$DIMCLRT
 70
           0
  9
$DIMTFAC
 40
1.0
  9
$DIMGAP
 40
0.09
  9
$DIMJUST
 70
           0
  9
$DIMSD1
 70
           0
  9
$DIMSD2
 70
           0
  9
$DIMTOLJ
 70
           1
  9
$DIMTZIN
 70
           0
  9
$DIMALTZ
 70
           0
  9
$DIMALTTZ
 70
           0
  9
$DIMFIT
 70
           3
  9
$DIMUPT
 70
           0
  9
$DIMUNIT
 70
           2
  9
$DIMDEC
 70
           4
  9
$DIMTDEC
 70
           4
  9
$DIMALTU
 70
           2
  9
$DIMALTTD
 70
           2
  9
$DIMTXSTY
  7
STANDARD
  9
$DIMAUNIT
 70
           0
  9
$LUNITS
 70
           2
  9
$LUPREC
 70
           4
  9
$SKETCHINC
 40
0.1
  9
$FILLETRAD
 40
0.0
  9
$AUNITS
 70
           0
  9
$AUPREC
 70
           0
  9
$MENU
  1
acad
  9
$ELEVATION
 40
0.0
  9
$PELEVATION
 40
0.0
  9
$THICKNESS
 40
0.0
  9
$LIMCHECK
 70
           0
  9
$BLIPMODE
 70
           1
  9
$CHAMFERA
 40
0.0
  9
$CHAMFERB
 40
0.0
  9
$CHAMFERC
 40
0.0
  9
$CHAMFERD
 40
0.0
  9
$SKPOLY
 70
           0
  9
$TDCREATE
 40
0.000000000
  9
$TDUPDATE
 40
0.000000000
  9
$TDINDWG
 40
0.0000000000
  9
$TDUSRTIMER
 40
0.0000000000
  9
$USRTIMER
 70
           1
  9
$ANGBASE
 50
0.0
  9
$ANGDIR
 70
           0
  9
$PDMODE
 70
           0
  9
$PDSIZE
 40
0.0
  9
$PLINEWID
 40
0.0
  9
$COORDS
 70
           0
  9
$SPLFRAME
 70
           0
  9
$SPLINETYPE
 70
           6
  9
$SPLINESEGS
 70
           8
  9
$ATTDIA
 70
           0
  9
$ATTREQ
 70
           1
  9
$HANDLING
 70
           1
  9
$HANDSEED
  5
1EA
  9
$SURFTAB1
 70
           6
  9
$SURFTAB2
 70
           6
  9
$SURFTYPE
 70
           6
  9
$SURFU
 70
           6
  9
$SURFV
 70
           6
  9
$UCSNAME
  2

  9
$UCSORG
 10
0.0
 20
0.0
 30
0.0
  9
$UCSXDIR
 10
1.0
 20
0.0
 30
0.0
  9
$UCSYDIR
 10
0.0
 20
1.0
 30
0.0
  9
$PUCSNAME
  2

  9
$PUCSORG
 10
0.0
 20
0.0
 30
0.0
  9
$PUCSXDIR
 10
1.0
 20
0.0
 30
0.0
  9
$PUCSYDIR
 10
0.0
 20
1.0
 30
0.0
  9
$USERI1
 70
           0
  9
$USERI2
 70
           0
  9
$USERI3
 70
           0
  9
$USERI4
 70
           0
  9
$USERI5
 70
           0
  9
$USERR1
 40
0.0
  9
$USERR2
 40
0.0
  9
$USERR3
 40
0.0
  9
$USERR4
 40
0.0
  9
$USERR5
 40
0.0
  9
$WORLDVIEW
 70
           1
  9
$SHADEDGE
 70
           3
  9
$SHADEDIF
 70
          70
  9
$TILEMODE
 70
           1
  9
$MAXACTVP
 70
          16
  9
$PINSBASE
 10
0.0
 20
0.0
 30
0.0
  9
$PLIMCHECK
 70
           0
  9
$PEXTMIN
 10
1.000000000000E+20
 20
1.000000000000E+20
 30
1.000000000000E+20
  9
$PEXTMAX
 10
-1.000000000000E+20
 20
-1.000000000000E+20
 30
-1.000000000000E+20
  9
$PLIMMIN
 10
0.0
 20
0.0
  9
$PLIMMAX
 10
12.0
 20
9.0
  9
$UNITMODE
 70
           0
  9
$VISRETAIN
 70
           0
  9
$PLINEGEN
 70
           1
  9
$PSLTSCALE
 70
           0
  9
$TREEDEPTH
 70
        3020
  9
$PICKSTYLE
 70
           1
  9
$CMLSTYLE
  2
STANDARD
  9
$CMLJUST
 70
           0
  9
$CMLSCALE
 40
1.0
  9
$PROXYGRAPHICS
 70
           0
  9
$MEASUREMENT
 70
           0
  0
ENDSEC
  0
SECTION
  2
CLASSES
  0
CLASS
  1
LWPOLYLINE
  2
AcDbPolyline
  3
"AutoCAD"
 90
        0
280
           0
281
           1
  0
CLASS
  1
IMAGE
  2
AcDbRasterImage
  3
ISM
 90
      127
280
           0
281
           1
  0
CLASS
  1
OLE2FRAME
  2
AcDbOle2Frame
  3
""
 90
        0
280
           0
281
           1
  0
CLASS
  1
HATCH
  2
AcDbHatch
  3
"ACAD_SEDONA"
 90
        0
280
           0
281
           1
  0
CLASS
  1
DICTIONARYVAR
  2
AcDbDictionaryVar
  3
"AutoCAD"
 90
        0
280
           0
281
           0
  0
CLASS
  1
RASTERVARIABLES
  2
AcDbRasterVariables
  3
ISM
 90
        0
280
           0
281
           0
  0
CLASS
  1
IMAGEDEF
  2
AcDbRasterImageDef
  3
ISM
 90
        0
280
           0
281
           0
  0
CLASS
  1
IMAGEDEF_REACTOR
  2
AcDbRasterImageDefReactor
  3
ISM
 90
        1
280
           0
281
           0
  0
CLASS
  1
IDBUFFER
  2
AcDbIdBuffer
  3
"Acad"
 90
        0
280
           0
281
           0
  0
CLASS
  1
SPATIAL_FILTER
  2
AcDbSpatialFilter
  3
"Acad"
 90
        0
280
           0
281
           0
  0
CLASS
  1
XRECORD
  2
AcDbXrecord
  3
"<Built In>"
 90
        0
280
           0
281
           0
  0
CLASS
  1
SORTENTSTABLE
  2
AcDbSortentsTable
  3
"AutoCAD"
 90
        0
280
           0
281
           0
  0
CLASS
  1
LAYER_INDEX
  2
AcDbLayerIndex
  3
"Acad"
 90
        0
280
           0
281
           0
  0
CLASS
  1
SPATIAL_INDEX
  2
AcDbSpatialIndex
  3
"Acad"
 90
        0
280
           0
281
           0
  0
CLASS
  1
OBJECT_PTR
  2
CAseDLPNTableRecord
  3
"ASE-LPNTableRecord"
 90
        1
280
           0
281
           0
  0
CLASS
  1
LAYOUT
  2
AcDbLayout
  3
"AutoCAD 2000"
 90
        1
280
           0
281
           0
  0
CLASS
  1
PLOTSETTINGS
  2
AcDbPlotSettings
  3
"AutoCAD 2000"
 90
        1
280
           0
281
           0
  0
CLASS
  1
ACDBDICTIONARYWDFLT
  2
AcDbDictionaryWithDefault
  3
"AutoCAD 2000"
 90
        1
280
           0
281
           0
  0
CLASS
  1
ACDBPLACEHOLDER
  2
AcDbPlaceHolder
  3
"AutoCAD 2000"
 90
        1
280
           0
281
           0
  0
CLASS
  1
VBA_PROJECT
  2
AcDbVbaProject
  3
"acadvba"
 90
        1
280
           0
281
           0
  0
CLASS
  1
WIPEOUT
  2
AcDbWipeout
  3
WipeOut|AutoCAD Express Tool|expresstools@autodesk.com
 90
      127
280
           0
281
           1
  0
CLASS
  1
WIPEOUTVARIABLES
  2
AcDbWipeoutVariables
  3
WipeOut|AutoCAD Express Tool|expresstools@autodesk.com
 90
        0
280
           0
281
           0
  0
CLASS
  1
RTEXT
  2
RText
  3
RText|AutoCAD Express Tool|expresstools@autodesk.com
 90
        0
280
           0
281
           1
  0
CLASS
  1
ARCALIGNEDTEXT
  2
AcDbArcAlignedText
  3
ATEXT|AutoCAD Express Tool|expresstools@autodesk.com
 90
        0
280
           0
281
           1
  0
ENDSEC
  0
SECTION
  2
TABLES
  0
TABLE
  2
VPORT
  5
7
100
AcDbSymbolTable
 70
           1
  0
VPORT
  5
15
100
AcDbSymbolTableRecord
100
AcDbViewportTableRecord
  2
*ACTIVE
 70
           0
 10
0.0
 20
0.0
 11
1.0
 21
1.0
 12
6.591288
 22
4.579184
 13
0.0
 23
0.0
 14
1.0
 24
1.0
 15
0.0
 25
0.0
 16
0.0
 26
0.0
 36
1.0
 17
0.0
 27
0.0
 37
0.0
 40
9.158369
 41
0.688564
 42
50.0
 43
0.0
 44
0.0
 50
0.0
 51
0.0
 71
           0
 72
         100
 73
           1
 74
           1
 75
           0
 76
           0
 77
           0
 78
           0
  0
ENDTAB
  0
TABLE
  2
LTYPE
  5
4
100
AcDbSymbolTable
 70
          10
  0
LTYPE
  5
11
100
AcDbSymbolTableRecord
100
AcDbLinetypeTableRecord
  2
BYBLOCK
 70
          64
  3

 72
          65
 73
           0
 40
0.0
  0
LTYPE
  5
12
100
AcDbSymbolTableRecord
100
AcDbLinetypeTableRecord
  2
BYLAYER
 70
          64
  3

 72
          65
 73
           0
 40
0.0
  0
LTYPE
  5
13
100
AcDbSymbolTableRecord
100
AcDbLinetypeTableRecord
  2
CONTINUOUS
 70
          64
  3
Solid line
 72
          65
 73
           0
 40
0.0
  0
LTYPE
  5
1D
100
AcDbSymbolTableRecord
100
AcDbLinetypeTableRecord
  2
DASHED
 70
          64
  3
Dashed
 72
          65
 73
           2
 40
15.0
 49
12.0
 74
           0
 49
-3.0
 74
           0
  0
LTYPE
  5
1E
100
AcDbSymbolTableRecord
100
AcDbLinetypeTableRecord
  2
DOTTED
 70
          64
  3
Dotted
 72
          65
 73
           2
 40
3.5
 49
0.5
 74
           0
 49
-3.0
 74
           0
  0
LTYPE
  5
1F
100
AcDbSymbolTableRecord
100
AcDbLinetypeTableRecord
  2
DOT_CENTER
 70
          64
  3
Dot_Center
 72
          65
 73
           4
 40
2.0
 49
1.25
 74
           0
 49
-0.25
 74
           0
 49
0.25
 74
           0
 49
-0.25
 74
           0
  0
LTYPE
  5
20
100
AcDbSymbolTableRecord
100
AcDbLinetypeTableRecord
  2
LONG_DASHED
 70
          64
  3
Long_Dashed
 72
          65
 73
           2
 40
2.0
 49
1.5
 74
           0
 49
-0.5
 74
           0
  0
LTYPE
  5
21
100
AcDbSymbolTableRecord
100
AcDbLinetypeTableRecord
  2
DASH_CENTER
 70
          64
  3
Dash_Center
 72
          65
 73
           4
 40
36.0
 49
24.0
 74
           0
 49
-3.0
 74
           0
 49
6.0
 74
           0
 49
-3.0
 74
           0
  0
LTYPE
  5
22
100
AcDbSymbolTableRecord
100
AcDbLinetypeTableRecord
  2
PHANTOM
 70
          64
  3
Phantom
 72
          65
 73
           6
 40
2.5
 49
1.25
 74
           0
 49
-0.25
 74
           0
 49
0.25
 74
           0
 49
-0.25
 74
           0
 49
0.25
 74
           0
 49
-0.25
 74
           0
  0
LTYPE
  5
23
100
AcDbSymbolTableRecord
100
AcDbLinetypeTableRecord
  2
CENTER_DASH_DASH
 70
          64
  3
Center_Dash_Dash
 72
          65
 73
           6
 40
22.0
 49
12.0
 74
           0
 49
-3.0
 74
           0
 49
0.5
 74
           0
 49
-3.0
 74
           0
 49
0.5
 74
           0
 49
-3.0
 74
           0
  0
ENDTAB
  0
TABLE
  2
LAYER
  5
2
100
AcDbSymbolTable
 70
           2
  0
LAYER
  5
14
100
AcDbSymbolTableRecord
100
AcDbLayerTableRecord
  2
0
 70
           0
 62
           7
  6
CONTINUOUS
  0
LAYER
  5
24
100
AcDbSymbolTableRecord
100
AcDbLayerTableRecord
  2
1
 70
           0
 62
           7
  6
CONTINUOUS
  0
ENDTAB
  0
TABLE
  2
STYLE
  5
3
100
AcDbSymbolTable
 70
           2
  0
STYLE
  5
17
100
AcDbSymbolTableRecord
100
AcDbTextStyleTableRecord
  2
STANDARD
 70
           0
 40
0.0
 41
1.0
 50
0.0
 71
           0
 42
0.0
  3
txt
  4

  0
STYLE
  5
1E4
100
AcDbSymbolTableRecord
100
AcDbTextStyleTableRecord
  2
CONVERTER_1
 70
           0
 40
0.0
 41
0.71262
 50
0.0
 71
           0
 42
0.0
  3
txt.shx
  4

  0
ENDTAB
  0
TABLE
  2
VIEW
  5
5
100
AcDbSymbolTable
 70
           0
  0
ENDTAB
  0
TABLE
  2
UCS
  5
6
100
AcDbSymbolTable
 70
           0
  0
ENDTAB
  0
TABLE
  2
APPID
  5
8
100
AcDbSymbolTable
 70
           1
  0
APPID
  5
16
100
AcDbSymbolTableRecord
100
AcDbRegAppTableRecord
  2
ACAD
 70
           0
  0
ENDTAB
  0
TABLE
  2
DIMSTYLE
  5
9
100
AcDbSymbolTable
 70
           1
  0
DIMSTYLE
105
18
100
AcDbSymbolTableRecord
100
AcDbDimStyleTableRecord
  2
STANDARD
 70
           0
  3

  4

  5

  6

  7

 40
1.0
 41
0.18
 42
0.0625
 43
0.38
 44
0.18
 45
0.0
 46
0.0
 47
0.0
 48
0.0
 71
           0
 72
           0
 73
           1
 74
           1
 75
           0
 76
           0
 77
           0
 78
           0
140
0.18
141
0.09
142
0.0
143
25.4
144
1.0
145
0.0
146
1.0
147
0.09
170
           0
171
           2
172
           0
173
           0
174
           0
175
           0
176
           0
177
           0
178
           0
270
           2
271
           4
272
           4
273
           2
274
           2
275
           0
280
           0
281
           0
282
           0
283
           1
284
           0
285
           0
286
           0
287
           0
288
           0
340
17
  0
ENDTAB
  0
TABLE
  2
BLOCK_RECORD
  5
1
100
AcDbSymbolTable
 70
           3
  0
BLOCK_RECORD
  5
A
100
AcDbSymbolTableRecord
100
AcDbBlockTableRecord
  2
*MODEL_SPACE
  0
BLOCK_RECORD
  5
B
100
AcDbSymbolTableRecord
100
AcDbBlockTableRecord
  2
*PAPER_SPACE
  0
BLOCK_RECORD
  5
25
100
AcDbSymbolTableRecord
100
AcDbBlockTableRecord
  2
DLX
  0
BLOCK_RECORD
  5
27
100
AcDbSymbolTableRecord
100
AcDbBlockTableRecord
  2
WANNENF_SSE
  0
BLOCK_RECORD
  5
29
100
AcDbSymbolTableRecord
100
AcDbBlockTableRecord
  2
WANNE_CAPRIVI_581
  0
ENDTAB
  0
ENDSEC
  0
SECTION
  2
BLOCKS
  0
BLOCK
  5
D
100
AcDbEntity
  8
0
100
AcDbBlockBegin
  2
*MODEL_SPACE
 70
           0
 10
0.0
 20
0.0
 30
0.0
  3
*MODEL_SPACE
  1

  0
ENDBLK
  5
E
100
AcDbEntity
  8
0
100
AcDbBlockEnd
  0
BLOCK
  5
F
100
AcDbEntity
 67
           1
  8
0
100
AcDbBlockBegin
  2
*PAPER_SPACE
 70
           0
 10
0.0
 20
0.0
 30
0.0
  3
*PAPER_SPACE
  1

  0
ENDBLK
  5
10
100
AcDbEntity
 67
           1
  8
0
100
AcDbBlockEnd
  0
BLOCK
  5
26
100
AcDbEntity
  8
0
100
AcDbBlockBegin
  2
DLX
 70
           0
 10
0.0
 20
0.0
 30
0.0
  3
DLX
  1

  0
CIRCLE
  5
E3
100
AcDbEntity
  8
1
  6
CONTINUOUS
 62
           3
100
AcDbCircle
 10
842.735875237938
 20
310.878787878755
 40
5.972862778754
  0
CIRCLE
  5
E2
100
AcDbEntity
  8
1
  6
CONTINUOUS
 62
           3
100
AcDbCircle
 10
842.735875237938
 20
310.878787878755
 40
5.530127989696
  0
ARC
  5
E1
100
AcDbEntity
  8
1
  6
CONTINUOUS
 62
           3
100
AcDbCircle
 10
842.942694069317
 20
312.303919921381
 40
2.009798008862
100
AcDbArc
 50
-55.929988464574
 51
86.297888718259
  0
ARC
  5
E0
100
AcDbEntity
  8
1
  6
CONTINUOUS
 62
           3
100
AcDbCircle
 10
842.864376243303
 20
312.264025930551
 40
1.257687287767
100
AcDbArc
 50
-74.800419047056
 51
80.931395238799
  0
ARC
  5
DF
100
AcDbEntity
  8
1
  6
CONTINUOUS
 62
           3
100
AcDbCircle
 10
842.789193605106
 20
309.053039389822
 40
1.155889798232
100
AcDbArc
 50
0.985058170482
 51
82.918254632921
  0
ARC
  5
DE
100
AcDbEntity
  8
1
  6
CONTINUOUS
 62
           3
100
AcDbCircle
 10
843.514586791597
 20
309.362233682226
 40
1.391870091328
100
AcDbArc
 50
-1.298612665727
 51
66.544866494044
  0
LINE
  5
DD
100
AcDbEntity
  8
1
  6
CONTINUOUS
 62
           3
100
AcDbLine
 10
735.328223469319
 20
306.979895810782
 11
735.032820381938
 21
307.978447872363
  0
LINE
  5
DC
100
AcDbEntity
  8
1
  6
CONTINUOUS
 62
           3
100
AcDbLine
 10
735.764903150885
 20
308.762204858332
 11
735.032820381938
 21
307.978447872363
  0
LINE
  5
DB
100
AcDbEntity
  8
1
  6
CONTINUOUS
 62
           3
100
AcDbLine
 10
770.795927119555
 20
278.237708784527
 11
774.180334610436
 21
292.051175145079
  0
LINE
  5
DA
100
AcDbEntity
  8
1
  6
CONTINUOUS
 62
           3
100
AcDbLine
 10
766.607772964316
 20
278.237708784527
 11
769.992180455331
 21
292.051175145079
  0
LINE
  5
D9
100
AcDbEntity
  8
1
  6
CONTINUOUS
 62
           3
100
AcDbLine
 10
766.607772964316
 20
278.237708784527
 11
770.795927119555
 21
278.237708784527
  0
LINE
  5
D8
100
AcDbEntity
  8
1
  6
CONTINUOUS
 62
           3
100
AcDbLine
 10
765.523798905147
 20
273.813466360341
 11
769.711953060335
 21
273.813466360341
  0
LINE
  5
D7
100
AcDbEntity
  8
1
  6
CONTINUOUS
 62
           3
100
AcDbLine
 10
766.327545569439
 20
260.0
 11
772.609776802336
 21
260.0
  0
LINE
  5
D6
100
AcDbEntity
  8
1
  6
CONTINUOUS
 62
           3
100
AcDbLine
 10
769.992180455331
 20
292.051175145079
 11
763.709949222467
 21
292.051175145079
  0
LINE
  5
D5
100
AcDbEntity
  8
1
  6
CONTINUOUS
 62
           3
100
AcDbLine
 10
801.40333661929
 20
292.051175145079
 11
793.550547578271
 21
260.0
  0
LINE
  5
D4
100
AcDbEntity
  8
1
  6
CONTINUOUS
 62
           3
100
AcDbLine
 10
794.037131327293
 20
287.626932720839
 11
788.352290404569
 21
264.424242424182
  0
LINE
  5
D3
100
AcDbEntity
  8
1
  6
CONTINUOUS
 62
           3
100
AcDbLine
 10
789.848977172042
 20
287.626932720839
 11
794.037131327293
 21
287.626932720839
  0
LINE
  5
D2
100
AcDbEntity
  8
1
  6
CONTINUOUS
 62
           3
100
AcDbLine
 10
801.40333661929
 20
292.051175145079
 11
784.65071999846
 21
292.051175145079
  0
LINE
  5
D1
100
AcDbEntity
  8
1
  6
CONTINUOUS
 62
           3
100
AcDbLine
 10
784.164136249467
 20
264.424242424182
 11
789.848977172042
 21
287.626932720839
  0
LINE
  5
D0
100
AcDbEntity
  8
1
  6
CONTINUOUS
 62
           3
100
AcDbLine
 10
784.65071999846
 20
292.051175145079
 11
776.797930957463
 21
260.0
  0
LINE
  5
CF
100
AcDbEntity
  8
1
  6
CONTINUOUS
 62
           3
100
AcDbLine
 10
788.352290404569
 20
264.424242424182
 11
784.164136249467
 21
264.424242424182
  0
LINE
  5
CE
100
AcDbEntity
  8
1
  6
CONTINUOUS
 62
           3
100
AcDbLine
 10
776.797930957463
 20
260.0
 11
793.550547578271
 21
260.0
  0
LINE
  5
CD
100
AcDbEntity
  8
1
  6
CONTINUOUS
 62
           3
100
AcDbLine
 10
780.462565843352
 20
292.051175145079
 11
774.180334610436
 21
292.051175145079
  0
LINE
  5
CC
100
AcDbEntity
  8
1
  6
CONTINUOUS
 62
           3
100
AcDbLine
 10
763.709949222467
 20
292.051175145079
 11
755.857160181474
 21
260.0
  0
LINE
  5
CB
100
AcDbEntity
  8
1
  6
CONTINUOUS
 62
           3
100
AcDbLine
 10
762.139391414262
 20
260.0
 11
765.523798905147
 21
273.813466360341
  0
LINE
  5
CA
100
AcDbEntity
  8
1
  6
CONTINUOUS
 62
           3
100
AcDbLine
 10
766.327545569439
 20
260.0
 11
769.711953060335
 21
273.813466360341
  0
LINE
  5
C9
100
AcDbEntity
  8
1
  6
CONTINUOUS
 62
           3
100
AcDbLine
 10
772.609776802336
 20
260.0
 11
780.462565843352
 21
292.051175145079
  0
LINE
  5
C8
100
AcDbEntity
  8
1
  6
CONTINUOUS
 62
           3
100
AcDbLine
 10
755.857160181474
 20
260.0
 11
762.139391414262
 21
260.0
  0
LINE
  5
C7
100
AcDbEntity
  8
1
  6
CONTINUOUS
 62
           3
100
AcDbLine
 10
750.529628686517
 20
280.990569084413
 11
756.811859919323
 21
280.990569084413
  0
LINE
  5
C6
100
AcDbEntity
  8
1
  6
CONTINUOUS
 62
           3
100
AcDbLine
 10
752.155589775311
 20
287.626932720839
 11
750.529628686517
 21
280.990569084413
  0
LINE
  5
C5
100
AcDbEntity
  8
1
  6
CONTINUOUS
 62
           3
100
AcDbLine
 10
747.967435620119
 20
287.626932720839
 11
752.155589775311
 21
287.626932720839
  0
LINE
  5
C4
100
AcDbEntity
  8
1
  6
CONTINUOUS
 62
           3
100
AcDbLine
 10
742.282594697489
 20
264.424242424182
 11
747.967435620119
 21
287.626932720839
  0
LINE
  5
C3
100
AcDbEntity
  8
1
  6
CONTINUOUS
 62
           3
100
AcDbLine
 10
746.470748852691
 20
264.424242424182
 11
742.282594697489
 21
264.424242424182
  0
LINE
  5
C2
100
AcDbEntity
  8
1
  6
CONTINUOUS
 62
           3
100
AcDbLine
 10
748.096709941478
 20
271.060606060608
 11
746.470748852691
 21
264.424242424182
  0
LINE
  5
C1
100
AcDbEntity
  8
1
  6
CONTINUOUS
 62
           3
100
AcDbLine
 10
754.378941174266
 20
271.060606060608
 11
748.096709941478
 21
271.060606060608
  0
LINE
  5
C0
100
AcDbEntity
  8
1
  6
CONTINUOUS
 62
           3
100
AcDbLine
 10
751.669006026293
 20
260.0
 11
754.378941174266
 21
271.060606060608
  0
LINE
  5
BF
100
AcDbEntity
  8
1
  6
CONTINUOUS
 62
           3
100
AcDbLine
 10
734.916389405539
 20
260.0
 11
751.669006026293
 21
260.0
  0
LINE
  5
BE
100
AcDbEntity
  8
1
  6
CONTINUOUS
 62
           3
100
AcDbLine
 10
742.769178446532
 20
292.051175145079
 11
734.916389405539
 21
260.0
  0
LINE
  5
BD
100
AcDbEntity
  8
1
  6
CONTINUOUS
 62
           3
100
AcDbLine
 10
759.521795067253
 20
292.051175145079
 11
742.769178446532
 21
292.051175145079
  0
LINE
  5
BC
100
AcDbEntity
  8
1
  6
CONTINUOUS
 62
           3
100
AcDbLine
 10
756.811859919323
 20
280.990569084413
 11
759.521795067253
 21
292.051175145079
  0
LINE
  5
BB
100
AcDbEntity
  8
1
  6
CONTINUOUS
 62
           3
100
AcDbLine
 10
737.497050232157
 20
287.626932720839
 11
738.581024291315
 21
292.051175145079
  0
LINE
  5
BA
100
AcDbEntity
  8
1
  6
CONTINUOUS
 62
           3
100
AcDbLine
 10
727.026664844177
 20
287.626932720839
 11
737.497050232157
 21
287.626932720839
  0
LINE
  5
B9
100
AcDbEntity
  8
1
  6
CONTINUOUS
 62
           3
100
AcDbLine
 10
724.593746099164
 20
277.696969696953
 11
727.026664844177
 21
287.626932720839
  0
LINE
  5
B8
100
AcDbEntity
  8
1
  6
CONTINUOUS
 62
           3
100
AcDbLine
 10
735.064131487227
 20
277.696969696953
 11
724.593746099164
 21
277.696969696953
  0
LINE
  5
B7
100
AcDbEntity
  8
1
  6
CONTINUOUS
 62
           3
100
AcDbLine
 10
730.728235250303
 20
260.0
 11
735.064131487227
 21
277.696969696953
  0
LINE
  5
B6
100
AcDbEntity
  8
1
  6
CONTINUOUS
 62
           3
100
AcDbLine
 10
713.975618629481
 20
260.0
 11
730.728235250303
 21
260.0
  0
LINE
  5
B5
100
AcDbEntity
  8
1
  6
CONTINUOUS
 62
           3
100
AcDbLine
 10
715.059592688788
 20
264.424242424182
 11
713.975618629481
 21
260.0
  0
LINE
  5
B4
100
AcDbEntity
  8
1
  6
CONTINUOUS
 62
           3
100
AcDbLine
 10
725.529978076699
 20
264.424242424182
 11
715.059592688788
 21
264.424242424182
  0
LINE
  5
B3
100
AcDbEntity
  8
1
  6
CONTINUOUS
 62
           3
100
AcDbLine
 10
727.697926195117
 20
273.272727272797
 11
725.529978076699
 21
264.424242424182
  0
LINE
  5
B2
100
AcDbEntity
  8
1
  6
CONTINUOUS
 62
           3
100
AcDbLine
 10
717.227540807152
 20
273.272727272797
 11
727.697926195117
 21
273.272727272797
  0
LINE
  5
B1
100
AcDbEntity
  8
1
  6
CONTINUOUS
 62
           3
100
AcDbLine
 10
721.828407670543
 20
292.051175145079
 11
717.227540807152
 21
273.272727272797
  0
LINE
  5
B0
100
AcDbEntity
  8
1
  6
CONTINUOUS
 62
           3
100
AcDbLine
 10
738.581024291315
 20
292.051175145079
 11
721.828407670543
 21
292.051175145079
  0
LINE
  5
AF
100
AcDbEntity
  8
1
  6
CONTINUOUS
 62
           3
100
AcDbLine
 10
717.64025351538
 20
292.051175145079
 11
709.787464474365
 21
260.0
  0
LINE
  5
AE
100
AcDbEntity
  8
1
  6
CONTINUOUS
 62
           3
100
AcDbLine
 10
711.358022282574
 20
292.051175145079
 11
717.64025351538
 21
292.051175145079
  0
LINE
  5
AD
100
AcDbEntity
  8
1
  6
CONTINUOUS
 62
           3
100
AcDbLine
 10
709.787464474365
 20
260.0
 11
691.987809314775
 21
260.0
  0
LINE
  5
AC
100
AcDbEntity
  8
1
  6
CONTINUOUS
 62
           3
100
AcDbLine
 10
704.589207300768
 20
264.424242424182
 11
711.358022282574
 21
292.051175145079
  0
LINE
  5
AB
100
AcDbEntity
  8
1
  6
CONTINUOUS
 62
           3
100
AcDbLine
 10
699.354014606783
 20
264.424242424182
 11
704.589207300768
 21
264.424242424182
  0
LINE
  5
AA
100
AcDbEntity
  8
1
  6
CONTINUOUS
 62
           3
100
AcDbLine
 10
706.122829588579
 20
292.051175145079
 11
699.354014606783
 21
264.424242424182
  0
LINE
  5
A9
100
AcDbEntity
  8
1
  6
CONTINUOUS
 62
           3
100
AcDbLine
 10
699.840598355769
 20
292.051175145079
 11
706.122829588579
 21
292.051175145079
  0
LINE
  5
A8
100
AcDbEntity
  8
1
  6
CONTINUOUS
 62
           3
100
AcDbLine
 10
691.987809314775
 20
260.0
 11
699.840598355769
 21
292.051175145079
  0
LINE
  5
A7
100
AcDbEntity
  8
1
  6
CONTINUOUS
 62
           3
100
AcDbLine
 10
687.799655159649
 20
260.0
 11
670.000000000001
 21
260.0
  0
LINE
  5
A6
100
AcDbEntity
  8
1
  6
CONTINUOUS
 62
           3
100
AcDbLine
 10
698.362379348569
 20
303.111781205662
 11
687.799655159649
 21
260.0
  0
LINE
  5
A5
100
AcDbEntity
  8
1
  6
CONTINUOUS
 62
           3
100
AcDbLine
 10
674.389052271276
 20
303.111781205662
 11
698.362379348569
 21
303.111781205662
  0
LINE
  5
A4
100
AcDbEntity
  8
1
  6
CONTINUOUS
 62
           3
100
AcDbLine
 10
673.034084697291
 20
297.581478175405
 11
674.389052271276
 21
303.111781205662
  0
LINE
  5
A3
100
AcDbEntity
  8
1
  6
CONTINUOUS
 62
           3
100
AcDbLine
 10
690.725180541825
 20
297.581478175405
 11
673.034084697291
 21
297.581478175405
  0
LINE
  5
A2
100
AcDbEntity
  8
1
  6
CONTINUOUS
 62
           3
100
AcDbLine
 10
682.601397985943
 20
264.424242424182
 11
690.725180541825
 21
297.581478175405
  0
LINE
  5
A1
100
AcDbEntity
  8
1
  6
CONTINUOUS
 62
           3
100
AcDbLine
 10
677.366205292064
 20
264.424242424182
 11
682.601397985943
 21
264.424242424182
  0
LINE
  5
A0
100
AcDbEntity
  8
1
  6
CONTINUOUS
 62
           3
100
AcDbLine
 10
684.135020273753
 20
292.051175145079
 11
677.366205292064
 21
264.424242424182
  0
LINE
  5
9F
100
AcDbEntity
  8
1
  6
CONTINUOUS
 62
           3
100
AcDbLine
 10
677.852789041056
 20
292.051175145079
 11
684.135020273753
 21
292.051175145079
  0
LINE
  5
9E
100
AcDbEntity
  8
1
  6
CONTINUOUS
 62
           3
100
AcDbLine
 10
670.000000000001
 20
260.0
 11
677.852789041056
 21
292.051175145079
  0
LINE
  5
9D
100
AcDbEntity
  8
1
  6
CONTINUOUS
 62
           3
100
AcDbLine
 10
805.119681233516
 20
266.19393939391
 11
814.164841739606
 21
303.111781205662
  0
LINE
  5
9C
100
AcDbEntity
  8
1
  6
CONTINUOUS
 62
           3
100
AcDbLine
 10
814.164841739606
 20
303.111781205662
 11
808.301425922339
 21
303.111781205662
  0
LINE
  5
9B
100
AcDbEntity
  8
1
  6
CONTINUOUS
 62
           3
100
AcDbLine
 10
808.301425922339
 20
303.111781205662
 11
797.738701733398
 21
260.0
  0
LINE
  5
9A
100
AcDbEntity
  8
1
  6
CONTINUOUS
 62
           3
100
AcDbLine
 10
815.643060746967
 20
292.051175145079
 11
809.95821982428
 21
268.848484848477
  0
LINE
  5
99
100
AcDbEntity
  8
1
  6
CONTINUOUS
 62
           3
100
AcDbLine
 10
809.95821982428
 20
268.848484848477
 11
825.663797906201
 21
268.848484848477
  0
LINE
  5
98
100
AcDbEntity
  8
1
  6
CONTINUOUS
 62
           3
100
AcDbLine
 10
825.663797906201
 20
268.848484848477
 11
831.348638828808
 21
292.051175145079
  0
LINE
  5
97
100
AcDbEntity
  8
1
  6
CONTINUOUS
 62
           3
100
AcDbLine
 10
831.348638828808
 20
292.051175145079
 11
826.113446134886
 21
292.051175145079
  0
LINE
  5
96
100
AcDbEntity
  8
1
  6
CONTINUOUS
 62
           3
100
AcDbLine
 10
826.113446134886
 20
292.051175145079
 11
821.512579271491
 21
273.272727272797
  0
LINE
  5
95
100
AcDbEntity
  8
1
  6
CONTINUOUS
 62
           3
100
AcDbLine
 10
821.512579271491
 20
273.272727272797
 11
816.277386577539
 21
273.272727272797
  0
LINE
  5
94
100
AcDbEntity
  8
1
  6
CONTINUOUS
 62
           3
100
AcDbLine
 10
816.277386577539
 20
273.272727272797
 11
820.87825344089
 21
292.051175145079
  0
LINE
  5
93
100
AcDbEntity
  8
1
  6
CONTINUOUS
 62
           3
100
AcDbLine
 10
820.87825344089
 20
292.051175145079
 11
815.643060746967
 21
292.051175145079
  0
LINE
  5
92
100
AcDbEntity
  8
1
  6
CONTINUOUS
 62
           3
100
AcDbLine
 10
837.906977584949
 20
292.051175145079
 11
833.861531321934
 21
292.051175145079
  0
LINE
  5
91
100
AcDbEntity
  8
1
  6
CONTINUOUS
 62
           3
100
AcDbLine
 10
833.861531321934
 20
292.051175145079
 11
837.983826844132
 21
281.415301218661
  0
LINE
  5
90
100
AcDbEntity
  8
1
  6
CONTINUOUS
 62
           3
100
AcDbLine
 10
837.983826844132
 20
281.415301218661
 11
828.176690399342
 21
268.848484848477
  0
LINE
  5
8F
100
AcDbEntity
  8
1
  6
CONTINUOUS
 62
           3
100
AcDbLine
 10
828.176690399342
 20
268.848484848477
 11
832.222136662339
 21
268.848484848477
  0
LINE
  5
8E
100
AcDbEntity
  8
1
  6
CONTINUOUS
 62
           3
100
AcDbLine
 10
832.222136662339
 20
268.848484848477
 11
839.326269242441
 21
277.951685370502
  0
LINE
  5
8D
100
AcDbEntity
  8
1
  6
CONTINUOUS
 62
           3
100
AcDbLine
 10
839.326269242441
 20
277.951685370502
 11
842.854524937125
 21
268.848484848477
  0
LINE
  5
8C
100
AcDbEntity
  8
1
  6
CONTINUOUS
 62
           3
100
AcDbLine
 10
842.854524937125
 20
268.848484848477
 11
846.899971200172
 21
268.848484848477
  0
LINE
  5
8B
100
AcDbEntity
  8
1
  6
CONTINUOUS
 62
           3
100
AcDbLine
 10
846.899971200172
 20
268.848484848477
 11
842.029273107169
 21
281.415301218603
  0
LINE
  5
8A
100
AcDbEntity
  8
1
  6
CONTINUOUS
 62
           3
100
AcDbLine
 10
842.029273107169
 20
281.415301218603
 11
850.329503152251
 21
292.051175145079
  0
LINE
  5
89
100
AcDbEntity
  8
1
  6
CONTINUOUS
 62
           3
100
AcDbLine
 10
850.329503152251
 20
292.051175145079
 11
846.284056889192
 21
292.051175145079
  0
LINE
  5
88
100
AcDbEntity
  8
1
  6
CONTINUOUS
 62
           3
100
AcDbLine
 10
846.284056889192
 20
292.051175145079
 11
840.686830708907
 21
284.878917066824
  0
LINE
  5
87
100
AcDbEntity
  8
1
  6
CONTINUOUS
 62
           3
100
AcDbLine
 10
840.686830708907
 20
284.878917066824
 11
837.906977584949
 21
292.051175145079
  0
LINE
  5
86
100
AcDbEntity
  8
1
  6
CONTINUOUS
 62
           3
100
AcDbLine
 10
847.928830785689
 20
266.19393939391
 11
850.329503152208
 21
260.0
  0
LINE
  5
85
100
AcDbEntity
  8
1
  6
CONTINUOUS
 62
           3
100
AcDbLine
 10
847.928830785689
 20
266.19393939391
 11
805.119681233516
 21
266.19393939391
  0
LINE
  5
84
100
AcDbEntity
  8
1
  6
CONTINUOUS
 62
           3
100
AcDbLine
 10
850.329503152208
 20
260.0
 11
797.738701733398
 21
260.0
  0
LINE
  5
83
100
AcDbEntity
  8
1
  6
CONTINUOUS
 62
           3
100
AcDbLine
 10
706.738687658967
 20
303.111781205662
 11
709.990609836449
 21
316.38450847832
  0
LINE
  5
82
100
AcDbEntity
  8
1
  6
CONTINUOUS
 62
           3
100
AcDbLine
 10
709.990609836449
 20
316.38450847832
 11
722.555072302167
 21
316.38450847832
  0
LINE
  5
81
100
AcDbEntity
  8
1
  6
CONTINUOUS
 62
           3
100
AcDbLine
 10
722.555072302167
 20
316.38450847832
 11
719.303150124492
 21
303.111781205662
  0
LINE
  5
80
100
AcDbEntity
  8
1
  6
CONTINUOUS
 62
           3
100
AcDbLine
 10
719.303150124492
 20
303.111781205662
 11
706.738687658967
 21
303.111781205662
  0
LINE
  5
7F
100
AcDbEntity
  8
1
  6
CONTINUOUS
 62
           3
100
AcDbLine
 10
717.751060076488
 20
305.323902417793
 11
709.374751766133
 21
305.323902417793
  0
LINE
  5
7E
100
AcDbEntity
  8
1
  6
CONTINUOUS
 62
           3
100
AcDbLine
 10
719.919008194965
 20
314.172387266269
 11
717.751060076488
 21
305.323902417793
  0
LINE
  5
7D
100
AcDbEntity
  8
1
  6
CONTINUOUS
 62
           3
100
AcDbLine
 10
711.542699884475
 20
314.172387266269
 11
719.919008194965
 21
314.172387266269
  0
LINE
  5
7C
100
AcDbEntity
  8
1
  6
CONTINUOUS
 62
           3
100
AcDbLine
 10
709.374751766133
 20
305.323902417793
 11
711.542699884475
 21
314.172387266269
  0
LINE
  5
7B
100
AcDbEntity
  8
1
  6
CONTINUOUS
 62
           3
100
AcDbLine
 10
725.067964795159
 20
316.38450847832
 11
721.816042617623
 21
303.111781205662
  0
LINE
  5
7A
100
AcDbEntity
  8
1
  6
CONTINUOUS
 62
           3
100
AcDbLine
 10
725.067964795159
 20
316.38450847832
 11
737.632427260739
 21
316.38450847832
  0
LINE
  5
79
100
AcDbEntity
  8
1
  6
CONTINUOUS
 62
           3
100
AcDbLine
 10
737.632427260739
 20
316.38450847832
 11
735.764903150885
 21
308.762204858332
  0
LINE
  5
78
100
AcDbEntity
  8
1
  6
CONTINUOUS
 62
           3
100
AcDbLine
 10
734.380505083206
 20
303.111781205662
 11
732.286428005566
 21
303.111781205662
  0
LINE
  5
77
100
AcDbEntity
  8
1
  6
CONTINUOUS
 62
           3
100
AcDbLine
 10
732.286428005566
 20
303.111781205662
 11
733.370402064939
 21
307.536023629844
  0
LINE
  5
76
100
AcDbEntity
  8
1
  6
CONTINUOUS
 62
           3
100
AcDbLine
 10
733.370402064939
 20
307.536023629844
 11
724.99409375441
 21
307.536023629844
  0
LINE
  5
75
100
AcDbEntity
  8
1
  6
CONTINUOUS
 62
           3
100
AcDbLine
 10
725.536080784002
 20
309.748144842033
 11
733.912389094382
 21
309.748144842033
  0
LINE
  5
74
100
AcDbEntity
  8
1
  6
CONTINUOUS
 62
           3
100
AcDbLine
 10
733.912389094382
 20
309.748144842033
 11
734.996363153704
 21
314.172387266269
  0
LINE
  5
73
100
AcDbEntity
  8
1
  6
CONTINUOUS
 62
           3
100
AcDbLine
 10
734.996363153704
 20
314.172387266269
 11
726.620054843185
 21
314.172387266269
  0
LINE
  5
72
100
AcDbEntity
  8
1
  6
CONTINUOUS
 62
           3
100
AcDbLine
 10
726.620054843185
 20
314.172387266269
 11
725.536080784002
 21
309.748144842033
  0
LINE
  5
71
100
AcDbEntity
  8
1
  6
CONTINUOUS
 62
           3
100
AcDbLine
 10
735.328223469319
 20
306.979895810782
 11
734.380505083206
 21
303.111781205662
  0
LINE
  5
70
100
AcDbEntity
  8
1
  6
CONTINUOUS
 62
           3
100
AcDbLine
 10
721.816042617623
 20
303.111781205662
 11
723.910119695299
 21
303.111781205662
  0
LINE
  5
6F
100
AcDbEntity
  8
1
  6
CONTINUOUS
 62
           3
100
AcDbLine
 10
723.910119695299
 20
303.111781205662
 11
724.99409375441
 21
307.536023629844
  0
LINE
  5
6E
100
AcDbEntity
  8
1
  6
CONTINUOUS
 62
           3
100
AcDbLine
 10
742.239396831465
 20
316.38450847832
 11
740.145319753902
 21
316.38450847832
  0
LINE
  5
6D
100
AcDbEntity
  8
1
  6
CONTINUOUS
 62
           3
100
AcDbLine
 10
740.145319753902
 20
316.38450847832
 11
736.893397576337
 21
303.111781205662
  0
LINE
  5
6C
100
AcDbEntity
  8
1
  6
CONTINUOUS
 62
           3
100
AcDbLine
 10
736.893397576337
 20
303.111781205662
 11
738.987474654056
 21
303.111781205662
  0
LINE
  5
6B
100
AcDbEntity
  8
1
  6
CONTINUOUS
 62
           3
100
AcDbLine
 10
738.987474654056
 20
303.111781205662
 11
742.239396831465
 21
316.38450847832
  0
LINE
  5
6A
100
AcDbEntity
  8
1
  6
CONTINUOUS
 62
           3
100
AcDbLine
 10
741.500367147041
 20
303.111781205662
 11
744.752289324585
 21
316.38450847832
  0
LINE
  5
69
100
AcDbEntity
  8
1
  6
CONTINUOUS
 62
           3
100
AcDbLine
 10
744.752289324585
 20
316.38450847832
 11
757.316751790176
 21
316.38450847832
  0
LINE
  5
68
100
AcDbEntity
  8
1
  6
CONTINUOUS
 62
           3
100
AcDbLine
 10
757.316751790176
 20
316.38450847832
 11
756.178579028049
 21
311.739053932891
  0
LINE
  5
67
100
AcDbEntity
  8
1
  6
CONTINUOUS
 62
           3
100
AcDbLine
 10
754.064829612654
 20
303.111781205662
 11
741.500367147041
 21
303.111781205662
  0
LINE
  5
66
100
AcDbEntity
  8
1
  6
CONTINUOUS
 62
           3
100
AcDbLine
 10
752.512739564605
 20
305.323902417793
 11
744.136431254276
 21
305.323902417793
  0
LINE
  5
65
100
AcDbEntity
  8
1
  6
CONTINUOUS
 62
           3
100
AcDbLine
 10
754.680687682901
 20
314.172387266269
 11
754.084501950522
 21
311.739053932891
  0
LINE
  5
64
100
AcDbEntity
  8
1
  6
CONTINUOUS
 62
           3
100
AcDbLine
 10
746.304379372604
 20
314.172387266269
 11
754.680687682901
 21
314.172387266269
  0
LINE
  5
63
100
AcDbEntity
  8
1
  6
CONTINUOUS
 62
           3
100
AcDbLine
 10
744.136431254276
 20
305.323902417793
 11
746.304379372604
 21
314.172387266269
  0
LINE
  5
62
100
AcDbEntity
  8
1
  6
CONTINUOUS
 62
           3
100
AcDbLine
 10
755.690790701426
 20
309.748144842033
 11
749.408559468619
 21
309.748144842033
  0
LINE
  5
61
100
AcDbEntity
  8
1
  6
CONTINUOUS
 62
           3
100
AcDbLine
 10
755.690790701426
 20
309.748144842033
 11
754.064829612654
 21
303.111781205662
  0
LINE
  5
60
100
AcDbEntity
  8
1
  6
CONTINUOUS
 62
           3
100
AcDbLine
 10
749.408559468619
 20
309.748144842033
 11
748.866572438973
 21
307.536023629844
  0
LINE
  5
5F
100
AcDbEntity
  8
1
  6
CONTINUOUS
 62
           3
100
AcDbLine
 10
748.866572438973
 20
307.536023629844
 11
753.054726594372
 21
307.536023629844
  0
LINE
  5
5E
100
AcDbEntity
  8
1
  6
CONTINUOUS
 62
           3
100
AcDbLine
 10
753.054726594372
 20
307.536023629844
 11
752.512739564605
 21
305.323902417793
  0
LINE
  5
5D
100
AcDbEntity
  8
1
  6
CONTINUOUS
 62
           3
100
AcDbLine
 10
754.084501950522
 20
311.739053932891
 11
756.178579028049
 21
311.739053932891
  0
LINE
  5
5C
100
AcDbEntity
  8
1
  6
CONTINUOUS
 62
           3
100
AcDbLine
 10
756.57772210577
 20
303.111781205662
 11
758.67179918333
 21
303.111781205662
  0
LINE
  5
5B
100
AcDbEntity
  8
1
  6
CONTINUOUS
 62
           3
100
AcDbLine
 10
758.67179918333
 20
303.111781205662
 11
761.923721360899
 21
316.38450847832
  0
LINE
  5
5A
100
AcDbEntity
  8
1
  6
CONTINUOUS
 62
           3
100
AcDbLine
 10
759.829644283334
 20
316.38450847832
 11
756.57772210577
 21
303.111781205662
  0
LINE
  5
59
100
AcDbEntity
  8
1
  6
CONTINUOUS
 62
           3
100
AcDbLine
 10
761.923721360899
 20
316.38450847832
 11
759.829644283334
 21
316.38450847832
  0
LINE
  5
58
100
AcDbEntity
  8
1
  6
CONTINUOUS
 62
           3
100
AcDbLine
 10
761.1846916765
 20
303.111781205662
 11
764.436613854014
 21
316.38450847832
  0
LINE
  5
57
100
AcDbEntity
  8
1
  6
CONTINUOUS
 62
           3
100
AcDbLine
 10
764.436613854014
 20
316.38450847832
 11
767.577729470356
 21
316.38450847832
  0
LINE
  5
56
100
AcDbEntity
  8
1
  6
CONTINUOUS
 62
           3
100
AcDbLine
 10
767.577729470356
 20
316.38450847832
 11
772.061567336631
 21
304.770872114746
  0
LINE
  5
55
100
AcDbEntity
  8
1
  6
CONTINUOUS
 62
           3
100
AcDbLine
 10
772.061567336631
 20
304.770872114746
 11
774.906999241984
 21
316.38450847832
  0
LINE
  5
54
100
AcDbEntity
  8
1
  6
CONTINUOUS
 62
           3
100
AcDbLine
 10
774.906999241984
 20
316.38450847832
 11
777.001076319598
 21
316.38450847832
  0
LINE
  5
53
100
AcDbEntity
  8
1
  6
CONTINUOUS
 62
           3
100
AcDbLine
 10
777.001076319598
 20
316.38450847832
 11
773.749154141978
 21
303.111781205662
  0
LINE
  5
52
100
AcDbEntity
  8
1
  6
CONTINUOUS
 62
           3
100
AcDbLine
 10
773.749154141978
 20
303.111781205662
 11
770.506475653208
 21
303.111781205662
  0
LINE
  5
51
100
AcDbEntity
  8
1
  6
CONTINUOUS
 62
           3
100
AcDbLine
 10
770.506475653208
 20
303.111781205662
 11
766.725319317498
 21
312.905394629535
  0
LINE
  5
50
100
AcDbEntity
  8
1
  6
CONTINUOUS
 62
           3
100
AcDbLine
 10
766.725319317498
 20
312.905394629535
 11
766.084771050989
 21
314.564485538598
  0
LINE
  5
4F
100
AcDbEntity
  8
1
  6
CONTINUOUS
 62
           3
100
AcDbLine
 10
766.084771050989
 20
314.564485538598
 11
763.278768754059
 21
303.111781205662
  0
LINE
  5
4E
100
AcDbEntity
  8
1
  6
CONTINUOUS
 62
           3
100
AcDbLine
 10
763.278768754059
 20
303.111781205662
 11
761.1846916765
 21
303.111781205662
  0
LINE
  5
4D
100
AcDbEntity
  8
1
  6
CONTINUOUS
 62
           3
100
AcDbLine
 10
776.262046635094
 20
303.111781205662
 11
783.773476913991
 21
316.38450847832
  0
LINE
  5
4C
100
AcDbEntity
  8
1
  6
CONTINUOUS
 62
           3
100
AcDbLine
 10
783.773476913991
 20
316.38450847832
 11
787.818923176966
 21
316.38450847832
  0
LINE
  5
4B
100
AcDbEntity
  8
1
  6
CONTINUOUS
 62
           3
100
AcDbLine
 10
787.818923176966
 20
316.38450847832
 11
788.826509100728
 21
303.111781205662
  0
LINE
  5
4A
100
AcDbEntity
  8
1
  6
CONTINUOUS
 62
           3
100
AcDbLine
 10
788.826509100728
 20
303.111781205662
 11
786.796826937659
 21
303.111781205662
  0
LINE
  5
49
100
AcDbEntity
  8
1
  6
CONTINUOUS
 62
           3
100
AcDbLine
 10
786.796826937659
 20
303.111781205662
 11
786.628895950392
 21
305.323902417793
  0
LINE
  5
48
100
AcDbEntity
  8
1
  6
CONTINUOUS
 62
           3
100
AcDbLine
 10
786.628895950392
 20
305.323902417793
 11
779.892748670028
 21
305.323902417793
  0
LINE
  5
47
100
AcDbEntity
  8
1
  6
CONTINUOUS
 62
           3
100
AcDbLine
 10
779.892748670028
 20
305.323902417793
 11
778.640843623664
 21
303.111781205662
  0
LINE
  5
46
100
AcDbEntity
  8
1
  6
CONTINUOUS
 62
           3
100
AcDbLine
 10
778.640843623664
 20
303.111781205662
 11
776.262046635094
 21
303.111781205662
  0
LINE
  5
45
100
AcDbEntity
  8
1
  6
CONTINUOUS
 62
           3
100
AcDbLine
 10
781.144653716558
 20
307.536023629844
 11
786.460964963069
 21
307.536023629844
  0
LINE
  5
44
100
AcDbEntity
  8
1
  6
CONTINUOUS
 62
           3
100
AcDbLine
 10
786.460964963069
 20
307.536023629844
 11
785.957172001215
 21
314.172387266269
  0
LINE
  5
43
100
AcDbEntity
  8
1
  6
CONTINUOUS
 62
           3
100
AcDbLine
 10
785.957172001215
 20
314.172387266269
 11
784.900368855925
 21
314.172387266269
  0
LINE
  5
42
100
AcDbEntity
  8
1
  6
CONTINUOUS
 62
           3
100
AcDbLine
 10
781.144653716558
 20
307.536023629844
 11
784.900368855925
 21
314.172387266269
  0
LINE
  5
41
100
AcDbEntity
  8
1
  6
CONTINUOUS
 62
           3
100
AcDbLine
 10
794.591323771417
 20
316.38450847832
 11
791.339401593847
 21
303.111781205662
  0
LINE
  5
40
100
AcDbEntity
  8
1
  6
CONTINUOUS
 62
           3
100
AcDbLine
 10
791.339401593847
 20
303.111781205662
 11
803.903864059426
 21
303.111781205662
  0
LINE
  5
3F
100
AcDbEntity
  8
1
  6
CONTINUOUS
 62
           3
100
AcDbLine
 10
803.903864059426
 20
303.111781205662
 11
804.445851089088
 21
305.323902417793
  0
LINE
  5
3E
100
AcDbEntity
  8
1
  6
CONTINUOUS
 62
           3
100
AcDbLine
 10
804.445851089088
 20
305.323902417793
 11
793.975465701068
 21
305.323902417793
  0
LINE
  5
3D
100
AcDbEntity
  8
1
  6
CONTINUOUS
 62
           3
100
AcDbLine
 10
793.975465701068
 20
305.323902417793
 11
796.685400849031
 21
316.38450847832
  0
LINE
  5
3C
100
AcDbEntity
  8
1
  6
CONTINUOUS
 62
           3
100
AcDbLine
 10
796.685400849031
 20
316.38450847832
 11
794.591323771417
 21
316.38450847832
  0
LINE
  5
3B
100
AcDbEntity
  8
1
  6
CONTINUOUS
 62
           3
100
AcDbLine
 10
841.2066361357
 20
310.200111213842
 11
841.2066361357
 21
307.451055788282
  0
LINE
  5
3A
100
AcDbEntity
  8
1
  6
CONTINUOUS
 62
           3
100
AcDbLine
 10
840.334188436585
 20
307.451055788282
 11
840.334188436585
 21
314.309523963456
  0
LINE
  5
39
100
AcDbEntity
  8
1
  6
CONTINUOUS
 62
           3
100
AcDbLine
 10
840.334188436585
 20
314.309523963456
 11
842.776108295825
 21
314.309523963456
  0
LINE
  5
38
100
AcDbEntity
  8
1
  6
CONTINUOUS
 62
           3
100
AcDbLine
 10
842.776108295825
 20
314.309523963456
 11
843.072464878177
 21
314.309523963456
  0
LINE
  5
37
100
AcDbEntity
  8
1
  6
CONTINUOUS
 62
           3
100
AcDbLine
 10
844.906099392742
 20
309.330689554626
 11
844.906099392742
 21
307.451055788282
  0
LINE
  5
36
100
AcDbEntity
  8
1
  6
CONTINUOUS
 62
           3
100
AcDbLine
 10
844.906099392742
 20
307.451055788282
 11
843.944912577238
 21
307.451055788282
  0
LINE
  5
35
100
AcDbEntity
  8
1
  6
CONTINUOUS
 62
           3
100
AcDbLine
 10
843.944912577238
 20
307.451055788282
 11
843.944912577238
 21
309.0729110559
  0
LINE
  5
34
100
AcDbEntity
  8
1
  6
CONTINUOUS
 62
           3
100
AcDbLine
 10
842.931697837318
 20
310.200111213842
 11
841.2066361357
 21
310.200111213842
  0
LINE
  5
33
100
AcDbEntity
  8
1
  6
CONTINUOUS
 62
           3
100
AcDbLine
 10
841.2066361357
 20
307.451055788282
 11
840.334188436585
 21
307.451055788282
  0
LINE
  5
32
100
AcDbEntity
  8
1
  6
CONTINUOUS
 62
           3
100
AcDbLine
 10
841.2066361357
 20
311.050334541276
 11
843.194119363642
 21
311.050334541276
  0
LINE
  5
31
100
AcDbEntity
  8
1
  6
CONTINUOUS
 62
           3
100
AcDbLine
 10
843.062609127785
 20
313.505992531278
 11
841.2066361357
 21
313.505992531278
  0
LINE
  5
30
100
AcDbEntity
  8
1
  6
CONTINUOUS
 62
           3
100
AcDbLine
 10
841.2066361357
 20
313.505992531278
 11
841.2066361357
 21
311.050334541276
  0
ENDBLK
  5
E4
100
AcDbEntity
  8
0
100
AcDbBlockEnd
  0
BLOCK
  5
28
100
AcDbEntity
  8
0
100
AcDbBlockBegin
  2
WANNENF_SSE
 70
           0
 10
0.0
 20
0.0
 30
0.0
  3
WANNENF_SSE
  1

  0
LINE
  5
17A
100
AcDbEntity
  8
1
  6
CONTINUOUS
 62
           2
100
AcDbLine
 10
98.760772357727
 20
127.872318223188
 11
560.181296489541
 21
127.872318223188
  0
LINE
  5
179
100
AcDbEntity
  8
1
  6
CONTINUOUS
 62
           2
100
AcDbLine
 10
98.760772357727
 20
113.11521289036
 11
579.805367657781
 21
113.11521289036
  0
LINE
  5
178
100
AcDbEntity
  8
1
  6
CONTINUOUS
 62
           2
100
AcDbLine
 10
1919.89200261908
 20
131.618491161618
 11
1572.359972968652
 21
131.618491161618
  0
LINE
  5
177
100
AcDbEntity
  8
1
  6
CONTINUOUS
 62
           2
100
AcDbLine
 10
1557.770454135315
 20
118.271082767547
 11
1919.89200261908
 21
118.271082767547
  0
LINE
  5
176
100
AcDbEntity
  8
1
  6
CONTINUOUS
 62
           2
100
AcDbLine
 10
77.569443635998
 20
89.320962925161
 11
98.709051535406
 21
89.320962925161
  0
LINE
  5
175
100
AcDbEntity
  8
1
  6
CONTINUOUS
 62
           2
100
AcDbLine
 10
77.569443635998
 20
268.630840620241
 11
77.569443635998
 21
89.320962925161
  0
LINE
  5
174
100
AcDbEntity
  8
1
  6
CONTINUOUS
 62
           2
100
AcDbLine
 10
98.709051535406
 20
268.630840620241
 11
98.709051535406
 21
89.320962925161
  0
LINE
  5
173
100
AcDbEntity
  8
1
  6
CONTINUOUS
 62
           2
100
AcDbLine
 10
77.569443635998
 20
268.630840620241
 11
98.709051535406
 21
268.630840620241
  0
LINE
  5
172
100
AcDbEntity
  8
1
  6
CONTINUOUS
 62
           2
100
AcDbLine
 10
68.072647227705
 20
397.054635965542
 11
108.072647227705
 21
397.054635965542
  0
LINE
  5
171
100
AcDbEntity
  8
1
  6
CONTINUOUS
 62
           2
100
AcDbLine
 10
108.072647227705
 20
372.054635965542
 11
68.072647227705
 21
372.054635965542
  0
LINE
  5
170
100
AcDbEntity
  8
1
  6
CONTINUOUS
 62
           2
100
AcDbLine
 10
103.072647227705
 20
342.054635965542
 11
73.072647227705
 21
342.054635965542
  0
LINE
  5
16F
100
AcDbEntity
  8
1
  6
CONTINUOUS
 62
           2
100
AcDbLine
 10
98.072647227705
 20
312.054635965542
 11
78.072647227705
 21
312.054635965542
  0
LINE
  5
16E
100
AcDbEntity
  8
1
  6
CONTINUOUS
 62
           2
100
AcDbLine
 10
68.072647227705
 20
372.054635965542
 11
68.072647227705
 21
397.054635965542
  0
LINE
  5
16D
100
AcDbEntity
  8
1
  6
CONTINUOUS
 62
           2
100
AcDbLine
 10
108.072647227705
 20
372.054635965542
 11
108.072647227705
 21
397.054635965542
  0
LINE
  5
16C
100
AcDbEntity
  8
1
  6
CONTINUOUS
 62
           2
100
AcDbLine
 10
103.072647227705
 20
342.054635965542
 11
103.072647227705
 21
372.054635965542
  0
LINE
  5
16B
100
AcDbEntity
  8
1
  6
CONTINUOUS
 62
           2
100
AcDbLine
 10
73.072647227705
 20
342.054635965542
 11
73.072647227705
 21
372.054635965542
  0
LINE
  5
16A
100
AcDbEntity
  8
1
  6
CONTINUOUS
 62
           2
100
AcDbLine
 10
78.072647227705
 20
312.054635965542
 11
73.072647227705
 21
342.054635965542
  0
LINE
  5
169
100
AcDbEntity
  8
1
  6
CONTINUOUS
 62
           2
100
AcDbLine
 10
98.072647227705
 20
312.054635965542
 11
103.072647227705
 21
342.054635965542
  0
LINE
  5
168
100
AcDbEntity
  8
1
  6
CONTINUOUS
 62
           2
100
AcDbLine
 10
83.072647227705
 20
268.630840620241
 11
83.072647227705
 21
312.054635965542
  0
LINE
  5
167
100
AcDbEntity
  8
1
  6
CONTINUOUS
 62
           2
100
AcDbLine
 10
93.072647227705
 20
268.630840620241
 11
93.072647227705
 21
312.054635965542
  0
LINE
  5
166
100
AcDbEntity
  8
1
  6
CONTINUOUS
 62
           2
100
AcDbLine
 10
68.072647227705
 20
25.475516864572
 11
108.072647227705
 21
25.475516864572
  0
LINE
  5
165
100
AcDbEntity
  8
1
  6
CONTINUOUS
 62
           2
100
AcDbLine
 10
73.072647227705
 20
55.475516864572
 11
103.072647227705
 21
55.475516864572
  0
LINE
  5
164
100
AcDbEntity
  8
1
  6
CONTINUOUS
 62
           2
100
AcDbLine
 10
78.072647227705
 20
85.475516864572
 11
98.072647227705
 21
85.475516864572
  0
LINE
  5
163
100
AcDbEntity
  8
1
  6
CONTINUOUS
 62
           2
100
AcDbLine
 10
68.072647227705
 20
0.0
 11
68.072647227705
 21
25.475516864572
  0
LINE
  5
162
100
AcDbEntity
  8
1
  6
CONTINUOUS
 62
           2
100
AcDbLine
 10
108.072647227705
 20
0.0
 11
108.072647227705
 21
25.475516864572
  0
LINE
  5
161
100
AcDbEntity
  8
1
  6
CONTINUOUS
 62
           2
100
AcDbLine
 10
103.072647227705
 20
25.475516864572
 11
103.072647227705
 21
55.475516864572
  0
LINE
  5
160
100
AcDbEntity
  8
1
  6
CONTINUOUS
 62
           2
100
AcDbLine
 10
73.072647227705
 20
25.475516864572
 11
73.072647227705
 21
55.475516864572
  0
LINE
  5
15F
100
AcDbEntity
  8
1
  6
CONTINUOUS
 62
           2
100
AcDbLine
 10
73.072647227705
 20
55.475516864572
 11
78.072647227705
 21
85.475516864572
  0
LINE
  5
15E
100
AcDbEntity
  8
1
  6
CONTINUOUS
 62
           2
100
AcDbLine
 10
103.072647227705
 20
55.475516864572
 11
98.072647227705
 21
85.475516864572
  0
LINE
  5
15D
100
AcDbEntity
  8
1
  6
CONTINUOUS
 62
           2
100
AcDbLine
 10
83.072647227705
 20
85.475516864572
 11
83.072647227705
 21
89.320962925161
  0
LINE
  5
15C
100
AcDbEntity
  8
1
  6
CONTINUOUS
 62
           2
100
AcDbLine
 10
93.072647227705
 20
85.475516864572
 11
93.072647227705
 21
89.320962925161
  0
LINE
  5
15B
100
AcDbEntity
  8
1
  6
CONTINUOUS
 62
           2
100
AcDbLine
 10
1919.976330736143
 20
89.320962925161
 11
1941.11593863555
 21
89.320962925161
  0
LINE
  5
15A
100
AcDbEntity
  8
1
  6
CONTINUOUS
 62
           2
100
AcDbLine
 10
1919.976330736143
 20
268.630840620241
 11
1919.976330736143
 21
89.320962925161
  0
LINE
  5
159
100
AcDbEntity
  8
1
  6
CONTINUOUS
 62
           2
100
AcDbLine
 10
1941.11593863555
 20
268.630840620241
 11
1941.11593863555
 21
89.320962925161
  0
LINE
  5
158
100
AcDbEntity
  8
1
  6
CONTINUOUS
 62
           2
100
AcDbLine
 10
1919.976330736143
 20
268.630840620241
 11
1941.11593863555
 21
268.630840620241
  0
LINE
  5
157
100
AcDbEntity
  8
1
  6
CONTINUOUS
 62
           2
100
AcDbLine
 10
1910.479534327849
 20
397.054635965542
 11
1950.479534327849
 21
397.054635965542
  0
LINE
  5
156
100
AcDbEntity
  8
1
  6
CONTINUOUS
 62
           2
100
AcDbLine
 10
1950.479534327849
 20
372.054635965542
 11
1910.479534327849
 21
372.054635965542
  0
LINE
  5
155
100
AcDbEntity
  8
1
  6
CONTINUOUS
 62
           2
100
AcDbLine
 10
1945.479534327849
 20
342.054635965542
 11
1915.479534327849
 21
342.054635965542
  0
LINE
  5
154
100
AcDbEntity
  8
1
  6
CONTINUOUS
 62
           2
100
AcDbLine
 10
1940.479534327849
 20
312.054635965542
 11
1920.479534327849
 21
312.054635965542
  0
LINE
  5
153
100
AcDbEntity
  8
1
  6
CONTINUOUS
 62
           2
100
AcDbLine
 10
1910.479534327849
 20
372.054635965542
 11
1910.479534327849
 21
397.054635965542
  0
LINE
  5
152
100
AcDbEntity
  8
1
  6
CONTINUOUS
 62
           2
100
AcDbLine
 10
1950.479534327849
 20
372.054635965542
 11
1950.479534327849
 21
397.054635965542
  0
LINE
  5
151
100
AcDbEntity
  8
1
  6
CONTINUOUS
 62
           2
100
AcDbLine
 10
1945.479534327849
 20
342.054635965542
 11
1945.479534327849
 21
372.054635965542
  0
LINE
  5
150
100
AcDbEntity
  8
1
  6
CONTINUOUS
 62
           2
100
AcDbLine
 10
1915.479534327849
 20
342.054635965542
 11
1915.479534327849
 21
372.054635965542
  0
LINE
  5
14F
100
AcDbEntity
  8
1
  6
CONTINUOUS
 62
           2
100
AcDbLine
 10
1920.479534327849
 20
312.054635965542
 11
1915.479534327849
 21
342.054635965542
  0
LINE
  5
14E
100
AcDbEntity
  8
1
  6
CONTINUOUS
 62
           2
100
AcDbLine
 10
1940.479534327849
 20
312.054635965542
 11
1945.479534327849
 21
342.054635965542
  0
LINE
  5
14D
100
AcDbEntity
  8
1
  6
CONTINUOUS
 62
           2
100
AcDbLine
 10
1925.479534327849
 20
268.630840620241
 11
1925.479534327849
 21
312.054635965542
  0
LINE
  5
14C
100
AcDbEntity
  8
1
  6
CONTINUOUS
 62
           2
100
AcDbLine
 10
1935.479534327849
 20
268.630840620241
 11
1935.479534327849
 21
312.054635965542
  0
LINE
  5
14B
100
AcDbEntity
  8
1
  6
CONTINUOUS
 62
           2
100
AcDbLine
 10
1910.479534327849
 20
25.475516864572
 11
1950.479534327849
 21
25.475516864572
  0
LINE
  5
14A
100
AcDbEntity
  8
1
  6
CONTINUOUS
 62
           2
100
AcDbLine
 10
1915.479534327849
 20
55.475516864572
 11
1945.479534327849
 21
55.475516864572
  0
LINE
  5
149
100
AcDbEntity
  8
1
  6
CONTINUOUS
 62
           2
100
AcDbLine
 10
1920.479534327849
 20
85.475516864572
 11
1940.479534327849
 21
85.475516864572
  0
LINE
  5
148
100
AcDbEntity
  8
1
  6
CONTINUOUS
 62
           2
100
AcDbLine
 10
1910.479534327849
 20
0.0
 11
1910.479534327849
 21
25.475516864572
  0
LINE
  5
147
100
AcDbEntity
  8
1
  6
CONTINUOUS
 62
           2
100
AcDbLine
 10
1950.479534327849
 20
0.0
 11
1950.479534327849
 21
25.475516864572
  0
LINE
  5
146
100
AcDbEntity
  8
1
  6
CONTINUOUS
 62
           2
100
AcDbLine
 10
1945.479534327849
 20
25.475516864572
 11
1945.479534327849
 21
55.475516864572
  0
LINE
  5
145
100
AcDbEntity
  8
1
  6
CONTINUOUS
 62
           2
100
AcDbLine
 10
1915.479534327849
 20
25.475516864572
 11
1915.479534327849
 21
55.475516864572
  0
LINE
  5
144
100
AcDbEntity
  8
1
  6
CONTINUOUS
 62
           2
100
AcDbLine
 10
1915.479534327849
 20
55.475516864572
 11
1920.479534327849
 21
85.475516864572
  0
LINE
  5
143
100
AcDbEntity
  8
1
  6
CONTINUOUS
 62
           2
100
AcDbLine
 10
1945.479534327849
 20
55.475516864572
 11
1940.479534327849
 21
85.475516864572
  0
LINE
  5
142
100
AcDbEntity
  8
1
  6
CONTINUOUS
 62
           2
100
AcDbLine
 10
1925.479534327849
 20
85.475516864572
 11
1925.479534327849
 21
89.320962925161
  0
LINE
  5
141
100
AcDbEntity
  8
1
  6
CONTINUOUS
 62
           2
100
AcDbLine
 10
1935.479534327849
 20
85.475516864572
 11
1935.479534327849
 21
89.320962925161
  0
LINE
  5
140
100
AcDbEntity
  8
1
  6
CONTINUOUS
 62
           2
100
AcDbLine
 10
1521.929823596905
 20
379.65878509371
 11
1521.929823596905
 21
115.979829709543
  0
LINE
  5
13F
100
AcDbEntity
  8
1
  6
CONTINUOUS
 62
           2
100
AcDbLine
 10
1543.069431496312
 20
379.65878509371
 11
1543.069431496312
 21
116.60070344948
  0
LINE
  5
13E
100
AcDbEntity
  8
1
  6
CONTINUOUS
 62
           2
100
AcDbLine
 10
1521.929823596905
 20
379.65878509371
 11
1543.069431496312
 21
379.65878509371
  0
LINE
  5
13D
100
AcDbEntity
  8
1
  6
CONTINUOUS
 62
           2
100
AcDbLine
 10
1512.433027188611
 20
508.082580439012
 11
1552.433027188611
 21
508.082580439012
  0
LINE
  5
13C
100
AcDbEntity
  8
1
  6
CONTINUOUS
 62
           2
100
AcDbLine
 10
1552.433027188611
 20
483.082580439012
 11
1512.433027188611
 21
483.082580439012
  0
LINE
  5
13B
100
AcDbEntity
  8
1
  6
CONTINUOUS
 62
           2
100
AcDbLine
 10
1547.433027188611
 20
453.082580439012
 11
1517.433027188611
 21
453.082580439012
  0
LINE
  5
13A
100
AcDbEntity
  8
1
  6
CONTINUOUS
 62
           2
100
AcDbLine
 10
1542.433027188611
 20
423.082580439012
 11
1522.433027188611
 21
423.082580439012
  0
LINE
  5
139
100
AcDbEntity
  8
1
  6
CONTINUOUS
 62
           2
100
AcDbLine
 10
1512.433027188611
 20
483.082580439012
 11
1512.433027188611
 21
508.082580439012
  0
LINE
  5
138
100
AcDbEntity
  8
1
  6
CONTINUOUS
 62
           2
100
AcDbLine
 10
1552.433027188611
 20
483.082580439012
 11
1552.433027188611
 21
508.082580439012
  0
LINE
  5
137
100
AcDbEntity
  8
1
  6
CONTINUOUS
 62
           2
100
AcDbLine
 10
1547.433027188611
 20
453.082580439012
 11
1547.433027188611
 21
483.082580439012
  0
LINE
  5
136
100
AcDbEntity
  8
1
  6
CONTINUOUS
 62
           2
100
AcDbLine
 10
1517.433027188611
 20
453.082580439012
 11
1517.433027188611
 21
483.082580439012
  0
LINE
  5
135
100
AcDbEntity
  8
1
  6
CONTINUOUS
 62
           2
100
AcDbLine
 10
1522.433027188611
 20
423.082580439012
 11
1517.433027188611
 21
453.082580439012
  0
LINE
  5
134
100
AcDbEntity
  8
1
  6
CONTINUOUS
 62
           2
100
AcDbLine
 10
1542.433027188611
 20
423.082580439012
 11
1547.433027188611
 21
453.082580439012
  0
LINE
  5
133
100
AcDbEntity
  8
1
  6
CONTINUOUS
 62
           2
100
AcDbLine
 10
1527.433027188611
 20
379.65878509371
 11
1527.433027188611
 21
423.082580439012
  0
LINE
  5
132
100
AcDbEntity
  8
1
  6
CONTINUOUS
 62
           2
100
AcDbLine
 10
1537.433027188611
 20
379.65878509371
 11
1537.433027188611
 21
423.082580439012
  0
LINE
  5
131
100
AcDbEntity
  8
1
  6
CONTINUOUS
 62
           2
100
AcDbLine
 10
1512.433027188611
 20
25.475516864572
 11
1552.433027188611
 21
25.475516864572
  0
LINE
  5
130
100
AcDbEntity
  8
1
  6
CONTINUOUS
 62
           2
100
AcDbLine
 10
1517.433027188611
 20
55.475516864572
 11
1547.433027188611
 21
55.475516864572
  0
LINE
  5
12F
100
AcDbEntity
  8
1
  6
CONTINUOUS
 62
           2
100
AcDbLine
 10
1522.433027188611
 20
85.475516864572
 11
1542.433027188611
 21
85.475516864572
  0
LINE
  5
12E
100
AcDbEntity
  8
1
  6
CONTINUOUS
 62
           2
100
AcDbLine
 10
1512.972984518215
 20
110.714609830124
 11
1552.955743541489
 21
111.888909999072
  0
LINE
  5
12D
100
AcDbEntity
  8
1
  6
CONTINUOUS
 62
           2
100
AcDbLine
 10
1552.808956020371
 20
116.886754876982
 11
1557.80680089828
 21
117.0335423981
  0
LINE
  5
12C
100
AcDbEntity
  8
1
  6
CONTINUOUS
 62
           2
100
AcDbLine
 10
1517.824041875006
 20
115.859242229152
 11
1547.811111142461
 21
116.739967355863
  0
LINE
  5
12B
100
AcDbEntity
  8
1
  6
CONTINUOUS
 62
           2
100
AcDbLine
 10
1507.828352119187
 20
115.565667186915
 11
1512.826196997095
 21
115.712454708033
  0
LINE
  5
12A
100
AcDbEntity
  8
1
  6
CONTINUOUS
 62
           2
100
AcDbLine
 10
1557.513225856043
 20
127.029232153919
 11
1572.50676048977
 21
127.469594717275
  0
LINE
  5
129
100
AcDbEntity
  8
1
  6
CONTINUOUS
 62
           2
100
AcDbLine
 10
1492.541242443223
 20
125.120994379378
 11
1507.53477707695
 21
125.561356942733
  0
LINE
  5
128
100
AcDbEntity
  8
1
  6
CONTINUOUS
 62
           2
100
AcDbLine
 10
1547.664323621343
 20
121.737812233772
 11
1552.662168499252
 21
121.884599754891
  0
LINE
  5
127
100
AcDbEntity
  8
1
  6
CONTINUOUS
 62
           2
100
AcDbLine
 10
1512.679409475978
 20
120.710299585942
 11
1517.677254353886
 21
120.857087107061
  0
LINE
  5
126
100
AcDbEntity
  8
1
  6
CONTINUOUS
 62
           2
100
AcDbLine
 10
1512.433027188611
 20
0.0
 11
1512.433027188611
 21
25.475516864572
  0
LINE
  5
125
100
AcDbEntity
  8
1
  6
CONTINUOUS
 62
           2
100
AcDbLine
 10
1552.433027188611
 20
0.0
 11
1552.433027188611
 21
25.475516864572
  0
LINE
  5
124
100
AcDbEntity
  8
1
  6
CONTINUOUS
 62
           2
100
AcDbLine
 10
1547.433027188611
 20
25.475516864572
 11
1547.433027188611
 21
55.475516864572
  0
LINE
  5
123
100
AcDbEntity
  8
1
  6
CONTINUOUS
 62
           2
100
AcDbLine
 10
1517.433027188611
 20
25.475516864572
 11
1517.433027188611
 21
55.475516864572
  0
LINE
  5
122
100
AcDbEntity
  8
1
  6
CONTINUOUS
 62
           2
100
AcDbLine
 10
1517.433027188611
 20
55.475516864572
 11
1522.433027188611
 21
85.475516864572
  0
LINE
  5
121
100
AcDbEntity
  8
1
  6
CONTINUOUS
 62
           2
100
AcDbLine
 10
1547.433027188611
 20
55.475516864572
 11
1542.433027188611
 21
85.475516864572
  0
LINE
  5
120
100
AcDbEntity
  8
1
  6
CONTINUOUS
 62
           2
100
AcDbLine
 10
1527.433027188611
 20
85.475516864572
 11
1527.433027188611
 21
111.1393036473
  0
LINE
  5
11F
100
AcDbEntity
  8
1
  6
CONTINUOUS
 62
           2
100
AcDbLine
 10
1537.433027188611
 20
85.475516864572
 11
1537.433027188611
 21
111.433005282114
  0
LINE
  5
11E
100
AcDbEntity
  8
1
  6
CONTINUOUS
 62
           2
100
AcDbLine
 10
1572.359972968652
 20
132.467439595183
 11
1572.50676048977
 21
127.469594717275
  0
LINE
  5
11D
100
AcDbEntity
  8
1
  6
CONTINUOUS
 62
           2
100
AcDbLine
 10
1552.368593457015
 20
131.880289510709
 11
1572.359972968652
 21
132.467439595183
  0
LINE
  5
11C
100
AcDbEntity
  8
1
  6
CONTINUOUS
 62
           2
100
AcDbLine
 10
1552.662168499252
 20
121.884599754891
 11
1552.368593457015
 21
131.880289510709
  0
LINE
  5
11B
100
AcDbEntity
  8
1
  6
CONTINUOUS
 62
           2
100
AcDbLine
 10
1557.80680089828
 20
117.0335423981
 11
1557.513225856043
 21
127.029232153919
  0
LINE
  5
11A
100
AcDbEntity
  8
1
  6
CONTINUOUS
 62
           2
100
AcDbLine
 10
1547.811111142461
 20
116.739967355863
 11
1547.664323621343
 21
121.737812233772
  0
LINE
  5
119
100
AcDbEntity
  8
1
  6
CONTINUOUS
 62
           2
100
AcDbLine
 10
1552.955743541489
 20
111.888909999072
 11
1552.808956020371
 21
116.886754876982
  0
LINE
  5
118
100
AcDbEntity
  8
1
  6
CONTINUOUS
 62
           2
100
AcDbLine
 10
1517.677254353886
 20
120.857087107061
 11
1517.824041875006
 21
115.859242229152
  0
LINE
  5
117
100
AcDbEntity
  8
1
  6
CONTINUOUS
 62
           2
100
AcDbLine
 10
1512.385834433741
 20
130.705989341761
 11
1512.679409475978
 21
120.710299585942
  0
LINE
  5
116
100
AcDbEntity
  8
1
  6
CONTINUOUS
 62
           2
100
AcDbLine
 10
1492.394454922105
 20
130.118839257287
 11
1512.385834433741
 21
130.705989341761
  0
LINE
  5
115
100
AcDbEntity
  8
1
  6
CONTINUOUS
 62
           2
100
AcDbLine
 10
1492.394454922105
 20
130.118839257287
 11
1492.541242443223
 21
125.120994379378
  0
LINE
  5
114
100
AcDbEntity
  8
1
  6
CONTINUOUS
 62
           2
100
AcDbLine
 10
1507.828352119187
 20
115.565667186915
 11
1507.53477707695
 21
125.561356942733
  0
LINE
  5
113
100
AcDbEntity
  8
1
  6
CONTINUOUS
 62
           2
100
AcDbLine
 10
1512.972984518215
 20
110.714609830124
 11
1512.826196997095
 21
115.712454708033
  0
LINE
  5
112
100
AcDbEntity
  8
1
  6
CONTINUOUS
 62
           2
100
AcDbLine
 10
589.678092897834
 20
374.65878509371
 11
589.678092897834
 21
113.328736005997
  0
LINE
  5
111
100
AcDbEntity
  8
1
  6
CONTINUOUS
 62
           2
100
AcDbLine
 10
610.817700797242
 20
374.65878509371
 11
610.817700797242
 21
112.707862266061
  0
LINE
  5
110
100
AcDbEntity
  8
1
  6
CONTINUOUS
 62
           2
100
AcDbLine
 10
589.678092897834
 20
374.65878509371
 11
610.817700797242
 21
374.65878509371
  0
LINE
  5
10F
100
AcDbEntity
  8
1
  6
CONTINUOUS
 62
           2
100
AcDbLine
 10
580.181296489541
 20
503.082580439012
 11
620.181296489541
 21
503.082580439012
  0
LINE
  5
10E
100
AcDbEntity
  8
1
  6
CONTINUOUS
 62
           2
100
AcDbLine
 10
620.181296489541
 20
478.082580439012
 11
580.181296489541
 21
478.082580439012
  0
LINE
  5
10D
100
AcDbEntity
  8
1
  6
CONTINUOUS
 62
           2
100
AcDbLine
 10
615.181296489541
 20
448.082580439012
 11
585.181296489541
 21
448.082580439012
  0
LINE
  5
10C
100
AcDbEntity
  8
1
  6
CONTINUOUS
 62
           2
100
AcDbLine
 10
610.181296489541
 20
418.082580439012
 11
590.181296489541
 21
418.082580439012
  0
LINE
  5
10B
100
AcDbEntity
  8
1
  6
CONTINUOUS
 62
           2
100
AcDbLine
 10
580.181296489541
 20
478.082580439012
 11
580.181296489541
 21
503.082580439012
  0
LINE
  5
10A
100
AcDbEntity
  8
1
  6
CONTINUOUS
 62
           2
100
AcDbLine
 10
620.181296489541
 20
478.082580439012
 11
620.181296489541
 21
503.082580439012
  0
LINE
  5
109
100
AcDbEntity
  8
1
  6
CONTINUOUS
 62
           2
100
AcDbLine
 10
615.181296489541
 20
448.082580439012
 11
615.181296489541
 21
478.082580439012
  0
LINE
  5
108
100
AcDbEntity
  8
1
  6
CONTINUOUS
 62
           2
100
AcDbLine
 10
585.181296489541
 20
448.082580439012
 11
585.181296489541
 21
478.082580439012
  0
LINE
  5
107
100
AcDbEntity
  8
1
  6
CONTINUOUS
 62
           2
100
AcDbLine
 10
590.181296489541
 20
418.082580439012
 11
585.181296489541
 21
448.082580439012
  0
LINE
  5
106
100
AcDbEntity
  8
1
  6
CONTINUOUS
 62
           2
100
AcDbLine
 10
610.181296489541
 20
418.082580439012
 11
615.181296489541
 21
448.082580439012
  0
LINE
  5
105
100
AcDbEntity
  8
1
  6
CONTINUOUS
 62
           2
100
AcDbLine
 10
595.181296489541
 20
374.65878509371
 11
595.181296489541
 21
418.082580439012
  0
LINE
  5
104
100
AcDbEntity
  8
1
  6
CONTINUOUS
 62
           2
100
AcDbLine
 10
605.181296489541
 20
374.65878509371
 11
605.181296489541
 21
418.082580439012
  0
LINE
  5
103
100
AcDbEntity
  8
1
  6
CONTINUOUS
 62
           2
100
AcDbLine
 10
580.181296489541
 20
25.475516864572
 11
620.181296489541
 21
25.475516864572
  0
LINE
  5
102
100
AcDbEntity
  8
1
  6
CONTINUOUS
 62
           2
100
AcDbLine
 10
585.181296489541
 20
55.475516864572
 11
615.181296489541
 21
55.475516864572
  0
LINE
  5
101
100
AcDbEntity
  8
1
  6
CONTINUOUS
 62
           2
100
AcDbLine
 10
590.181296489541
 20
85.475516864572
 11
610.181296489541
 21
85.475516864572
  0
LINE
  5
100
100
AcDbEntity
  8
1
  6
CONTINUOUS
 62
           2
100
AcDbLine
 10
579.658580136663
 20
108.620854682395
 11
619.641339159937
 21
107.446554513446
  0
LINE
  5
FF
100
AcDbEntity
  8
1
  6
CONTINUOUS
 62
           2
100
AcDbLine
 10
574.807522779872
 20
113.765487081423
 11
579.805367657781
 21
113.618699560304
  0
LINE
  5
FE
100
AcDbEntity
  8
1
  6
CONTINUOUS
 62
           2
100
AcDbLine
 10
584.803212535691
 20
113.471912039186
 11
614.790281803146
 21
112.591186912474
  0
LINE
  5
FD
100
AcDbEntity
  8
1
  6
CONTINUOUS
 62
           2
100
AcDbLine
 10
619.788126681056
 20
112.444399391356
 11
624.785971558965
 21
112.297611870237
  0
LINE
  5
FC
100
AcDbEntity
  8
1
  6
CONTINUOUS
 62
           2
100
AcDbLine
 10
560.10756318838
 20
124.201539400597
 11
575.101097822109
 21
123.761176837241
  0
LINE
  5
FB
100
AcDbEntity
  8
1
  6
CONTINUOUS
 62
           2
100
AcDbLine
 10
625.079546601201
 20
122.293301626056
 11
640.073081234929
 21
121.8529390627
  0
LINE
  5
FA
100
AcDbEntity
  8
1
  6
CONTINUOUS
 62
           2
100
AcDbLine
 10
579.9521551789
 20
118.616544438213
 11
584.950000056809
 21
118.469756917095
  0
LINE
  5
F9
100
AcDbEntity
  8
1
  6
CONTINUOUS
 62
           2
100
AcDbLine
 10
614.937069324265
 20
117.589031790383
 11
619.934914202174
 21
117.442244269265
  0
LINE
  5
F8
100
AcDbEntity
  8
1
  6
CONTINUOUS
 62
           2
100
AcDbLine
 10
580.181296489541
 20
0.0
 11
580.181296489541
 21
25.475516864572
  0
LINE
  5
F7
100
AcDbEntity
  8
1
  6
CONTINUOUS
 62
           2
100
AcDbLine
 10
620.181296489541
 20
0.0
 11
620.181296489541
 21
25.475516864572
  0
LINE
  5
F6
100
AcDbEntity
  8
1
  6
CONTINUOUS
 62
           2
100
AcDbLine
 10
615.181296489541
 20
25.475516864572
 11
615.181296489541
 21
55.475516864572
  0
LINE
  5
F5
100
AcDbEntity
  8
1
  6
CONTINUOUS
 62
           2
100
AcDbLine
 10
585.181296489541
 20
25.475516864572
 11
585.181296489541
 21
55.475516864572
  0
LINE
  5
F4
100
AcDbEntity
  8
1
  6
CONTINUOUS
 62
           2
100
AcDbLine
 10
585.181296489541
 20
55.475516864572
 11
590.181296489541
 21
85.475516864572
  0
LINE
  5
F3
100
AcDbEntity
  8
1
  6
CONTINUOUS
 62
           2
100
AcDbLine
 10
615.181296489541
 20
55.475516864572
 11
610.181296489541
 21
85.475516864572
  0
LINE
  5
F2
100
AcDbEntity
  8
1
  6
CONTINUOUS
 62
           2
100
AcDbLine
 10
595.181296489541
 20
85.475516864572
 11
595.181296489541
 21
108.164949965436
  0
LINE
  5
F1
100
AcDbEntity
  8
1
  6
CONTINUOUS
 62
           2
100
AcDbLine
 10
605.181296489541
 20
85.475516864572
 11
605.181296489541
 21
107.871248330623
  0
LINE
  5
F0
100
AcDbEntity
  8
1
  6
CONTINUOUS
 62
           2
100
AcDbLine
 10
560.10756318838
 20
124.201539400597
 11
560.254350709499
 21
129.199384278506
  0
LINE
  5
EF
100
AcDbEntity
  8
1
  6
CONTINUOUS
 62
           2
100
AcDbLine
 10
560.254350709499
 20
129.199384278506
 11
580.245730221137
 21
128.612234194031
  0
LINE
  5
EE
100
AcDbEntity
  8
1
  6
CONTINUOUS
 62
           2
100
AcDbLine
 10
580.245730221137
 20
128.612234194031
 11
579.9521551789
 21
118.616544438213
  0
LINE
  5
ED
100
AcDbEntity
  8
1
  6
CONTINUOUS
 62
           2
100
AcDbLine
 10
575.101097822109
 20
123.761176837241
 11
574.807522779872
 21
113.765487081423
  0
LINE
  5
EC
100
AcDbEntity
  8
1
  6
CONTINUOUS
 62
           2
100
AcDbLine
 10
584.950000056809
 20
118.469756917095
 11
584.803212535691
 21
113.471912039186
  0
LINE
  5
EB
100
AcDbEntity
  8
1
  6
CONTINUOUS
 62
           2
100
AcDbLine
 10
579.805367657781
 20
113.618699560304
 11
579.658580136663
 21
108.620854682395
  0
LINE
  5
EA
100
AcDbEntity
  8
1
  6
CONTINUOUS
 62
           2
100
AcDbLine
 10
614.790281803146
 20
112.591186912474
 11
614.937069324265
 21
117.589031790383
  0
LINE
  5
E9
100
AcDbEntity
  8
1
  6
CONTINUOUS
 62
           2
100
AcDbLine
 10
619.934914202174
 20
117.442244269265
 11
620.228489244411
 21
127.437934025083
  0
LINE
  5
E8
100
AcDbEntity
  8
1
  6
CONTINUOUS
 62
           2
100
AcDbLine
 10
620.228489244411
 20
127.437934025083
 11
640.219868756047
 21
126.850783940609
  0
LINE
  5
E7
100
AcDbEntity
  8
1
  6
CONTINUOUS
 62
           2
100
AcDbLine
 10
640.073081234929
 20
121.8529390627
 11
640.219868756047
 21
126.850783940609
  0
LINE
  5
E6
100
AcDbEntity
  8
1
  6
CONTINUOUS
 62
           2
100
AcDbLine
 10
625.079546601201
 20
122.293301626056
 11
624.785971558965
 21
112.297611870237
  0
LINE
  5
E5
100
AcDbEntity
  8
1
  6
CONTINUOUS
 62
           2
100
AcDbLine
 10
619.788126681056
 20
112.444399391356
 11
619.641339159937
 21
107.446554513446
  0
ENDBLK
  5
17B
100
AcDbEntity
  8
0
100
AcDbBlockEnd
  0
BLOCK
  5
2A
100
AcDbEntity
  8
0
100
AcDbBlockBegin
  2
WANNE_CAPRIVI_581
 70
           0
 10
0.0
 20
0.0
 30
0.0
  3
WANNE_CAPRIVI_581
  1

  0
ARC
  5
1E1
100
AcDbEntity
  8
1
  6
CONTINUOUS
 62
           7
100
AcDbCircle
 10
1060.000000000001
 20
102.143254385959
 40
1.0
100
AcDbArc
 50
119.999997845573
 51
180.0
  0
ARC
  5
1E0
100
AcDbEntity
  8
1
  6
CONTINUOUS
 62
           7
100
AcDbCircle
 10
1060.000000000001
 20
102.143253679878
 40
5.0
100
AcDbArc
 50
120.000000411021
 51
180.0
  0
ARC
  5
1DF
100
AcDbEntity
  8
1
  6
CONTINUOUS
 62
           7
100
AcDbCircle
 10
960.000000000001
 20
102.143254385959
 40
1.0
100
AcDbArc
 50
0.0
 51
60.000002154449
  0
ARC
  5
1DE
100
AcDbEntity
  8
1
  6
CONTINUOUS
 62
           7
100
AcDbCircle
 10
960.000000000001
 20
102.143253679878
 40
5.0
100
AcDbArc
 50
0.0
 51
59.999999588969
  0
SPLINE
  5
1DD
100
AcDbEntity
  8
0
  6
CONTINUOUS
 62
           3
100
AcDbSpline
210
0.0
220
0.0
230
1.0
 70
           0
 71
           4
 72
          41
 73
          37
 74
          69
 42
0.00000000001
 43
0.00000000001
 44
0.00000000001
 40
0.0
 40
0.0
 40
0.0
 40
0.0
 40
7.7076342187401128
 40
14.109206189249033
 40
19.472016469785835
 40
25.274119555124862
 40
31.487771408847987
 40
38.043762960347848
 40
44.843374394185666
 40
51.769319273444339
 40
58.695262844829116
 40
65.494877447452708
 40
72.050860300946226
 40
78.264533295935536
 40
84.066599665428441
 40
89.429396096480417
 40
94.379614112256675
 40
99.006509013131236
 40
103.45554878673785
 40
107.90458856035437
 40
112.53148346122893
 40
117.48170147699727
 40
122.84449790804925
 40
128.64656427754736
 40
134.86023727253666
 40
141.41622012602744
 40
148.21583472866365
 40
155.14177830003732
 40
162.067723179296
 40
168.86733461313381
 40
175.42332616464242
 40
181.63697801836111
 40
187.43908110369495
 40
192.80189138423174
 40
199.20346335474065
 40
206.91109757349079
 40
206.91109757349079
 40
206.91109757349079
 40
206.91109757349079
 10
622.00000000000091
 20
765.0
 30
0.0
 10
622.01864388041986
 20
762.02010753025979
 30
0.0
 10
620.57630513643471
 20
757.51781372302003
 30
0.0
 10
616.66173808250187
 20
752.4526100278199
 30
0.0
 10
612.60740800457393
 20
748.94231919595995
 30
0.0
 10
607.6488229231918
 20
745.92954071030999
 30
0.0
 10
601.93285752164275
 20
743.49290185985001
 30
0.0
 10
595.62665340134185
 20
741.70046920659979
 30
0.0
 10
588.91609497279273
 20
740.60360037752025
 30
0.0
 10
581.9999997719508
 20
740.23435839260992
 30
0.0
 10
575.08390593089371
 20
740.60360131495008
 30
0.0
 10
568.37334354789073
 20
741.7004655946298
 30
0.0
 10
562.06715310728077
 20
743.49291456240007
 30
0.0
 10
556.35114083182384
 20
745.92949736532
 30
0.0
 10
551.39271293054185
 20
748.94246382776009
 30
0.0
 10
547.3378640749529
 20
752.45213422813003
 30
0.0
 10
544.31285900320381
 20
756.37055262330023
 30
0.0
 10
542.4309967368838
 20
760.5974605752599
 30
0.0
 10
541.7894349544008
 20
765.0
 30
0.0
 10
542.4309967368838
 20
769.4025394247501
 30
0.0
 10
544.31285900320381
 20
773.62944737670978
 30
0.0
 10
547.3378640749529
 20
777.54786577186997
 30
0.0
 10
551.39271293054185
 20
781.05753617223991
 30
0.0
 10
556.35114083182384
 20
784.07050263469
 30
0.0
 10
562.06715310728077
 20
786.50708543760993
 30
0.0
 10
568.37334354789073
 20
788.2995344053702
 30
0.0
 10
575.08390593090485
 20
789.39639868505992
 30
0.0
 10
581.9999997719508
 20
789.76564160740008
 30
0.0
 10
588.91609497279273
 20
789.39639962248975
 30
0.0
 10
595.62665340134185
 20
788.29953079341021
 30
0.0
 10
601.93285752165184
 20
786.50709814016
 30
0.0
 10
607.6488229231918
 20
784.07045928969001
 30
0.0
 10
612.60740800457393
 20
781.05768080405005
 30
0.0
 10
616.66173808250187
 20
777.5473899721901
 30
0.0
 10
620.57630513643471
 20
772.48218627698998
 30
0.0
 10
622.01864388041986
 20
767.97989246975021
 30
0.0
 10
622.00000000000091
 20
765.0
 30
0.0
 11
622.00000000000091
 21
765.0
 31
0.0
 11
621.47185425599491
 21
760.88642724244073
 31
0.0
 11
620.026750692326
 21
757.34936656672608
 31
0.0
 11
618.3344916071469
 21
754.72790290193495
 31
0.0
 11
616.34923124243176
 21
752.39244378221247
 31
0.0
 11
614.53874188573752
 21
750.6645171490311
 31
0.0
 11
612.56833632952817
 21
749.09827929999403
 31
0.0
 11
610.22108583641227
 21
747.53442211274728
 31
0.0
 11
607.70335171234854
 21
746.119007729891
 31
0.0
 11
604.89236809038835
 21
744.79257996586057
 31
0.0
 11
601.99446199108877
 21
743.65757065516198
 31
0.0
 11
598.86461161257512
 21
742.65527510697223
 31
0.0
 11
595.67742066113976
 21
741.84350528771006
 31
0.0
 11
592.32715257534744
 21
741.19351484308231
 31
0.0
 11
588.94433529955268
 21
740.73238113891159
 31
0.0
 11
585.47744293523533
 21
740.45140323890064
 31
0.0
 11
581.99999973991748
 21
740.35819213144396
 31
0.0
 11
578.52255752304166
 21
740.45140357105072
 31
0.0
 11
575.05566563000139
 21
740.73238106747715
 31
0.0
 11
571.67284544615188
 21
741.19351401510153
 31
0.0
 11
568.32257669826447
 21
741.84350578862109
 31
0.0
 11
565.13539419709389
 21
742.65527782903871
 31
0.0
 11
562.00554533676188
 21
743.65756826055917
 31
0.0
 11
559.10761693862014
 21
744.79256987660847
 31
0.0
 11
556.29663052815079
 21
746.11901674775072
 31
0.0
 11
553.77110904914719
 21
747.54124968168162
 31
0.0
 11
551.36899454145532
 21
749.15254041495598
 31
0.0
 11
549.28609888759729
 21
750.81987000267236
 31
0.0
 11
547.37108738583879
 21
752.66605852108353
 31
0.0
 11
545.78730257453776
 21
754.53356250071181
 31
0.0
 11
544.42217589740858
 21
756.55534727775216
 31
0.0
 11
543.38296683636918
 21
758.57756508759712
 31
0.0
 11
542.61171797184704
 21
760.70803004101924
 31
0.0
 11
542.15602248315406
 21
762.83426170252096
 31
0.0
 11
542.00047667565877
 21
764.99999999999852
 31
0.0
 11
542.15602248315406
 21
767.16573829748222
 31
0.0
 11
542.61171797184818
 21
769.2919699589919
 31
0.0
 11
543.38296683637054
 21
771.42243491241516
 31
0.0
 11
544.42217589741006
 21
773.44465272225909
 31
0.0
 11
545.78730257453765
 21
775.46643749929342
 31
0.0
 11
547.37108738583674
 21
777.33394147891613
 31
0.0
 11
549.28609888759559
 21
779.1801299973265
 31
0.0
 11
551.3689945414535
 21
780.84745958504402
 31
0.0
 11
553.77110904914719
 21
782.45875031832315
 31
0.0
 11
556.29663052815249
 21
783.88098325225826
 31
0.0
 11
559.1076169386215
 21
785.20743012340165
 31
0.0
 11
562.00554533676245
 21
786.34243173944947
 31
0.0
 11
565.13539419709207
 21
787.34472217096595
 31
0.0
 11
568.32257669826174
 21
788.15649421138119
 31
0.0
 11
571.67284544615848
 21
788.8064859849037
 31
0.0
 11
575.05566563001651
 21
789.26761893253206
 31
0.0
 11
578.52255752304927
 21
789.54859642895917
 31
0.0
 11
581.99999973991646
 21
789.64180786856605
 31
0.0
 11
585.47744293523363
 21
789.54859676110948
 31
0.0
 11
588.94433529955154
 21
789.26761886109853
 31
0.0
 11
592.32715257534608
 21
788.80648515692769
 31
0.0
 11
595.67742066113874
 21
788.15649471230063
 31
0.0
 11
598.86461161258046
 21
787.34472489303732
 31
0.0
 11
601.99446199109923
 21
786.34242934484473
 31
0.0
 11
604.89236809039483
 21
785.20742003414364
 31
0.0
 11
607.7033517123507
 21
783.88099227011207
 31
0.0
 11
610.22108583641204
 21
782.46557788725841
 31
0.0
 11
612.56833632952669
 21
780.90172070001563
 31
0.0
 11
614.53874188573695
 21
779.33548285097913
 31
0.0
 11
616.34923124243142
 21
777.60755621779788
 31
0.0
 11
618.33449160714611
 21
775.27209709807607
 31
0.0
 11
620.02675069232441
 21
772.65063343328666
 31
0.0
 11
621.47185425599434
 21
769.11357275756905
 31
0.0
 11
622.00000000000091
 21
765.0
 31
0.0
  0
SPLINE
  5
1DC
100
AcDbEntity
  8
0
  6
CONTINUOUS
 62
           3
100
AcDbSpline
210
0.0
220
0.0
230
1.0
 70
           0
 71
           4
 72
          23
 73
          19
 74
          33
 42
0.00000000001
 43
0.00000000001
 44
0.00000000001
 40
0.0
 40
0.0
 40
0.0
 40
0.0
 40
7.7076342187851434
 40
14.109206189171154
 40
19.472016470124252
 40
25.274119553766237
 40
31.487771414061019
 40
38.043762940932567
 40
44.843374463526928
 40
51.769319036863145
 40
58.695263610188462
 40
65.494875132782823
 40
72.050866659653494
 40
78.264518519946392
 40
84.066621603587606
 40
89.429431884543632
 40
95.8310038549334
 40
103.5386380737166
 40
103.5386380737166
 40
103.5386380737166
 40
103.5386380737166
 10
622.00000000000091
 20
735.86690690030991
 30
0.0
 10
622.01864388044191
 20
732.88701443057971
 30
0.0
 10
620.57630513640174
 20
728.38472062329993
 30
0.0
 10
616.6617380825528
 20
723.3195169281903
 30
0.0
 10
612.60740800435178
 20
719.80922609600975
 30
0.0
 10
607.6488229241229
 20
716.79644761172995
 30
0.0
 10
601.93285751784288
 20
714.35980875560972
 30
0.0
 10
595.62665341665092
 20
712.5673761252101
 30
0.0
 10
588.91609491287181
 20
711.47050720617017
 30
0.0
 10
582.00000000000091
 20
711.10126556566001
 30
0.0
 10
575.08390508714092
 20
711.47050720617017
 30
0.0
 10
568.37334658336181
 20
712.5673761252101
 30
0.0
 10
562.06714248217077
 20
714.35980875560972
 30
0.0
 10
556.35117707589279
 20
716.79644761172995
 30
0.0
 10
551.39259199566482
 20
719.80922609600975
 30
0.0
 10
547.33826191745993
 20
723.3195169281903
 30
0.0
 10
543.42369486360485
 20
728.38472062329993
 30
0.0
 10
541.98135611957082
 20
732.88701443057971
 30
0.0
 10
542.00000000000091
 20
735.86690690030991
 30
0.0
 11
622.00000000000091
 21
735.86690690030991
 31
0.0
 11
621.47185425599525
 21
731.75333414273598
 31
0.0
 11
620.02675069231441
 21
728.21627346700859
 31
0.0
 11
618.33449160719078
 21
725.59480980230296
 31
0.0
 11
616.34923124246029
 21
723.2593506825682
 31
0.0
 11
614.53874188550174
 21
721.53142404911864
 31
0.0
 11
612.56833632927749
 21
719.96518620008214
 31
0.0
 11
610.22108583741021
 21
718.40132901380127
 31
0.0
 11
607.70335171357806
 21
716.98591463095966
 31
0.0
 11
604.89236808634359
 21
715.65948686369836
 31
0.0
 11
601.99446198596354
 21
714.52447755327739
 31
0.0
 11
598.86461162823002
 21
713.52218201536539
 31
0.0
 11
595.67742068128632
 21
712.7104121936818
 31
0.0
 11
592.32715251798538
 21
712.06042171763113
 31
0.0
 11
588.94433522506529
 21
711.59928802754916
 31
0.0
 11
585.4774431349025
 21
711.31831021983965
 31
0.0
 11
581.99999999999909
 21
711.2250990428148
 31
0.0
 11
578.52255686510318
 21
711.31831021983965
 31
0.0
 11
575.05566477494858
 21
711.59928802754871
 31
0.0
 11
571.67284748202871
 21
712.0604217176309
 31
0.0
 11
568.32257931872664
 21
712.71041219368169
 31
0.0
 11
565.13538837178305
 21
713.52218201536539
 31
0.0
 11
562.00553801404988
 21
714.52447755327751
 31
0.0
 11
559.1076319136713
 21
715.65948686369836
 31
0.0
 11
556.29664828643809
 21
716.98591463095931
 31
0.0
 11
553.7789141626065
 21
718.40132901380082
 31
0.0
 11
551.43166367073945
 21
719.96518620008135
 31
0.0
 11
549.46125811451338
 21
721.53142404911819
 31
0.0
 11
547.65076875755244
 21
723.25935068256831
 31
0.0
 11
545.66550839281899
 21
725.59480980230376
 31
0.0
 11
543.97324930769366
 21
728.21627346701052
 31
0.0
 11
542.52814574401418
 21
731.75333414273655
 31
0.0
 11
542.00000000000091
 21
735.86690690030991
 31
0.0
  0
ARC
  5
1DB
100
AcDbEntity
  8
1
  6
CONTINUOUS
 62
           7
100
AcDbCircle
 10
54.182304532755
 20
413.604564018088
 40
17.295243279838
100
AcDbArc
 50
-174.814504187071
 51
-79.423282127823
  0
ARC
  5
1DA
100
AcDbEntity
  8
1
  6
CONTINUOUS
 62
           7
100
AcDbCircle
 10
142.213330818449
 20
414.746715479388
 40
17.211859556496
100
AcDbArc
 50
-97.807668969164
 51
-5.163611542696
  0
ARC
  5
1D9
100
AcDbEntity
  8
1
  6
CONTINUOUS
 62
           7
100
AcDbCircle
 10
507.61029756697
 20
180.827496633896
 40
50.040485522905
100
AcDbArc
 50
-161.899573771927
 51
-91.723100784615
  0
ARC
  5
1D8
100
AcDbEntity
  8
1
  6
CONTINUOUS
 62
           7
100
AcDbCircle
 10
-245.819947323321
 20
-79.284251670232
 40
747.033450673938
100
AcDbArc
 50
19.109925188971
 51
46.768671367413
  0
ARC
  5
1D7
100
AcDbEntity
  8
1
  6
CONTINUOUS
 62
           7
100
AcDbCircle
 10
176.904871661296
 20
521.999999999978
 40
8.000000000022
100
AcDbArc
 50
90.0
 51
175.000000000456
  0
ARC
  5
1D6
100
AcDbEntity
  8
1
  6
CONTINUOUS
 62
           7
100
AcDbCircle
 10
1965.817695467246
 20
413.604564018088
 40
17.295243279838
100
AcDbArc
 50
-100.576717872173
 51
-5.185495812928
  0
ARC
  5
1D5
100
AcDbEntity
  8
1
  6
CONTINUOUS
 62
           7
100
AcDbCircle
 10
1877.786669181553
 20
414.746715479388
 40
17.211859556496
100
AcDbArc
 50
-174.836388457304
 51
-82.192331030841
  0
ARC
  5
1D4
100
AcDbEntity
  8
1
  6
CONTINUOUS
 62
           7
100
AcDbCircle
 10
1843.095128338568
 20
521.999999999883
 40
8.000000000028
100
AcDbArc
 50
5.000000000168
 51
89.999999999785
  0
ARC
  5
1D3
100
AcDbEntity
  8
1
  6
CONTINUOUS
 62
           7
100
AcDbCircle
 10
2361.425650382364
 20
133.134868191119
 40
660.148977021738
100
AcDbArc
 50
149.820380680856
 51
175.759417736442
  0
ARC
  5
1D2
100
AcDbEntity
  8
1
  6
CONTINUOUS
 62
           7
100
AcDbCircle
 10
1653.157470212249
 20
184.982134525217
 40
50.018489560196
100
AcDbArc
 50
-88.285581834783
 51
-3.476218955479
  0
ARC
  5
1D1
100
AcDbEntity
  8
1
  6
CONTINUOUS
 62
           7
100
AcDbCircle
 10
927.789837129018
 20
108.322910962287
 40
10.0
100
AcDbArc
 50
29.718842857327
 51
89.768173819177
  0
ARC
  5
1D0
100
AcDbEntity
  8
1
  6
CONTINUOUS
 62
           7
100
AcDbCircle
 10
1092.210162870983
 20
108.322910962287
 40
9.999999999998
100
AcDbArc
 50
90.231826180822
 51
150.281157142672
  0
ARC
  5
1CF
100
AcDbEntity
  8
1
  6
CONTINUOUS
 62
           7
100
AcDbCircle
 10
933.656605829012
 20
110.520748727247
 40
7.999999999957
100
AcDbArc
 50
33.475640844432
 51
70.706567111332
  0
ARC
  5
1CE
100
AcDbEntity
  8
1
  6
CONTINUOUS
 62
           7
100
AcDbCircle
 10
944.422642794718
 20
117.6291266606
 40
4.901035786574
100
AcDbArc
 50
-146.630901840605
 51
-96.651451278617
  0
ARC
  5
1CD
100
AcDbEntity
  8
1
  6
CONTINUOUS
 62
           7
100
AcDbCircle
 10
1086.343394171084
 20
110.520748727078
 40
8.000000000165
100
AcDbArc
 50
109.293432889021
 51
146.524359155108
  0
ARC
  5
1CC
100
AcDbEntity
  8
1
  6
CONTINUOUS
 62
           7
100
AcDbCircle
 10
1075.577676208546
 20
117.628608962136
 40
4.900484629518
100
AcDbArc
 50
-83.351552261123
 51
-33.36609461903
  0
ARC
  5
1CB
100
AcDbEntity
  8
1
  6
CONTINUOUS
 62
           7
100
AcDbCircle
 10
1069.469738044691
 20
104.146502123523
 40
4.000005245205
100
AcDbArc
 50
95.018528322999
 51
119.999997845535
  0
ARC
  5
1CA
100
AcDbEntity
  8
1
  6
CONTINUOUS
 62
           7
100
AcDbCircle
 10
1069.469736855184
 20
104.146509036651
 40
7.999998464376
100
AcDbArc
 50
95.000007527519
 51
120.000013422057
  0
ARC
  5
1C9
100
AcDbEntity
  8
1
  6
CONTINUOUS
 62
           7
100
AcDbCircle
 10
1075.709261726041
 20
117.742052336843
 40
8.999999021816
100
AcDbArc
 50
-85.000002080212
 51
-29.718842857321
  0
ARC
  5
1C8
100
AcDbEntity
  8
1
  6
CONTINUOUS
 62
           7
100
AcDbCircle
 10
944.29073827396
 20
117.742052336843
 40
8.999999021816
100
AcDbArc
 50
-150.281157142679
 51
-94.999997919786
  0
ARC
  5
1C7
100
AcDbEntity
  8
1
  6
CONTINUOUS
 62
           7
100
AcDbCircle
 10
950.53026195531
 20
104.146502123523
 40
4.000005245499
100
AcDbArc
 50
60.00000215445
 51
84.981471676988
  0
ARC
  5
1C6
100
AcDbEntity
  8
1
  6
CONTINUOUS
 62
           7
100
AcDbCircle
 10
950.530263144818
 20
104.146509036651
 40
7.999998464377
100
AcDbArc
 50
59.999986577929
 51
84.999992472474
  0
LINE
  5
1C5
100
AcDbEntity
  8
1
  6
CONTINUOUS
 62
           7
100
AcDbLine
 10
57.329466209351
 20
396.605517981941
 11
139.591970580962
 21
397.69592673843
  0
LINE
  5
1C4
100
AcDbEntity
  8
1
  6
CONTINUOUS
 62
           7
100
AcDbLine
 10
167.212028354066
 20
499.999999999909
 11
168.935314076673
 21
522.69724594189
  0
LINE
  5
1C3
100
AcDbEntity
  8
1
  6
CONTINUOUS
 62
           7
100
AcDbLine
 10
1856.112540859923
 20
464.999999999909
 11
1860.644659509989
 21
413.197646787379
  0
LINE
  5
1C2
100
AcDbEntity
  8
1
  6
CONTINUOUS
 62
           7
100
AcDbLine
 10
36.957845322741
 20
412.041411744202
 11
32.324569214027
 21
464.999999999909
  0
LINE
  5
1C1
100
AcDbEntity
  8
1
  6
CONTINUOUS
 62
           7
100
AcDbLine
 10
159.355340490013
 20
413.197646787379
 11
163.887459140078
 21
464.999999999909
  0
LINE
  5
1C0
100
AcDbEntity
  8
1
  6
CONTINUOUS
 62
           7
100
AcDbLine
 10
167.212028354021
 20
499.999999999909
 11
20.000000000001
 21
499.999999999909
  0
LINE
  5
1BF
100
AcDbEntity
  8
1
  6
CONTINUOUS
 62
           7
100
AcDbLine
 10
168.935314076622
 20
522.69724594189
 11
167.212028354021
 21
499.999999999909
  0
LINE
  5
1BE
100
AcDbEntity
  8
1
  6
CONTINUOUS
 62
           7
100
AcDbLine
 10
1852.787971645939
 20
499.999999999909
 11
1999.999999999961
 21
499.999999999909
  0
LINE
  5
1BD
100
AcDbEntity
  8
1
  6
CONTINUOUS
 62
           7
100
AcDbLine
 10
1880.124869004088
 20
397.694415605693
 11
1962.643120358674
 21
396.603166634672
  0
LINE
  5
1BC
100
AcDbEntity
  8
1
  6
CONTINUOUS
 62
           7
100
AcDbLine
 10
1987.675430785975
 20
464.999999999909
 11
1983.042154677261
 21
412.041411744202
  0
LINE
  5
1BB
100
AcDbEntity
  8
1
  6
CONTINUOUS
 62
           7
100
AcDbLine
 10
1851.064685923328
 20
522.69724594189
 11
1852.787971645935
 21
499.999999999909
  0
LINE
  5
1BA
100
AcDbEntity
  8
1
  6
CONTINUOUS
 62
           7
100
AcDbLine
 10
938.770801726393
 20
118.0
 11
506.105617749873
 21
130.809638522856
  0
LINE
  5
1B9
100
AcDbEntity
  8
1
  6
CONTINUOUS
 62
           7
100
AcDbLine
 10
1081.159761774314
 20
118.0
 11
1654.653912220761
 21
134.986035085375
  0
LINE
  5
1B8
100
AcDbEntity
  8
1
  6
CONTINUOUS
 62
           7
100
AcDbLine
 10
1893.999999999992
 20
375.0
 11
1955.999999999992
 21
375.0
  0
LINE
  5
1B7
100
AcDbEntity
  8
1
  6
DOT_CENTER
 62
           3
100
AcDbLine
 10
1929.999999999995
 20
420.0
 11
1929.999999999995
 21
350.0
  0
LINE
  5
1B6
100
AcDbEntity
  8
1
  6
CONTINUOUS
 62
           7
100
AcDbLine
 10
63.999999999998
 20
375.0
 11
125.999999999998
 21
375.0
  0
LINE
  5
1B5
100
AcDbEntity
  8
1
  6
DOT_CENTER
 62
           3
100
AcDbLine
 10
90.000000000001
 20
420.0
 11
90.000000000001
 21
350.0
  0
LINE
  5
1B4
100
AcDbEntity
  8
1
  6
DOT_CENTER
 62
           3
100
AcDbLine
 10
1010.000000000001
 20
143.0
 11
1010.000000000001
 21
70.0
  0
LINE
  5
1B3
100
AcDbEntity
  8
1
  6
CONTINUOUS
 62
           7
100
AcDbLine
 10
1076.49366268473
 20
108.776300717175
 11
1069.119826034385
 21
108.131173194855
  0
LINE
  5
1B2
100
AcDbEntity
  8
1
  6
CONTINUOUS
 62
           7
100
AcDbLine
 10
1067.469735552201
 20
107.610608356601
 11
1059.500000032565
 21
103.009279808545
  0
LINE
  5
1B1
100
AcDbEntity
  8
1
  6
CONTINUOUS
 62
           7
100
AcDbLine
 10
1059.000000000001
 20
102.143254385959
 11
1059.000000000001
 21
95.0
  0
LINE
  5
1B0
100
AcDbEntity
  8
1
  6
CONTINUOUS
 62
           7
100
AcDbLine
 10
1055.000000000001
 20
95.0
 11
1055.000000000001
 21
102.143253679878
  0
LINE
  5
1AF
100
AcDbEntity
  8
1
  6
CONTINUOUS
 62
           7
100
AcDbLine
 10
1057.499999968938
 20
106.473380680865
 11
1065.469737573297
 21
111.074710908342
  0
LINE
  5
1AE
100
AcDbEntity
  8
1
  6
CONTINUOUS
 62
           7
100
AcDbLine
 10
1068.772491633071
 20
112.116065142875
 11
1076.145040000001
 21
112.761079
  0
LINE
  5
1AD
100
AcDbEntity
  8
1
  6
CONTINUOUS
 62
           7
100
AcDbLine
 10
1067.005682000002
 20
111.961489
 11
952.994316756722
 21
111.96148956906
  0
LINE
  5
1AC
100
AcDbEntity
  8
1
  6
CONTINUOUS
 62
           7
100
AcDbLine
 10
965.000000000001
 20
105.030005001913
 11
1055.000000000001
 21
105.030005001913
  0
LINE
  5
1AB
100
AcDbEntity
  8
1
  6
CONTINUOUS
 62
           7
100
AcDbLine
 10
961.000000000001
 20
95.0
 11
1059.000000000001
 21
95.0
  0
LINE
  5
1AA
100
AcDbEntity
  8
1
  6
CONTINUOUS
 62
           7
100
AcDbLine
 10
950.880173965617
 20
108.131173194855
 11
943.506337315273
 21
108.776300717175
  0
LINE
  5
1A9
100
AcDbEntity
  8
1
  6
CONTINUOUS
 62
           7
100
AcDbLine
 10
960.499999967436
 20
103.009279808545
 11
952.530264447802
 21
107.610608356601
  0
LINE
  5
1A8
100
AcDbEntity
  8
1
  6
CONTINUOUS
 62
           7
100
AcDbLine
 10
961.000000000001
 20
95.0
 11
961.000000000001
 21
102.143254385959
  0
LINE
  5
1A7
100
AcDbEntity
  8
1
  6
CONTINUOUS
 62
           7
100
AcDbLine
 10
965.000000000001
 20
102.143253679878
 11
965.000000000001
 21
95.0
  0
LINE
  5
1A6
100
AcDbEntity
  8
1
  6
CONTINUOUS
 62
           7
100
AcDbLine
 10
954.530262426706
 20
111.074710908342
 11
962.500000031065
 21
106.473380680865
  0
LINE
  5
1A5
100
AcDbEntity
  8
1
  6
CONTINUOUS
 62
           7
100
AcDbLine
 10
943.854960000001
 20
112.761079
 11
951.227508366933
 21
112.116065142875
  0
LINE
  5
1A4
100
AcDbEntity
  8
1
  6
CONTINUOUS
 62
           7
100
AcDbLine
 10
938.770801726393
 20
118.0
 11
1081.159761774314
 21
118.0
  0
LINE
  5
1A3
100
AcDbEntity
  8
1
  6
CONTINUOUS
 62
           7
100
AcDbLine
 10
176.904871661296
 20
530.0
 11
442.500000000001
 21
530.0
  0
LINE
  5
1A2
100
AcDbEntity
  8
1
  6
CONTINUOUS
 62
           7
100
AcDbLine
 10
1999.999999999961
 20
464.999999999909
 11
20.000000000001
 21
464.999999999909
  0
LINE
  5
1A1
100
AcDbEntity
  8
1
  6
CONTINUOUS
 62
           7
100
AcDbLine
 10
20.000000000001
 20
499.999999999909
 11
20.000000000001
 21
464.999999999909
  0
LINE
  5
1A0
100
AcDbEntity
  8
1
  6
CONTINUOUS
 62
           7
100
AcDbLine
 10
1999.999999999961
 20
499.999999999909
 11
1999.999999999961
 21
464.999999999909
  0
LINE
  5
19F
100
AcDbEntity
  8
1
  6
CONTINUOUS
 62
           7
100
AcDbLine
 10
1979.0661560769
 20
402.486842507668
 11
1955.999999999992
 21
375.0
  0
LINE
  5
19E
100
AcDbEntity
  8
1
  6
CONTINUOUS
 62
           7
100
AcDbLine
 10
1867.81556125677
 20
400.717277994412
 11
1893.999999999992
 21
375.0
  0
LINE
  5
19D
100
AcDbEntity
  8
1
  6
CONTINUOUS
 62
           7
100
AcDbLine
 10
152.18443874323
 20
400.717277994409
 11
125.999999999998
 21
375.0
  0
LINE
  5
19C
100
AcDbEntity
  8
1
  6
CONTINUOUS
 62
           7
100
AcDbLine
 10
40.933843923099
 20
402.486842507671
 11
63.999999999998
 21
375.0
  0
LINE
  5
19B
100
AcDbEntity
  8
1
  6
CONTINUOUS
 62
           7
100
AcDbLine
 10
442.500000000001
 20
499.999999999909
 11
442.500000000001
 21
580.0
  0
LINE
  5
19A
100
AcDbEntity
  8
1
  6
CONTINUOUS
 62
           7
100
AcDbLine
 10
1042.500000000001
 20
499.999999999909
 11
1042.500000000001
 21
580.0
  0
LINE
  5
199
100
AcDbEntity
  8
1
  6
CONTINUOUS
 62
           7
100
AcDbLine
 10
1042.500000000001
 20
499.999999999909
 11
442.500000000001
 21
499.999999999909
  0
LINE
  5
198
100
AcDbEntity
  8
1
  6
CONTINUOUS
 62
           7
100
AcDbLine
 10
442.500000000001
 20
580.0
 11
1042.500000000001
 21
580.0
  0
LINE
  5
197
100
AcDbEntity
  8
1
  6
CONTINUOUS
 62
           7
100
AcDbLine
 10
1042.500000000001
 20
530.0
 11
1843.095128338568
 21
530.0
  0
LINE
  5
196
100
AcDbEntity
  8
1
  6
CONTINUOUS
 62
           7
100
AcDbLine
 10
2020.000000000001
 20
509.999999999909
 11
2020.000000000001
 21
99.999999999909
  0
LINE
  5
195
100
AcDbEntity
  8
1
  6
CONTINUOUS
 62
           7
100
AcDbLine
 10
0.0
 20
509.999999999909
 11
0.0
 21
99.999999999909
  0
LINE
  5
194
100
AcDbEntity
  8
1
  6
CONTINUOUS
 62
           7
100
AcDbLine
 10
1930.000000000001
 20
509.999999999909
 11
2020.000000000001
 21
509.999999999909
  0
LINE
  5
193
100
AcDbEntity
  8
1
  6
CONTINUOUS
 62
           7
100
AcDbLine
 10
90.0
 20
509.999999999909
 11
0.0
 21
509.999999999909
  0
LINE
  5
192
100
AcDbEntity
  8
1
  6
CONTINUOUS
 62
           7
100
AcDbLine
 10
90.0
 20
509.999999999909
 11
90.0
 21
499.999999999909
  0
LINE
  5
191
100
AcDbEntity
  8
1
  6
CONTINUOUS
 62
           7
100
AcDbLine
 10
1930.000000000001
 20
509.999999999909
 11
1930.000000000001
 21
499.999999999909
  0
LINE
  5
190
100
AcDbEntity
  8
1
  6
CONTINUOUS
 62
           7
100
AcDbLine
 10
0.0
 20
99.999999999909
 11
961.000000000001
 21
99.999999999909
  0
LINE
  5
18F
100
AcDbEntity
  8
1
  6
CONTINUOUS
 62
           7
100
AcDbLine
 10
1059.000000000001
 20
99.999999999909
 11
2020.000000000001
 21
99.999999999909
  0
LINE
  5
18E
100
AcDbEntity
  8
1
  6
CONTINUOUS
 62
           3
100
AcDbLine
 10
937.000000000001
 20
600.0
 11
987.000000000001
 21
600.0
  0
LINE
  5
18D
100
AcDbEntity
  8
1
  6
CONTINUOUS
 62
           3
100
AcDbLine
 10
822.000000000001
 20
650.0
 11
882.000000000001
 21
650.0
  0
LINE
  5
18C
100
AcDbEntity
  8
1
  6
CONTINUOUS
 62
           3
100
AcDbLine
 10
712.000000000001
 20
650.0
 11
772.000000000001
 21
650.0
  0
LINE
  5
18B
100
AcDbEntity
  8
1
  6
CONTINUOUS
 62
           3
100
AcDbLine
 10
712.000000000001
 20
590.0
 11
772.000000000001
 21
590.0
  0
LINE
  5
18A
100
AcDbEntity
  8
1
  6
CONTINUOUS
 62
           3
100
AcDbLine
 10
822.000000000001
 20
590.0
 11
882.000000000001
 21
590.0
  0
LINE
  5
189
100
AcDbEntity
  8
1
  6
CONTINUOUS
 62
           3
100
AcDbLine
 10
882.000000000001
 20
590.0
 11
882.000000000001
 21
650.0
  0
LINE
  5
188
100
AcDbEntity
  8
1
  6
CONTINUOUS
 62
           3
100
AcDbLine
 10
822.000000000001
 20
590.0
 11
822.000000000001
 21
650.0
  0
LINE
  5
187
100
AcDbEntity
  8
1
  6
CONTINUOUS
 62
           3
100
AcDbLine
 10
772.000000000001
 20
590.0
 11
772.000000000001
 21
650.0
  0
LINE
  5
186
100
AcDbEntity
  8
1
  6
CONTINUOUS
 62
           3
100
AcDbLine
 10
712.000000000001
 20
590.0
 11
712.000000000001
 21
650.0
  0
LINE
  5
185
100
AcDbEntity
  8
1
  6
CONTINUOUS
 62
           3
100
AcDbLine
 10
987.000000000001
 20
580.0
 11
987.000000000001
 21
600.0
  0
LINE
  5
184
100
AcDbEntity
  8
1
  6
CONTINUOUS
 62
           3
100
AcDbLine
 10
937.000000000001
 20
580.0
 11
937.000000000001
 21
600.0
  0
LINE
  5
183
100
AcDbEntity
  8
1
  6
CONTINUOUS
 62
           3
100
AcDbLine
 10
877.000000000001
 20
580.0
 11
877.000000000001
 21
590.0
  0
LINE
  5
182
100
AcDbEntity
  8
1
  6
CONTINUOUS
 62
           3
100
AcDbLine
 10
827.000000000001
 20
580.0
 11
827.000000000001
 21
590.0
  0
LINE
  5
181
100
AcDbEntity
  8
1
  6
CONTINUOUS
 62
           3
100
AcDbLine
 10
767.000000000001
 20
580.0
 11
767.000000000001
 21
590.0
  0
LINE
  5
180
100
AcDbEntity
  8
1
  6
CONTINUOUS
 62
           3
100
AcDbLine
 10
717.000000000001
 20
580.0
 11
717.000000000001
 21
590.0
  0
LINE
  5
17F
100
AcDbEntity
  8
1
  6
CONTINUOUS
 62
           3
100
AcDbLine
 10
597.000000000001
 20
580.0
 11
597.000000000001
 21
713.023291401139
  0
LINE
  5
17E
100
AcDbEntity
  8
1
  6
CONTINUOUS
 62
           3
100
AcDbLine
 10
567.000000000001
 20
580.0
 11
567.000000000001
 21
713.023291401141
  0
LINE
  5
17D
100
AcDbEntity
  8
0
  6
CONTINUOUS
 62
           3
100
AcDbLine
 10
542.000000000001
 20
735.86690690031
 11
542.000000000006
 21
765.000000000001
  0
LINE
  5
17C
100
AcDbEntity
  8
0
  6
CONTINUOUS
 62
           3
100
AcDbLine
 10
622.000000000001
 20
735.86690690031
 11
622.000000000001
 21
764.823829802566
  0
INSERT
  5
2B
100
AcDbEntity
  8
0
100
AcDbBlockReference
  2
WANNENF_SSE
 10
0.0
 20
0.0
  0
ENDBLK
  5
1E2
100
AcDbEntity
  8
0
100
AcDbBlockEnd
  0
ENDSEC
  0
SECTION
  2
ENTITIES
  0
TEXT
  5
1E8
100
AcDbEntity
  8
1
 62
           2
100
AcDbText
 10
670.000000000001
 20
185.0
 40
35.0
  1
CAPRIVI 581
 41
0.71262
  7
CONVERTER_1
100
AcDbText
  0
MTEXT
  5
1E7
100
AcDbEntity
  8
1
 62
           3
100
AcDbMText
 10
1819.520723182689
 20
350.0
 30
0.0
 40
35.0
 41
0.0
 71
           2
 72
           1
  1
ø 52
  7
CONVERTER_1
  0
MTEXT
  5
1E6
100
AcDbEntity
  8
1
 62
           3
100
AcDbMText
 10
199.999999999995
 20
350.0
 30
0.0
 40
35.0
 41
0.0
 71
           2
 72
           1
  1
ø 52
  7
CONVERTER_1
  0
MTEXT
  5
1E5
100
AcDbEntity
  8
1
 62
           3
100
AcDbMText
 10
1010.000000000001
 20
55.0
 30
0.0
 40
35.0
 41
0.0
 71
           2
 72
           1
  1
ø 90
  7
CONVERTER_1
  0
INSERT
  5
2E
100
AcDbEntity
  8
0
100
AcDbBlockReference
  2
DLX
 10
0.0
 20
0.0
  0
INSERT
  5
2F
100
AcDbEntity
  8
0
100
AcDbBlockReference
  2
WANNE_CAPRIVI_581
 10
0.0
 20
0.0
  0
ENDSEC
  0
SECTION
  2
OBJECTS
  0
DICTIONARY
  5
19
100
AcDbDictionary
  3
ACAD_GROUP
350
1A
  3
ACAD_MLINESTYLE
350
1B
  0
DICTIONARY
  5
1A
102
{ACAD_REACTORS
330
19
102
}
100
AcDbDictionary
  0
DICTIONARY
  5
1B
102
{ACAD_REACTORS
330
19
102
}
100
AcDbDictionary
  3
STANDARD
350
1C
  0
MLINESTYLE
  5
1C
102
{ACAD_REACTORS
330
1B
102
}
100
AcDbMlineStyle
  2
STANDARD
 70
           0
  3

 62
           0
 51
90.0
 52
90.0
 71
           2
 49
0.5
 62
         256
  6
BYLAYER
 49
-0.5
 62
         256
  6
BYLAYER
  0
ENDSEC
  0
EOF
