  0
SECTION
  2
HEADER
  9
$ACADVER
  1
AC1014
  9
$ACADMAINTVER
 70
           0
  9
$DWGCODEPAGE
  3
ANSI_1252
  9
$INSBASE
 10
0.0
 20
0.0
 30
0.0
  9
$EXTMIN
 10
1.000000000000E+20
 20
1.000000000000E+20
 30
1.000000000000E+20
  9
$EXTMAX
 10
-1.000000000000E+20
 20
-1.000000000000E+20
 30
-1.000000000000E+20
  9
$LIMMIN
 10
0.0
 20
0.0
  9
$LIMMAX
 10
0.0
 20
0.0
  9
$ORTHOMODE
 70
           0
  9
$REGENMODE
 70
           1
  9
$FILLMODE
 70
           1
  9
$QTEXTMODE
 70
           0
  9
$MIRRTEXT
 70
           1
  9
$DRAGMODE
 70
           2
  9
$LTSCALE
 40
1.0
  9
$OSMODE
 70
           0
  9
$ATTMODE
 70
           1
  9
$TEXTSIZE
 40
0.2
  9
$TRACEWID
 40
0.05
  9
$TEXTSTYLE
  7
STANDARD
  9
$CLAYER
  8
0
  9
$CELTYPE
  6
CONTINUOUS
  9
$CECOLOR
 62
         256
  9
$CELTSCALE
 40
1.0
  9
$DELOBJ
 70
           1
  9
$DISPSILH
 70
           0
  9
$DIMSCALE
 40
1.0
  9
$DIMASZ
 40
0.18
  9
$DIMEXO
 40
0.0625
  9
$DIMDLI
 40
0.38
  9
$DIMRND
 40
0.0
  9
$DIMDLE
 40
0.0
  9
$DIMEXE
 40
0.18
  9
$DIMTP
 40
0.0
  9
$DIMTM
 40
0.0
  9
$DIMTXT
 40
0.18
  9
$DIMCEN
 40
0.09
  9
$DIMTSZ
 40
0.0
  9
$DIMTOL
 70
           0
  9
$DIMLIM
 70
           0
  9
$DIMTIH
 70
           1
  9
$DIMTOH
 70
           1
  9
$DIMSE1
 70
           0
  9
$DIMSE2
 70
           0
  9
$DIMTAD
 70
           0
  9
$DIMZIN
 70
           0
  9
$DIMBLK
  1

  9
$DIMASO
 70
           1
  9
$DIMSHO
 70
           1
  9
$DIMPOST
  1

  9
$DIMAPOST
  1

  9
$DIMALT
 70
           0
  9
$DIMALTD
 70
           2
  9
$DIMALTF
 40
25.4
  9
$DIMLFAC
 40
1.0
  9
$DIMTOFL
 70
           0
  9
$DIMTVP
 40
0.0
  9
$DIMTIX
 70
           0
  9
$DIMSOXD
 70
           0
  9
$DIMSAH
 70
           0
  9
$DIMBLK1
  1

  9
$DIMBLK2
  1

  9
$DIMSTYLE
  2
STANDARD
  9
$DIMCLRD
 70
           0
  9
$DIMCLRE
 70
           0
  9
$DIMCLRT
 70
           0
  9
$DIMTFAC
 40
1.0
  9
$DIMGAP
 40
0.09
  9
$DIMJUST
 70
           0
  9
$DIMSD1
 70
           0
  9
$DIMSD2
 70
           0
  9
$DIMTOLJ
 70
           1
  9
$DIMTZIN
 70
           0
  9
$DIMALTZ
 70
           0
  9
$DIMALTTZ
 70
           0
  9
$DIMFIT
 70
           3
  9
$DIMUPT
 70
           0
  9
$DIMUNIT
 70
           2
  9
$DIMDEC
 70
           4
  9
$DIMTDEC
 70
           4
  9
$DIMALTU
 70
           2
  9
$DIMALTTD
 70
           2
  9
$DIMTXSTY
  7
STANDARD
  9
$DIMAUNIT
 70
           0
  9
$LUNITS
 70
           2
  9
$LUPREC
 70
           4
  9
$SKETCHINC
 40
0.1
  9
$FILLETRAD
 40
0.0
  9
$AUNITS
 70
           0
  9
$AUPREC
 70
           0
  9
$MENU
  1
acad
  9
$ELEVATION
 40
0.0
  9
$PELEVATION
 40
0.0
  9
$THICKNESS
 40
0.0
  9
$LIMCHECK
 70
           0
  9
$BLIPMODE
 70
           1
  9
$CHAMFERA
 40
0.0
  9
$CHAMFERB
 40
0.0
  9
$CHAMFERC
 40
0.0
  9
$CHAMFERD
 40
0.0
  9
$SKPOLY
 70
           0
  9
$TDCREATE
 40
0.000000000
  9
$TDUPDATE
 40
0.000000000
  9
$TDINDWG
 40
0.0000000000
  9
$TDUSRTIMER
 40
0.0000000000
  9
$USRTIMER
 70
           1
  9
$ANGBASE
 50
0.0
  9
$ANGDIR
 70
           0
  9
$PDMODE
 70
           0
  9
$PDSIZE
 40
0.0
  9
$PLINEWID
 40
0.0
  9
$COORDS
 70
           0
  9
$SPLFRAME
 70
           0
  9
$SPLINETYPE
 70
           6
  9
$SPLINESEGS
 70
           8
  9
$ATTDIA
 70
           0
  9
$ATTREQ
 70
           1
  9
$HANDLING
 70
           1
  9
$HANDSEED
  5
113
  9
$SURFTAB1
 70
           6
  9
$SURFTAB2
 70
           6
  9
$SURFTYPE
 70
           6
  9
$SURFU
 70
           6
  9
$SURFV
 70
           6
  9
$UCSNAME
  2

  9
$UCSORG
 10
0.0
 20
0.0
 30
0.0
  9
$UCSXDIR
 10
1.0
 20
0.0
 30
0.0
  9
$UCSYDIR
 10
0.0
 20
1.0
 30
0.0
  9
$PUCSNAME
  2

  9
$PUCSORG
 10
0.0
 20
0.0
 30
0.0
  9
$PUCSXDIR
 10
1.0
 20
0.0
 30
0.0
  9
$PUCSYDIR
 10
0.0
 20
1.0
 30
0.0
  9
$USERI1
 70
           0
  9
$USERI2
 70
           0
  9
$USERI3
 70
           0
  9
$USERI4
 70
           0
  9
$USERI5
 70
           0
  9
$USERR1
 40
0.0
  9
$USERR2
 40
0.0
  9
$USERR3
 40
0.0
  9
$USERR4
 40
0.0
  9
$USERR5
 40
0.0
  9
$WORLDVIEW
 70
           1
  9
$SHADEDGE
 70
           3
  9
$SHADEDIF
 70
          70
  9
$TILEMODE
 70
           1
  9
$MAXACTVP
 70
          16
  9
$PINSBASE
 10
0.0
 20
0.0
 30
0.0
  9
$PLIMCHECK
 70
           0
  9
$PEXTMIN
 10
1.000000000000E+20
 20
1.000000000000E+20
 30
1.000000000000E+20
  9
$PEXTMAX
 10
-1.000000000000E+20
 20
-1.000000000000E+20
 30
-1.000000000000E+20
  9
$PLIMMIN
 10
0.0
 20
0.0
  9
$PLIMMAX
 10
12.0
 20
9.0
  9
$UNITMODE
 70
           0
  9
$VISRETAIN
 70
           0
  9
$PLINEGEN
 70
           1
  9
$PSLTSCALE
 70
           0
  9
$TREEDEPTH
 70
        3020
  9
$PICKSTYLE
 70
           1
  9
$CMLSTYLE
  2
STANDARD
  9
$CMLJUST
 70
           0
  9
$CMLSCALE
 40
1.0
  9
$PROXYGRAPHICS
 70
           0
  9
$MEASUREMENT
 70
           0
  0
ENDSEC
  0
SECTION
  2
CLASSES
  0
CLASS
  1
LWPOLYLINE
  2
AcDbPolyline
  3
"AutoCAD"
 90
        0
280
           0
281
           1
  0
CLASS
  1
IMAGE
  2
AcDbRasterImage
  3
ISM
 90
      127
280
           0
281
           1
  0
CLASS
  1
OLE2FRAME
  2
AcDbOle2Frame
  3
""
 90
        0
280
           0
281
           1
  0
CLASS
  1
HATCH
  2
AcDbHatch
  3
"ACAD_SEDONA"
 90
        0
280
           0
281
           1
  0
CLASS
  1
DICTIONARYVAR
  2
AcDbDictionaryVar
  3
"AutoCAD"
 90
        0
280
           0
281
           0
  0
CLASS
  1
RASTERVARIABLES
  2
AcDbRasterVariables
  3
ISM
 90
        0
280
           0
281
           0
  0
CLASS
  1
IMAGEDEF
  2
AcDbRasterImageDef
  3
ISM
 90
        0
280
           0
281
           0
  0
CLASS
  1
IMAGEDEF_REACTOR
  2
AcDbRasterImageDefReactor
  3
ISM
 90
        1
280
           0
281
           0
  0
CLASS
  1
IDBUFFER
  2
AcDbIdBuffer
  3
"Acad"
 90
        0
280
           0
281
           0
  0
CLASS
  1
SPATIAL_FILTER
  2
AcDbSpatialFilter
  3
"Acad"
 90
        0
280
           0
281
           0
  0
CLASS
  1
XRECORD
  2
AcDbXrecord
  3
"<Built In>"
 90
        0
280
           0
281
           0
  0
CLASS
  1
SORTENTSTABLE
  2
AcDbSortentsTable
  3
"AutoCAD"
 90
        0
280
           0
281
           0
  0
CLASS
  1
LAYER_INDEX
  2
AcDbLayerIndex
  3
"Acad"
 90
        0
280
           0
281
           0
  0
CLASS
  1
SPATIAL_INDEX
  2
AcDbSpatialIndex
  3
"Acad"
 90
        0
280
           0
281
           0
  0
CLASS
  1
OBJECT_PTR
  2
CAseDLPNTableRecord
  3
"ASE-LPNTableRecord"
 90
        1
280
           0
281
           0
  0
CLASS
  1
LAYOUT
  2
AcDbLayout
  3
"AutoCAD 2000"
 90
        1
280
           0
281
           0
  0
CLASS
  1
PLOTSETTINGS
  2
AcDbPlotSettings
  3
"AutoCAD 2000"
 90
        1
280
           0
281
           0
  0
CLASS
  1
ACDBDICTIONARYWDFLT
  2
AcDbDictionaryWithDefault
  3
"AutoCAD 2000"
 90
        1
280
           0
281
           0
  0
CLASS
  1
ACDBPLACEHOLDER
  2
AcDbPlaceHolder
  3
"AutoCAD 2000"
 90
        1
280
           0
281
           0
  0
CLASS
  1
VBA_PROJECT
  2
AcDbVbaProject
  3
"acadvba"
 90
        1
280
           0
281
           0
  0
CLASS
  1
WIPEOUT
  2
AcDbWipeout
  3
WipeOut|AutoCAD Express Tool|expresstools@autodesk.com
 90
      127
280
           0
281
           1
  0
CLASS
  1
WIPEOUTVARIABLES
  2
AcDbWipeoutVariables
  3
WipeOut|AutoCAD Express Tool|expresstools@autodesk.com
 90
        0
280
           0
281
           0
  0
CLASS
  1
RTEXT
  2
RText
  3
RText|AutoCAD Express Tool|expresstools@autodesk.com
 90
        0
280
           0
281
           1
  0
CLASS
  1
ARCALIGNEDTEXT
  2
AcDbArcAlignedText
  3
ATEXT|AutoCAD Express Tool|expresstools@autodesk.com
 90
        0
280
           0
281
           1
  0
ENDSEC
  0
SECTION
  2
TABLES
  0
TABLE
  2
VPORT
  5
7
100
AcDbSymbolTable
 70
           1
  0
VPORT
  5
15
100
AcDbSymbolTableRecord
100
AcDbViewportTableRecord
  2
*ACTIVE
 70
           0
 10
0.0
 20
0.0
 11
1.0
 21
1.0
 12
6.591288
 22
4.579184
 13
0.0
 23
0.0
 14
1.0
 24
1.0
 15
0.0
 25
0.0
 16
0.0
 26
0.0
 36
1.0
 17
0.0
 27
0.0
 37
0.0
 40
9.158369
 41
0.688564
 42
50.0
 43
0.0
 44
0.0
 50
0.0
 51
0.0
 71
           0
 72
         100
 73
           1
 74
           1
 75
           0
 76
           0
 77
           0
 78
           0
  0
ENDTAB
  0
TABLE
  2
LTYPE
  5
4
100
AcDbSymbolTable
 70
          10
  0
LTYPE
  5
11
100
AcDbSymbolTableRecord
100
AcDbLinetypeTableRecord
  2
BYBLOCK
 70
          64
  3

 72
          65
 73
           0
 40
0.0
  0
LTYPE
  5
12
100
AcDbSymbolTableRecord
100
AcDbLinetypeTableRecord
  2
BYLAYER
 70
          64
  3

 72
          65
 73
           0
 40
0.0
  0
LTYPE
  5
13
100
AcDbSymbolTableRecord
100
AcDbLinetypeTableRecord
  2
CONTINUOUS
 70
          64
  3
Solid line
 72
          65
 73
           0
 40
0.0
  0
LTYPE
  5
1D
100
AcDbSymbolTableRecord
100
AcDbLinetypeTableRecord
  2
DASHED
 70
          64
  3
Dashed
 72
          65
 73
           2
 40
15.0
 49
12.0
 74
           0
 49
-3.0
 74
           0
  0
LTYPE
  5
1E
100
AcDbSymbolTableRecord
100
AcDbLinetypeTableRecord
  2
DOTTED
 70
          64
  3
Dotted
 72
          65
 73
           2
 40
3.5
 49
0.5
 74
           0
 49
-3.0
 74
           0
  0
LTYPE
  5
1F
100
AcDbSymbolTableRecord
100
AcDbLinetypeTableRecord
  2
DOT_CENTER
 70
          64
  3
Dot_Center
 72
          65
 73
           4
 40
2.0
 49
1.25
 74
           0
 49
-0.25
 74
           0
 49
0.25
 74
           0
 49
-0.25
 74
           0
  0
LTYPE
  5
20
100
AcDbSymbolTableRecord
100
AcDbLinetypeTableRecord
  2
LONG_DASHED
 70
          64
  3
Long_Dashed
 72
          65
 73
           2
 40
2.0
 49
1.5
 74
           0
 49
-0.5
 74
           0
  0
LTYPE
  5
21
100
AcDbSymbolTableRecord
100
AcDbLinetypeTableRecord
  2
DASH_CENTER
 70
          64
  3
Dash_Center
 72
          65
 73
           4
 40
36.0
 49
24.0
 74
           0
 49
-3.0
 74
           0
 49
6.0
 74
           0
 49
-3.0
 74
           0
  0
LTYPE
  5
22
100
AcDbSymbolTableRecord
100
AcDbLinetypeTableRecord
  2
PHANTOM
 70
          64
  3
Phantom
 72
          65
 73
           6
 40
2.5
 49
1.25
 74
           0
 49
-0.25
 74
           0
 49
0.25
 74
           0
 49
-0.25
 74
           0
 49
0.25
 74
           0
 49
-0.25
 74
           0
  0
LTYPE
  5
23
100
AcDbSymbolTableRecord
100
AcDbLinetypeTableRecord
  2
CENTER_DASH_DASH
 70
          64
  3
Center_Dash_Dash
 72
          65
 73
           6
 40
22.0
 49
12.0
 74
           0
 49
-3.0
 74
           0
 49
0.5
 74
           0
 49
-3.0
 74
           0
 49
0.5
 74
           0
 49
-3.0
 74
           0
  0
ENDTAB
  0
TABLE
  2
LAYER
  5
2
100
AcDbSymbolTable
 70
           4
  0
LAYER
  5
14
100
AcDbSymbolTableRecord
100
AcDbLayerTableRecord
  2
0
 70
           0
 62
           7
  6
CONTINUOUS
  0
LAYER
  5
24
100
AcDbSymbolTableRecord
100
AcDbLayerTableRecord
  2
MITTELLINIEN
 70
           0
 62
           7
  6
CONTINUOUS
  0
LAYER
  5
25
100
AcDbSymbolTableRecord
100
AcDbLayerTableRecord
  2
1
 70
           0
 62
           7
  6
CONTINUOUS
  0
LAYER
  5
26
100
AcDbSymbolTableRecord
100
AcDbLayerTableRecord
  2
GEOMETRIE
 70
           0
 62
           7
  6
CONTINUOUS
  0
ENDTAB
  0
TABLE
  2
STYLE
  5
3
100
AcDbSymbolTable
 70
           2
  0
STYLE
  5
17
100
AcDbSymbolTableRecord
100
AcDbTextStyleTableRecord
  2
STANDARD
 70
           0
 40
0.0
 41
1.0
 50
0.0
 71
           0
 42
0.0
  3
txt
  4

  0
STYLE
  5
10F
100
AcDbSymbolTableRecord
100
AcDbTextStyleTableRecord
  2
CONVERTER_1
 70
           0
 40
0.0
 41
0.71262
 50
0.0
 71
           0
 42
0.0
  3
txt.shx
  4

  0
ENDTAB
  0
TABLE
  2
VIEW
  5
5
100
AcDbSymbolTable
 70
           0
  0
ENDTAB
  0
TABLE
  2
UCS
  5
6
100
AcDbSymbolTable
 70
           0
  0
ENDTAB
  0
TABLE
  2
APPID
  5
8
100
AcDbSymbolTable
 70
           1
  0
APPID
  5
16
100
AcDbSymbolTableRecord
100
AcDbRegAppTableRecord
  2
ACAD
 70
           0
  0
ENDTAB
  0
TABLE
  2
DIMSTYLE
  5
9
100
AcDbSymbolTable
 70
           1
  0
DIMSTYLE
105
18
100
AcDbSymbolTableRecord
100
AcDbDimStyleTableRecord
  2
STANDARD
 70
           0
  3

  4

  5

  6

  7

 40
1.0
 41
0.18
 42
0.0625
 43
0.38
 44
0.18
 45
0.0
 46
0.0
 47
0.0
 48
0.0
 71
           0
 72
           0
 73
           1
 74
           1
 75
           0
 76
           0
 77
           0
 78
           0
140
0.18
141
0.09
142
0.0
143
25.4
144
1.0
145
0.0
146
1.0
147
0.09
170
           0
171
           2
172
           0
173
           0
174
           0
175
           0
176
           0
177
           0
178
           0
270
           2
271
           4
272
           4
273
           2
274
           2
275
           0
280
           0
281
           0
282
           0
283
           1
284
           0
285
           0
286
           0
287
           0
288
           0
340
17
  0
ENDTAB
  0
TABLE
  2
BLOCK_RECORD
  5
1
100
AcDbSymbolTable
 70
           2
  0
BLOCK_RECORD
  5
A
100
AcDbSymbolTableRecord
100
AcDbBlockTableRecord
  2
*MODEL_SPACE
  0
BLOCK_RECORD
  5
B
100
AcDbSymbolTableRecord
100
AcDbBlockTableRecord
  2
*PAPER_SPACE
  0
BLOCK_RECORD
  5
27
100
AcDbSymbolTableRecord
100
AcDbBlockTableRecord
  2
DLX
  0
BLOCK_RECORD
  5
29
100
AcDbSymbolTableRecord
100
AcDbBlockTableRecord
  2
WANNE_CORDOBA_FREE_LINE_51
  0
ENDTAB
  0
ENDSEC
  0
SECTION
  2
BLOCKS
  0
BLOCK
  5
D
100
AcDbEntity
  8
0
100
AcDbBlockBegin
  2
*MODEL_SPACE
 70
           0
 10
0.0
 20
0.0
 30
0.0
  3
*MODEL_SPACE
  1

  0
ENDBLK
  5
E
100
AcDbEntity
  8
0
100
AcDbBlockEnd
  0
BLOCK
  5
F
100
AcDbEntity
 67
           1
  8
0
100
AcDbBlockBegin
  2
*PAPER_SPACE
 70
           0
 10
0.0
 20
0.0
 30
0.0
  3
*PAPER_SPACE
  1

  0
ENDBLK
  5
10
100
AcDbEntity
 67
           1
  8
0
100
AcDbBlockEnd
  0
BLOCK
  5
28
100
AcDbEntity
  8
0
100
AcDbBlockBegin
  2
DLX
 70
           0
 10
0.0
 20
0.0
 30
0.0
  3
DLX
  1

  0
CIRCLE
  5
E2
100
AcDbEntity
  8
1
  6
CONTINUOUS
 62
           3
100
AcDbCircle
 10
707.735875237937
 20
525.878787878755
 40
5.530127989696
  0
CIRCLE
  5
E1
100
AcDbEntity
  8
1
  6
CONTINUOUS
 62
           3
100
AcDbCircle
 10
707.735875237937
 20
525.878787878755
 40
5.972862778754
  0
ARC
  5
E0
100
AcDbEntity
  8
1
  6
CONTINUOUS
 62
           3
100
AcDbCircle
 10
708.514586791596
 20
524.362233682226
 40
1.391870091328
100
AcDbArc
 50
-1.298612665727
 51
66.544866494045
  0
ARC
  5
DF
100
AcDbEntity
  8
1
  6
CONTINUOUS
 62
           3
100
AcDbCircle
 10
707.789193605106
 20
524.053039389823
 40
1.155889798232
100
AcDbArc
 50
0.985058170485
 51
82.918254632932
  0
ARC
  5
DE
100
AcDbEntity
  8
1
  6
CONTINUOUS
 62
           3
100
AcDbCircle
 10
707.864376243302
 20
527.264025930552
 40
1.257687287767
100
AcDbArc
 50
-74.800419047057
 51
80.931395238788
  0
ARC
  5
DD
100
AcDbEntity
  8
1
  6
CONTINUOUS
 62
           3
100
AcDbCircle
 10
707.942694069316
 20
527.303919921382
 40
2.009798008862
100
AcDbArc
 50
-55.929988464572
 51
86.297888718258
  0
LINE
  5
DC
100
AcDbEntity
  8
1
  6
CONTINUOUS
 62
           3
100
AcDbLine
 10
706.206636135699
 20
528.505992531278
 11
706.206636135699
 21
526.050334541276
  0
LINE
  5
DB
100
AcDbEntity
  8
1
  6
CONTINUOUS
 62
           3
100
AcDbLine
 10
708.062609127785
 20
528.505992531278
 11
706.206636135699
 21
528.505992531278
  0
LINE
  5
DA
100
AcDbEntity
  8
1
  6
CONTINUOUS
 62
           3
100
AcDbLine
 10
706.206636135699
 20
526.050334541276
 11
708.194119363641
 21
526.050334541276
  0
LINE
  5
D9
100
AcDbEntity
  8
1
  6
CONTINUOUS
 62
           3
100
AcDbLine
 10
706.206636135699
 20
522.451055788282
 11
705.334188436584
 21
522.451055788282
  0
LINE
  5
D8
100
AcDbEntity
  8
1
  6
CONTINUOUS
 62
           3
100
AcDbLine
 10
707.931697837317
 20
525.200111213842
 11
706.206636135699
 21
525.200111213842
  0
LINE
  5
D7
100
AcDbEntity
  8
1
  6
CONTINUOUS
 62
           3
100
AcDbLine
 10
708.944912577237
 20
522.451055788282
 11
708.944912577237
 21
524.0729110559
  0
LINE
  5
D6
100
AcDbEntity
  8
1
  6
CONTINUOUS
 62
           3
100
AcDbLine
 10
709.906099392742
 20
522.451055788282
 11
708.944912577237
 21
522.451055788282
  0
LINE
  5
D5
100
AcDbEntity
  8
1
  6
CONTINUOUS
 62
           3
100
AcDbLine
 10
709.906099392742
 20
524.330689554626
 11
709.906099392742
 21
522.451055788282
  0
LINE
  5
D4
100
AcDbEntity
  8
1
  6
CONTINUOUS
 62
           3
100
AcDbLine
 10
707.776108295824
 20
529.309523963457
 11
708.072464878176
 21
529.309523963457
  0
LINE
  5
D3
100
AcDbEntity
  8
1
  6
CONTINUOUS
 62
           3
100
AcDbLine
 10
705.334188436584
 20
529.309523963457
 11
707.776108295824
 21
529.309523963457
  0
LINE
  5
D2
100
AcDbEntity
  8
1
  6
CONTINUOUS
 62
           3
100
AcDbLine
 10
705.334188436584
 20
522.451055788282
 11
705.334188436584
 21
529.309523963457
  0
LINE
  5
D1
100
AcDbEntity
  8
1
  6
CONTINUOUS
 62
           3
100
AcDbLine
 10
706.206636135699
 20
525.200111213842
 11
706.206636135699
 21
522.451055788282
  0
LINE
  5
D0
100
AcDbEntity
  8
1
  6
CONTINUOUS
 62
           3
100
AcDbLine
 10
661.68540084903
 20
531.38450847832
 11
659.591323771416
 21
531.38450847832
  0
LINE
  5
CF
100
AcDbEntity
  8
1
  6
CONTINUOUS
 62
           3
100
AcDbLine
 10
658.975465701067
 20
520.323902417794
 11
661.68540084903
 21
531.38450847832
  0
LINE
  5
CE
100
AcDbEntity
  8
1
  6
CONTINUOUS
 62
           3
100
AcDbLine
 10
669.445851089087
 20
520.323902417794
 11
658.975465701067
 21
520.323902417794
  0
LINE
  5
CD
100
AcDbEntity
  8
1
  6
CONTINUOUS
 62
           3
100
AcDbLine
 10
668.903864059426
 20
518.111781205663
 11
669.445851089087
 21
520.323902417794
  0
LINE
  5
CC
100
AcDbEntity
  8
1
  6
CONTINUOUS
 62
           3
100
AcDbLine
 10
656.339401593847
 20
518.111781205663
 11
668.903864059426
 21
518.111781205663
  0
LINE
  5
CB
100
AcDbEntity
  8
1
  6
CONTINUOUS
 62
           3
100
AcDbLine
 10
659.591323771416
 20
531.38450847832
 11
656.339401593847
 21
518.111781205663
  0
LINE
  5
CA
100
AcDbEntity
  8
1
  6
CONTINUOUS
 62
           3
100
AcDbLine
 10
646.144653716558
 20
522.536023629845
 11
649.900368855924
 21
529.172387266269
  0
LINE
  5
C9
100
AcDbEntity
  8
1
  6
CONTINUOUS
 62
           3
100
AcDbLine
 10
650.957172001214
 20
529.172387266269
 11
649.900368855924
 21
529.172387266269
  0
LINE
  5
C8
100
AcDbEntity
  8
1
  6
CONTINUOUS
 62
           3
100
AcDbLine
 10
651.460964963069
 20
522.536023629845
 11
650.957172001214
 21
529.172387266269
  0
LINE
  5
C7
100
AcDbEntity
  8
1
  6
CONTINUOUS
 62
           3
100
AcDbLine
 10
646.144653716558
 20
522.536023629845
 11
651.460964963069
 21
522.536023629845
  0
LINE
  5
C6
100
AcDbEntity
  8
1
  6
CONTINUOUS
 62
           3
100
AcDbLine
 10
643.640843623664
 20
518.111781205663
 11
641.262046635093
 21
518.111781205663
  0
LINE
  5
C5
100
AcDbEntity
  8
1
  6
CONTINUOUS
 62
           3
100
AcDbLine
 10
644.892748670027
 20
520.323902417794
 11
643.640843623664
 21
518.111781205663
  0
LINE
  5
C4
100
AcDbEntity
  8
1
  6
CONTINUOUS
 62
           3
100
AcDbLine
 10
651.628895950391
 20
520.323902417794
 11
644.892748670027
 21
520.323902417794
  0
LINE
  5
C3
100
AcDbEntity
  8
1
  6
CONTINUOUS
 62
           3
100
AcDbLine
 10
651.796826937658
 20
518.111781205663
 11
651.628895950391
 21
520.323902417794
  0
LINE
  5
C2
100
AcDbEntity
  8
1
  6
CONTINUOUS
 62
           3
100
AcDbLine
 10
653.826509100727
 20
518.111781205663
 11
651.796826937658
 21
518.111781205663
  0
LINE
  5
C1
100
AcDbEntity
  8
1
  6
CONTINUOUS
 62
           3
100
AcDbLine
 10
652.818923176965
 20
531.38450847832
 11
653.826509100727
 21
518.111781205663
  0
LINE
  5
C0
100
AcDbEntity
  8
1
  6
CONTINUOUS
 62
           3
100
AcDbLine
 10
648.77347691399
 20
531.38450847832
 11
652.818923176965
 21
531.38450847832
  0
LINE
  5
BF
100
AcDbEntity
  8
1
  6
CONTINUOUS
 62
           3
100
AcDbLine
 10
641.262046635093
 20
518.111781205663
 11
648.77347691399
 21
531.38450847832
  0
LINE
  5
BE
100
AcDbEntity
  8
1
  6
CONTINUOUS
 62
           3
100
AcDbLine
 10
628.278768754059
 20
518.111781205663
 11
626.184691676499
 21
518.111781205663
  0
LINE
  5
BD
100
AcDbEntity
  8
1
  6
CONTINUOUS
 62
           3
100
AcDbLine
 10
631.084771050988
 20
529.564485538598
 11
628.278768754059
 21
518.111781205663
  0
LINE
  5
BC
100
AcDbEntity
  8
1
  6
CONTINUOUS
 62
           3
100
AcDbLine
 10
631.725319317498
 20
527.905394629536
 11
631.084771050988
 21
529.564485538598
  0
LINE
  5
BB
100
AcDbEntity
  8
1
  6
CONTINUOUS
 62
           3
100
AcDbLine
 10
635.506475653208
 20
518.111781205663
 11
631.725319317498
 21
527.905394629536
  0
LINE
  5
BA
100
AcDbEntity
  8
1
  6
CONTINUOUS
 62
           3
100
AcDbLine
 10
638.749154141977
 20
518.111781205663
 11
635.506475653208
 21
518.111781205663
  0
LINE
  5
B9
100
AcDbEntity
  8
1
  6
CONTINUOUS
 62
           3
100
AcDbLine
 10
642.001076319597
 20
531.38450847832
 11
638.749154141977
 21
518.111781205663
  0
LINE
  5
B8
100
AcDbEntity
  8
1
  6
CONTINUOUS
 62
           3
100
AcDbLine
 10
639.906999241983
 20
531.38450847832
 11
642.001076319597
 21
531.38450847832
  0
LINE
  5
B7
100
AcDbEntity
  8
1
  6
CONTINUOUS
 62
           3
100
AcDbLine
 10
637.06156733663
 20
519.770872114746
 11
639.906999241983
 21
531.38450847832
  0
LINE
  5
B6
100
AcDbEntity
  8
1
  6
CONTINUOUS
 62
           3
100
AcDbLine
 10
632.577729470355
 20
531.38450847832
 11
637.06156733663
 21
519.770872114746
  0
LINE
  5
B5
100
AcDbEntity
  8
1
  6
CONTINUOUS
 62
           3
100
AcDbLine
 10
629.436613854014
 20
531.38450847832
 11
632.577729470355
 21
531.38450847832
  0
LINE
  5
B4
100
AcDbEntity
  8
1
  6
CONTINUOUS
 62
           3
100
AcDbLine
 10
626.184691676499
 20
518.111781205663
 11
629.436613854014
 21
531.38450847832
  0
LINE
  5
B3
100
AcDbEntity
  8
1
  6
CONTINUOUS
 62
           3
100
AcDbLine
 10
626.923721360898
 20
531.38450847832
 11
624.829644283334
 21
531.38450847832
  0
LINE
  5
B2
100
AcDbEntity
  8
1
  6
CONTINUOUS
 62
           3
100
AcDbLine
 10
624.829644283334
 20
531.38450847832
 11
621.577722105769
 21
518.111781205663
  0
LINE
  5
B1
100
AcDbEntity
  8
1
  6
CONTINUOUS
 62
           3
100
AcDbLine
 10
623.671799183329
 20
518.111781205663
 11
626.923721360898
 21
531.38450847832
  0
LINE
  5
B0
100
AcDbEntity
  8
1
  6
CONTINUOUS
 62
           3
100
AcDbLine
 10
621.577722105769
 20
518.111781205663
 11
623.671799183329
 21
518.111781205663
  0
LINE
  5
AF
100
AcDbEntity
  8
1
  6
CONTINUOUS
 62
           3
100
AcDbLine
 10
619.084501950522
 20
526.739053932891
 11
621.178579028048
 21
526.739053932891
  0
LINE
  5
AE
100
AcDbEntity
  8
1
  6
CONTINUOUS
 62
           3
100
AcDbLine
 10
618.054726594372
 20
522.536023629845
 11
617.512739564605
 21
520.323902417794
  0
LINE
  5
AD
100
AcDbEntity
  8
1
  6
CONTINUOUS
 62
           3
100
AcDbLine
 10
613.866572438972
 20
522.536023629845
 11
618.054726594372
 21
522.536023629845
  0
LINE
  5
AC
100
AcDbEntity
  8
1
  6
CONTINUOUS
 62
           3
100
AcDbLine
 10
614.408559468619
 20
524.748144842034
 11
613.866572438972
 21
522.536023629845
  0
LINE
  5
AB
100
AcDbEntity
  8
1
  6
CONTINUOUS
 62
           3
100
AcDbLine
 10
620.690790701425
 20
524.748144842034
 11
619.064829612653
 21
518.111781205663
  0
LINE
  5
AA
100
AcDbEntity
  8
1
  6
CONTINUOUS
 62
           3
100
AcDbLine
 10
620.690790701425
 20
524.748144842034
 11
614.408559468619
 21
524.748144842034
  0
LINE
  5
A9
100
AcDbEntity
  8
1
  6
CONTINUOUS
 62
           3
100
AcDbLine
 10
609.136431254276
 20
520.323902417794
 11
611.304379372603
 21
529.172387266269
  0
LINE
  5
A8
100
AcDbEntity
  8
1
  6
CONTINUOUS
 62
           3
100
AcDbLine
 10
611.304379372603
 20
529.172387266269
 11
619.6806876829
 21
529.172387266269
  0
LINE
  5
A7
100
AcDbEntity
  8
1
  6
CONTINUOUS
 62
           3
100
AcDbLine
 10
619.6806876829
 20
529.172387266269
 11
619.084501950522
 21
526.739053932891
  0
LINE
  5
A6
100
AcDbEntity
  8
1
  6
CONTINUOUS
 62
           3
100
AcDbLine
 10
617.512739564605
 20
520.323902417794
 11
609.136431254276
 21
520.323902417794
  0
LINE
  5
A5
100
AcDbEntity
  8
1
  6
CONTINUOUS
 62
           3
100
AcDbLine
 10
619.064829612653
 20
518.111781205663
 11
606.50036714704
 21
518.111781205663
  0
LINE
  5
A4
100
AcDbEntity
  8
1
  6
CONTINUOUS
 62
           3
100
AcDbLine
 10
622.316751790175
 20
531.38450847832
 11
621.178579028048
 21
526.739053932891
  0
LINE
  5
A3
100
AcDbEntity
  8
1
  6
CONTINUOUS
 62
           3
100
AcDbLine
 10
609.752289324584
 20
531.38450847832
 11
622.316751790175
 21
531.38450847832
  0
LINE
  5
A2
100
AcDbEntity
  8
1
  6
CONTINUOUS
 62
           3
100
AcDbLine
 10
606.50036714704
 20
518.111781205663
 11
609.752289324584
 21
531.38450847832
  0
LINE
  5
A1
100
AcDbEntity
  8
1
  6
CONTINUOUS
 62
           3
100
AcDbLine
 10
603.987474654055
 20
518.111781205663
 11
607.239396831465
 21
531.38450847832
  0
LINE
  5
A0
100
AcDbEntity
  8
1
  6
CONTINUOUS
 62
           3
100
AcDbLine
 10
601.893397576336
 20
518.111781205663
 11
603.987474654055
 21
518.111781205663
  0
LINE
  5
9F
100
AcDbEntity
  8
1
  6
CONTINUOUS
 62
           3
100
AcDbLine
 10
605.145319753901
 20
531.38450847832
 11
601.893397576336
 21
518.111781205663
  0
LINE
  5
9E
100
AcDbEntity
  8
1
  6
CONTINUOUS
 62
           3
100
AcDbLine
 10
607.239396831465
 20
531.38450847832
 11
605.145319753901
 21
531.38450847832
  0
LINE
  5
9D
100
AcDbEntity
  8
1
  6
CONTINUOUS
 62
           3
100
AcDbLine
 10
588.910119695298
 20
518.111781205663
 11
589.994093754409
 21
522.536023629845
  0
LINE
  5
9C
100
AcDbEntity
  8
1
  6
CONTINUOUS
 62
           3
100
AcDbLine
 10
586.816042617622
 20
518.111781205663
 11
588.910119695298
 21
518.111781205663
  0
LINE
  5
9B
100
AcDbEntity
  8
1
  6
CONTINUOUS
 62
           3
100
AcDbLine
 10
600.328223469318
 20
521.979895810782
 11
599.380505083205
 21
518.111781205663
  0
LINE
  5
9A
100
AcDbEntity
  8
1
  6
CONTINUOUS
 62
           3
100
AcDbLine
 10
591.620054843184
 20
529.172387266269
 11
590.536080784001
 21
524.748144842034
  0
LINE
  5
99
100
AcDbEntity
  8
1
  6
CONTINUOUS
 62
           3
100
AcDbLine
 10
599.996363153703
 20
529.172387266269
 11
591.620054843184
 21
529.172387266269
  0
LINE
  5
98
100
AcDbEntity
  8
1
  6
CONTINUOUS
 62
           3
100
AcDbLine
 10
598.912389094381
 20
524.748144842034
 11
599.996363153703
 21
529.172387266269
  0
LINE
  5
97
100
AcDbEntity
  8
1
  6
CONTINUOUS
 62
           3
100
AcDbLine
 10
590.536080784001
 20
524.748144842034
 11
598.912389094381
 21
524.748144842034
  0
LINE
  5
96
100
AcDbEntity
  8
1
  6
CONTINUOUS
 62
           3
100
AcDbLine
 10
598.370402064938
 20
522.536023629845
 11
589.994093754409
 21
522.536023629845
  0
LINE
  5
95
100
AcDbEntity
  8
1
  6
CONTINUOUS
 62
           3
100
AcDbLine
 10
597.286428005566
 20
518.111781205663
 11
598.370402064938
 21
522.536023629845
  0
LINE
  5
94
100
AcDbEntity
  8
1
  6
CONTINUOUS
 62
           3
100
AcDbLine
 10
599.380505083205
 20
518.111781205663
 11
597.286428005566
 21
518.111781205663
  0
LINE
  5
93
100
AcDbEntity
  8
1
  6
CONTINUOUS
 62
           3
100
AcDbLine
 10
602.632427260738
 20
531.38450847832
 11
600.764903150884
 21
523.762204858332
  0
LINE
  5
92
100
AcDbEntity
  8
1
  6
CONTINUOUS
 62
           3
100
AcDbLine
 10
590.067964795158
 20
531.38450847832
 11
602.632427260738
 21
531.38450847832
  0
LINE
  5
91
100
AcDbEntity
  8
1
  6
CONTINUOUS
 62
           3
100
AcDbLine
 10
590.067964795158
 20
531.38450847832
 11
586.816042617622
 21
518.111781205663
  0
LINE
  5
90
100
AcDbEntity
  8
1
  6
CONTINUOUS
 62
           3
100
AcDbLine
 10
574.374751766132
 20
520.323902417794
 11
576.542699884474
 21
529.172387266269
  0
LINE
  5
8F
100
AcDbEntity
  8
1
  6
CONTINUOUS
 62
           3
100
AcDbLine
 10
576.542699884474
 20
529.172387266269
 11
584.919008194964
 21
529.172387266269
  0
LINE
  5
8E
100
AcDbEntity
  8
1
  6
CONTINUOUS
 62
           3
100
AcDbLine
 10
584.919008194964
 20
529.172387266269
 11
582.751060076487
 21
520.323902417794
  0
LINE
  5
8D
100
AcDbEntity
  8
1
  6
CONTINUOUS
 62
           3
100
AcDbLine
 10
582.751060076487
 20
520.323902417794
 11
574.374751766132
 21
520.323902417794
  0
LINE
  5
8C
100
AcDbEntity
  8
1
  6
CONTINUOUS
 62
           3
100
AcDbLine
 10
584.303150124491
 20
518.111781205663
 11
571.738687658966
 21
518.111781205663
  0
LINE
  5
8B
100
AcDbEntity
  8
1
  6
CONTINUOUS
 62
           3
100
AcDbLine
 10
587.555072302166
 20
531.38450847832
 11
584.303150124491
 21
518.111781205663
  0
LINE
  5
8A
100
AcDbEntity
  8
1
  6
CONTINUOUS
 62
           3
100
AcDbLine
 10
574.990609836448
 20
531.38450847832
 11
587.555072302166
 21
531.38450847832
  0
LINE
  5
89
100
AcDbEntity
  8
1
  6
CONTINUOUS
 62
           3
100
AcDbLine
 10
571.738687658966
 20
518.111781205663
 11
574.990609836448
 21
531.38450847832
  0
LINE
  5
88
100
AcDbEntity
  8
1
  6
CONTINUOUS
 62
           3
100
AcDbLine
 10
715.329503152207
 20
475.000000000001
 11
662.738701733397
 21
475.000000000001
  0
LINE
  5
87
100
AcDbEntity
  8
1
  6
CONTINUOUS
 62
           3
100
AcDbLine
 10
712.928830785688
 20
481.19393939391
 11
670.119681233515
 21
481.19393939391
  0
LINE
  5
86
100
AcDbEntity
  8
1
  6
CONTINUOUS
 62
           3
100
AcDbLine
 10
712.928830785688
 20
481.19393939391
 11
715.329503152207
 21
475.000000000001
  0
LINE
  5
85
100
AcDbEntity
  8
1
  6
CONTINUOUS
 62
           3
100
AcDbLine
 10
705.686830708906
 20
499.878917066824
 11
702.906977584949
 21
507.05117514508
  0
LINE
  5
84
100
AcDbEntity
  8
1
  6
CONTINUOUS
 62
           3
100
AcDbLine
 10
711.284056889192
 20
507.05117514508
 11
705.686830708906
 21
499.878917066824
  0
LINE
  5
83
100
AcDbEntity
  8
1
  6
CONTINUOUS
 62
           3
100
AcDbLine
 10
715.32950315225
 20
507.05117514508
 11
711.284056889192
 21
507.05117514508
  0
LINE
  5
82
100
AcDbEntity
  8
1
  6
CONTINUOUS
 62
           3
100
AcDbLine
 10
707.029273107168
 20
496.415301218603
 11
715.32950315225
 21
507.05117514508
  0
LINE
  5
81
100
AcDbEntity
  8
1
  6
CONTINUOUS
 62
           3
100
AcDbLine
 10
711.899971200172
 20
483.848484848477
 11
707.029273107168
 21
496.415301218603
  0
LINE
  5
80
100
AcDbEntity
  8
1
  6
CONTINUOUS
 62
           3
100
AcDbLine
 10
707.854524937124
 20
483.848484848477
 11
711.899971200172
 21
483.848484848477
  0
LINE
  5
7F
100
AcDbEntity
  8
1
  6
CONTINUOUS
 62
           3
100
AcDbLine
 10
704.32626924244
 20
492.951685370503
 11
707.854524937124
 21
483.848484848477
  0
LINE
  5
7E
100
AcDbEntity
  8
1
  6
CONTINUOUS
 62
           3
100
AcDbLine
 10
697.222136662338
 20
483.848484848477
 11
704.32626924244
 21
492.951685370503
  0
LINE
  5
7D
100
AcDbEntity
  8
1
  6
CONTINUOUS
 62
           3
100
AcDbLine
 10
693.176690399341
 20
483.848484848477
 11
697.222136662338
 21
483.848484848477
  0
LINE
  5
7C
100
AcDbEntity
  8
1
  6
CONTINUOUS
 62
           3
100
AcDbLine
 10
702.983826844131
 20
496.415301218661
 11
693.176690399341
 21
483.848484848477
  0
LINE
  5
7B
100
AcDbEntity
  8
1
  6
CONTINUOUS
 62
           3
100
AcDbLine
 10
698.861531321934
 20
507.05117514508
 11
702.983826844131
 21
496.415301218661
  0
LINE
  5
7A
100
AcDbEntity
  8
1
  6
CONTINUOUS
 62
           3
100
AcDbLine
 10
702.906977584949
 20
507.05117514508
 11
698.861531321934
 21
507.05117514508
  0
LINE
  5
79
100
AcDbEntity
  8
1
  6
CONTINUOUS
 62
           3
100
AcDbLine
 10
685.878253440889
 20
507.05117514508
 11
680.643060746967
 21
507.05117514508
  0
LINE
  5
78
100
AcDbEntity
  8
1
  6
CONTINUOUS
 62
           3
100
AcDbLine
 10
681.277386577538
 20
488.272727272798
 11
685.878253440889
 21
507.05117514508
  0
LINE
  5
77
100
AcDbEntity
  8
1
  6
CONTINUOUS
 62
           3
100
AcDbLine
 10
686.51257927149
 20
488.272727272798
 11
681.277386577538
 21
488.272727272798
  0
LINE
  5
76
100
AcDbEntity
  8
1
  6
CONTINUOUS
 62
           3
100
AcDbLine
 10
691.113446134885
 20
507.05117514508
 11
686.51257927149
 21
488.272727272798
  0
LINE
  5
75
100
AcDbEntity
  8
1
  6
CONTINUOUS
 62
           3
100
AcDbLine
 10
696.348638828808
 20
507.05117514508
 11
691.113446134885
 21
507.05117514508
  0
LINE
  5
74
100
AcDbEntity
  8
1
  6
CONTINUOUS
 62
           3
100
AcDbLine
 10
690.6637979062
 20
483.848484848477
 11
696.348638828808
 21
507.05117514508
  0
LINE
  5
73
100
AcDbEntity
  8
1
  6
CONTINUOUS
 62
           3
100
AcDbLine
 10
674.958219824279
 20
483.848484848477
 11
690.6637979062
 21
483.848484848477
  0
LINE
  5
72
100
AcDbEntity
  8
1
  6
CONTINUOUS
 62
           3
100
AcDbLine
 10
680.643060746967
 20
507.05117514508
 11
674.958219824279
 21
483.848484848477
  0
LINE
  5
71
100
AcDbEntity
  8
1
  6
CONTINUOUS
 62
           3
100
AcDbLine
 10
673.301425922338
 20
518.111781205663
 11
662.738701733397
 21
475.000000000001
  0
LINE
  5
70
100
AcDbEntity
  8
1
  6
CONTINUOUS
 62
           3
100
AcDbLine
 10
679.164841739606
 20
518.111781205663
 11
673.301425922338
 21
518.111781205663
  0
LINE
  5
6F
100
AcDbEntity
  8
1
  6
CONTINUOUS
 62
           3
100
AcDbLine
 10
670.119681233515
 20
481.19393939391
 11
679.164841739606
 21
518.111781205663
  0
LINE
  5
6E
100
AcDbEntity
  8
1
  6
CONTINUOUS
 62
           3
100
AcDbLine
 10
535.0
 20
475.000000000001
 11
542.852789041055
 21
507.05117514508
  0
LINE
  5
6D
100
AcDbEntity
  8
1
  6
CONTINUOUS
 62
           3
100
AcDbLine
 10
542.852789041055
 20
507.05117514508
 11
549.135020273752
 21
507.05117514508
  0
LINE
  5
6C
100
AcDbEntity
  8
1
  6
CONTINUOUS
 62
           3
100
AcDbLine
 10
549.135020273752
 20
507.05117514508
 11
542.366205292063
 21
479.424242424183
  0
LINE
  5
6B
100
AcDbEntity
  8
1
  6
CONTINUOUS
 62
           3
100
AcDbLine
 10
542.366205292063
 20
479.424242424183
 11
547.601397985942
 21
479.424242424183
  0
LINE
  5
6A
100
AcDbEntity
  8
1
  6
CONTINUOUS
 62
           3
100
AcDbLine
 10
547.601397985942
 20
479.424242424183
 11
555.725180541824
 21
512.581478175405
  0
LINE
  5
69
100
AcDbEntity
  8
1
  6
CONTINUOUS
 62
           3
100
AcDbLine
 10
555.725180541824
 20
512.581478175405
 11
538.03408469729
 21
512.581478175405
  0
LINE
  5
68
100
AcDbEntity
  8
1
  6
CONTINUOUS
 62
           3
100
AcDbLine
 10
538.03408469729
 20
512.581478175405
 11
539.389052271275
 21
518.111781205663
  0
LINE
  5
67
100
AcDbEntity
  8
1
  6
CONTINUOUS
 62
           3
100
AcDbLine
 10
539.389052271275
 20
518.111781205663
 11
563.362379348568
 21
518.111781205663
  0
LINE
  5
66
100
AcDbEntity
  8
1
  6
CONTINUOUS
 62
           3
100
AcDbLine
 10
563.362379348568
 20
518.111781205663
 11
552.799655159648
 21
475.000000000001
  0
LINE
  5
65
100
AcDbEntity
  8
1
  6
CONTINUOUS
 62
           3
100
AcDbLine
 10
552.799655159648
 20
475.000000000001
 11
535.0
 21
475.000000000001
  0
LINE
  5
64
100
AcDbEntity
  8
1
  6
CONTINUOUS
 62
           3
100
AcDbLine
 10
556.987809314774
 20
475.000000000001
 11
564.840598355768
 21
507.05117514508
  0
LINE
  5
63
100
AcDbEntity
  8
1
  6
CONTINUOUS
 62
           3
100
AcDbLine
 10
564.840598355768
 20
507.05117514508
 11
571.122829588578
 21
507.05117514508
  0
LINE
  5
62
100
AcDbEntity
  8
1
  6
CONTINUOUS
 62
           3
100
AcDbLine
 10
571.122829588578
 20
507.05117514508
 11
564.354014606783
 21
479.424242424183
  0
LINE
  5
61
100
AcDbEntity
  8
1
  6
CONTINUOUS
 62
           3
100
AcDbLine
 10
564.354014606783
 20
479.424242424183
 11
569.589207300767
 21
479.424242424183
  0
LINE
  5
60
100
AcDbEntity
  8
1
  6
CONTINUOUS
 62
           3
100
AcDbLine
 10
569.589207300767
 20
479.424242424183
 11
576.358022282573
 21
507.05117514508
  0
LINE
  5
5F
100
AcDbEntity
  8
1
  6
CONTINUOUS
 62
           3
100
AcDbLine
 10
574.787464474364
 20
475.000000000001
 11
556.987809314774
 21
475.000000000001
  0
LINE
  5
5E
100
AcDbEntity
  8
1
  6
CONTINUOUS
 62
           3
100
AcDbLine
 10
576.358022282573
 20
507.05117514508
 11
582.640253515379
 21
507.05117514508
  0
LINE
  5
5D
100
AcDbEntity
  8
1
  6
CONTINUOUS
 62
           3
100
AcDbLine
 10
582.640253515379
 20
507.05117514508
 11
574.787464474364
 21
475.000000000001
  0
LINE
  5
5C
100
AcDbEntity
  8
1
  6
CONTINUOUS
 62
           3
100
AcDbLine
 10
603.581024291314
 20
507.05117514508
 11
586.828407670542
 21
507.05117514508
  0
LINE
  5
5B
100
AcDbEntity
  8
1
  6
CONTINUOUS
 62
           3
100
AcDbLine
 10
586.828407670542
 20
507.05117514508
 11
582.227540807151
 21
488.272727272798
  0
LINE
  5
5A
100
AcDbEntity
  8
1
  6
CONTINUOUS
 62
           3
100
AcDbLine
 10
582.227540807151
 20
488.272727272798
 11
592.697926195116
 21
488.272727272798
  0
LINE
  5
59
100
AcDbEntity
  8
1
  6
CONTINUOUS
 62
           3
100
AcDbLine
 10
592.697926195116
 20
488.272727272798
 11
590.529978076698
 21
479.424242424183
  0
LINE
  5
58
100
AcDbEntity
  8
1
  6
CONTINUOUS
 62
           3
100
AcDbLine
 10
590.529978076698
 20
479.424242424183
 11
580.059592688787
 21
479.424242424183
  0
LINE
  5
57
100
AcDbEntity
  8
1
  6
CONTINUOUS
 62
           3
100
AcDbLine
 10
580.059592688787
 20
479.424242424183
 11
578.97561862948
 21
475.000000000001
  0
LINE
  5
56
100
AcDbEntity
  8
1
  6
CONTINUOUS
 62
           3
100
AcDbLine
 10
578.97561862948
 20
475.000000000001
 11
595.728235250303
 21
475.000000000001
  0
LINE
  5
55
100
AcDbEntity
  8
1
  6
CONTINUOUS
 62
           3
100
AcDbLine
 10
595.728235250303
 20
475.000000000001
 11
600.064131487226
 21
492.696969696953
  0
LINE
  5
54
100
AcDbEntity
  8
1
  6
CONTINUOUS
 62
           3
100
AcDbLine
 10
600.064131487226
 20
492.696969696953
 11
589.593746099163
 21
492.696969696953
  0
LINE
  5
53
100
AcDbEntity
  8
1
  6
CONTINUOUS
 62
           3
100
AcDbLine
 10
589.593746099163
 20
492.696969696953
 11
592.026664844176
 21
502.626932720839
  0
LINE
  5
52
100
AcDbEntity
  8
1
  6
CONTINUOUS
 62
           3
100
AcDbLine
 10
592.026664844176
 20
502.626932720839
 11
602.497050232156
 21
502.626932720839
  0
LINE
  5
51
100
AcDbEntity
  8
1
  6
CONTINUOUS
 62
           3
100
AcDbLine
 10
602.497050232156
 20
502.626932720839
 11
603.581024291314
 21
507.05117514508
  0
LINE
  5
50
100
AcDbEntity
  8
1
  6
CONTINUOUS
 62
           3
100
AcDbLine
 10
621.811859919322
 20
495.990569084413
 11
624.521795067252
 21
507.05117514508
  0
LINE
  5
4F
100
AcDbEntity
  8
1
  6
CONTINUOUS
 62
           3
100
AcDbLine
 10
624.521795067252
 20
507.05117514508
 11
607.769178446531
 21
507.05117514508
  0
LINE
  5
4E
100
AcDbEntity
  8
1
  6
CONTINUOUS
 62
           3
100
AcDbLine
 10
607.769178446531
 20
507.05117514508
 11
599.916389405538
 21
475.000000000001
  0
LINE
  5
4D
100
AcDbEntity
  8
1
  6
CONTINUOUS
 62
           3
100
AcDbLine
 10
599.916389405538
 20
475.000000000001
 11
616.669006026292
 21
475.000000000001
  0
LINE
  5
4C
100
AcDbEntity
  8
1
  6
CONTINUOUS
 62
           3
100
AcDbLine
 10
616.669006026292
 20
475.000000000001
 11
619.378941174266
 21
486.060606060609
  0
LINE
  5
4B
100
AcDbEntity
  8
1
  6
CONTINUOUS
 62
           3
100
AcDbLine
 10
619.378941174266
 20
486.060606060609
 11
613.096709941478
 21
486.060606060609
  0
LINE
  5
4A
100
AcDbEntity
  8
1
  6
CONTINUOUS
 62
           3
100
AcDbLine
 10
613.096709941478
 20
486.060606060609
 11
611.470748852691
 21
479.424242424183
  0
LINE
  5
49
100
AcDbEntity
  8
1
  6
CONTINUOUS
 62
           3
100
AcDbLine
 10
611.470748852691
 20
479.424242424183
 11
607.282594697488
 21
479.424242424183
  0
LINE
  5
48
100
AcDbEntity
  8
1
  6
CONTINUOUS
 62
           3
100
AcDbLine
 10
607.282594697488
 20
479.424242424183
 11
612.967435620118
 21
502.626932720839
  0
LINE
  5
47
100
AcDbEntity
  8
1
  6
CONTINUOUS
 62
           3
100
AcDbLine
 10
612.967435620118
 20
502.626932720839
 11
617.15558977531
 21
502.626932720839
  0
LINE
  5
46
100
AcDbEntity
  8
1
  6
CONTINUOUS
 62
           3
100
AcDbLine
 10
617.15558977531
 20
502.626932720839
 11
615.529628686516
 21
495.990569084413
  0
LINE
  5
45
100
AcDbEntity
  8
1
  6
CONTINUOUS
 62
           3
100
AcDbLine
 10
615.529628686516
 20
495.990569084413
 11
621.811859919322
 21
495.990569084413
  0
LINE
  5
44
100
AcDbEntity
  8
1
  6
CONTINUOUS
 62
           3
100
AcDbLine
 10
620.857160181473
 20
475.000000000001
 11
627.139391414261
 21
475.000000000001
  0
LINE
  5
43
100
AcDbEntity
  8
1
  6
CONTINUOUS
 62
           3
100
AcDbLine
 10
637.609776802336
 20
475.000000000001
 11
645.462565843351
 21
507.05117514508
  0
LINE
  5
42
100
AcDbEntity
  8
1
  6
CONTINUOUS
 62
           3
100
AcDbLine
 10
631.327545569439
 20
475.000000000001
 11
634.711953060334
 21
488.813466360341
  0
LINE
  5
41
100
AcDbEntity
  8
1
  6
CONTINUOUS
 62
           3
100
AcDbLine
 10
627.139391414261
 20
475.000000000001
 11
630.523798905146
 21
488.813466360341
  0
LINE
  5
40
100
AcDbEntity
  8
1
  6
CONTINUOUS
 62
           3
100
AcDbLine
 10
628.709949222466
 20
507.05117514508
 11
620.857160181473
 21
475.000000000001
  0
LINE
  5
3F
100
AcDbEntity
  8
1
  6
CONTINUOUS
 62
           3
100
AcDbLine
 10
645.462565843351
 20
507.05117514508
 11
639.180334610435
 21
507.05117514508
  0
LINE
  5
3E
100
AcDbEntity
  8
1
  6
CONTINUOUS
 62
           3
100
AcDbLine
 10
641.797930957462
 20
475.000000000001
 11
658.55054757827
 21
475.000000000001
  0
LINE
  5
3D
100
AcDbEntity
  8
1
  6
CONTINUOUS
 62
           3
100
AcDbLine
 10
653.352290404568
 20
479.424242424183
 11
649.164136249467
 21
479.424242424183
  0
LINE
  5
3C
100
AcDbEntity
  8
1
  6
CONTINUOUS
 62
           3
100
AcDbLine
 10
649.650719998459
 20
507.05117514508
 11
641.797930957462
 21
475.000000000001
  0
LINE
  5
3B
100
AcDbEntity
  8
1
  6
CONTINUOUS
 62
           3
100
AcDbLine
 10
649.164136249467
 20
479.424242424183
 11
654.848977172042
 21
502.626932720839
  0
LINE
  5
3A
100
AcDbEntity
  8
1
  6
CONTINUOUS
 62
           3
100
AcDbLine
 10
666.403336619289
 20
507.05117514508
 11
649.650719998459
 21
507.05117514508
  0
LINE
  5
39
100
AcDbEntity
  8
1
  6
CONTINUOUS
 62
           3
100
AcDbLine
 10
654.848977172042
 20
502.626932720839
 11
659.037131327292
 21
502.626932720839
  0
LINE
  5
38
100
AcDbEntity
  8
1
  6
CONTINUOUS
 62
           3
100
AcDbLine
 10
659.037131327292
 20
502.626932720839
 11
653.352290404568
 21
479.424242424183
  0
LINE
  5
37
100
AcDbEntity
  8
1
  6
CONTINUOUS
 62
           3
100
AcDbLine
 10
666.403336619289
 20
507.05117514508
 11
658.55054757827
 21
475.000000000001
  0
LINE
  5
36
100
AcDbEntity
  8
1
  6
CONTINUOUS
 62
           3
100
AcDbLine
 10
634.992180455331
 20
507.05117514508
 11
628.709949222466
 21
507.05117514508
  0
LINE
  5
35
100
AcDbEntity
  8
1
  6
CONTINUOUS
 62
           3
100
AcDbLine
 10
631.327545569439
 20
475.000000000001
 11
637.609776802336
 21
475.000000000001
  0
LINE
  5
34
100
AcDbEntity
  8
1
  6
CONTINUOUS
 62
           3
100
AcDbLine
 10
630.523798905146
 20
488.813466360341
 11
634.711953060334
 21
488.813466360341
  0
LINE
  5
33
100
AcDbEntity
  8
1
  6
CONTINUOUS
 62
           3
100
AcDbLine
 10
631.607772964315
 20
493.237708784528
 11
635.795927119554
 21
493.237708784528
  0
LINE
  5
32
100
AcDbEntity
  8
1
  6
CONTINUOUS
 62
           3
100
AcDbLine
 10
631.607772964315
 20
493.237708784528
 11
634.992180455331
 21
507.05117514508
  0
LINE
  5
31
100
AcDbEntity
  8
1
  6
CONTINUOUS
 62
           3
100
AcDbLine
 10
635.795927119554
 20
493.237708784528
 11
639.180334610435
 21
507.05117514508
  0
LINE
  5
30
100
AcDbEntity
  8
1
  6
CONTINUOUS
 62
           3
100
AcDbLine
 10
600.764903150884
 20
523.762204858332
 11
600.032820381937
 21
522.978447872363
  0
LINE
  5
2F
100
AcDbEntity
  8
1
  6
CONTINUOUS
 62
           3
100
AcDbLine
 10
600.328223469318
 20
521.979895810782
 11
600.032820381937
 21
522.978447872363
  0
ENDBLK
  5
E3
100
AcDbEntity
  8
0
100
AcDbBlockEnd
  0
BLOCK
  5
2A
100
AcDbEntity
  8
0
100
AcDbBlockBegin
  2
WANNE_CORDOBA_FREE_LINE_51
 70
           0
 10
0.0
 20
0.0
 30
0.0
  3
WANNE_CORDOBA_FREE_LINE_51
  1

  0
SPLINE
  5
10C
100
AcDbEntity
  8
1
  6
CONTINUOUS
 62
           7
100
AcDbSpline
210
0.0
220
0.0
230
1.0
 70
           0
 71
           3
 72
          41
 73
          38
 74
          77
 42
0.00000000001
 43
0.00000000001
 44
0.00000000001
 40
-1.5164708848200235
 40
-0.0791324045150077
 40
1.3582060757900014
 40
2.9427641853411339
 40
4.921812329916607
 40
7.4253759134443369
 40
10.467404314176937
 40
13.996919063017492
 40
17.931431984972157
 40
22.167981593132531
 40
26.590703808368239
 40
31.076293553511128
 40
35.499015768747938
 40
39.735565376907886
 40
43.6700782988624
 40
47.199593047703175
 40
50.241621448435403
 40
52.745185031963345
 40
54.724233176538711
 40
56.308791286089658
 40
57.74612976639429
 40
59.330687875945024
 40
61.309736020520276
 40
63.81329960404819
 40
66.855328004780432
 40
70.384842753621115
 40
74.319355675575608
 40
78.555905283735598
 40
82.978627498971861
 40
87.464217244114764
 40
91.886939459350998
 40
96.123489067511485
 40
100.05800198946652
 40
103.58751673830679
 40
106.62954513903888
 40
109.13310872256665
 40
111.1121568671432
 40
112.6967149766937
 40
114.13405345699699
 40
115.57139193730201
 40
117.00873041760703
 10
1410.428105266529
 20
87.645053546188592
 30
0.0
 10
1409.939815416398
 20
88.996909651410078
 30
0.0
 10
1408.6677221687539
 20
90.171998118672036
 30
0.0
 10
1406.7202062986059
 20
91.250736373843665
 30
0.0
 10
1404.1158513218829
 20
92.225534669872559
 30
0.0
 10
1400.9222336539251
 20
93.069486541160586
 30
0.0
 10
1397.229676652217
 20
93.755719781100197
 30
0.0
 10
1393.1477311028659
 20
94.262179161372387
 30
0.0
 10
1388.798945039998
 20
94.572650829309623
 30
0.0
 10
1384.3145750000001
 20
94.677248659570523
 30
0.0
 10
1379.8302049600011
 20
94.572650829309168
 30
0.0
 10
1375.481418897132
 20
94.262179161372842
 30
0.0
 10
1371.399473347783
 20
93.755719781099742
 30
0.0
 10
1367.7069163460731
 20
93.069486541161041
 30
0.0
 10
1364.5132986781171
 20
92.22553466987074
 30
0.0
 10
1361.9089437013929
 20
91.250736373843665
 30
0.0
 10
1359.9614278312449
 20
90.171998118672036
 30
0.0
 10
1358.689334583602
 20
88.996909651409169
 30
0.0
 10
1358.201044733469
 20
87.645053546188592
 30
0.0
 10
1358.689334583602
 20
86.29319744096847
 30
0.0
 10
1359.9614278312449
 20
85.118108973705603
 30
0.0
 10
1361.9089437013929
 20
84.039370718534428
 30
0.0
 10
1364.5132986781171
 20
83.064572422506899
 30
0.0
 10
1367.7069163460731
 20
82.220620551217053
 30
0.0
 10
1371.399473347783
 20
81.534387311278806
 30
0.0
 10
1375.481418897132
 20
81.027927931005252
 30
0.0
 10
1379.8302049600011
 20
80.71745626306847
 30
0.0
 10
1384.314574999999
 20
80.61285843280757
 30
0.0
 10
1388.798945039998
 20
80.71745626306847
 30
0.0
 10
1393.1477311028659
 20
81.027927931004797
 30
0.0
 10
1397.229676652217
 20
81.534387311279261
 30
0.0
 10
1400.922233653926
 20
82.220620551216598
 30
0.0
 10
1404.115851321882
 20
83.064572422507354
 30
0.0
 10
1406.7202062986059
 20
84.039370718533974
 30
0.0
 10
1408.6677221687539
 20
85.118108973705603
 30
0.0
 10
1409.939815416398
 20
86.293197440970744
 30
0.0
 10
1410.428105266529
 20
87.645053546188592
 30
0.0
 10
1409.939815416398
 20
88.996909651410078
 30
0.0
 11
1410.1958545027233
 21
88.288051988422708
 31
0.0
 11
1409.8624160698057
 21
88.950321055931951
 31
0.0
 11
1409.3741789437026
 21
89.519412932484911
 31
0.0
 11
1408.6293820064632
 21
90.127916056988369
 31
0.0
 11
1407.8079047446429
 21
90.648255058124477
 31
0.0
 11
1406.6981961824608
 21
91.210134484881564
 31
0.0
 11
1405.5444673879886
 21
91.690810133714479
 31
0.0
 11
1404.103416513308
 21
92.189521827088043
 31
0.0
 11
1402.6374960214785
 21
92.616207834892606
 31
0.0
 11
1400.914524390424
 21
93.037291642271867
 31
0.0
 11
1399.176134232368
 21
93.393985651873749
 31
0.0
 11
1397.2249085785902
 21
93.726253563900457
 31
0.0
 11
1395.2641467775593
 21
93.999589041527713
 31
0.0
 11
1393.1449240171739
 21
94.234506205081217
 31
0.0
 11
1391.0200870854051
 21
94.414077456052382
 31
0.0
 11
1388.7976401702135
 21
94.545989944109095
 31
0.0
 11
1386.5725835154524
 21
94.624580661764739
 31
0.0
 11
1384.3145749999999
 21
94.650914660667567
 31
0.0
 11
1382.0565664845474
 21
94.624580661764512
 31
0.0
 11
1379.831509829786
 21
94.545989944108811
 31
0.0
 11
1377.6090629145929
 21
94.414077456052354
 31
0.0
 11
1375.4842259828242
 21
94.234506205081445
 31
0.0
 11
1373.3650032224396
 21
93.999589041527685
 31
0.0
 11
1371.4042414214093
 21
93.726253563900229
 31
0.0
 11
1369.4530157676313
 21
93.393985651873777
 31
0.0
 11
1367.7146256095746
 21
93.03729164227191
 31
0.0
 11
1365.9916539785206
 21
92.61620783489181
 31
0.0
 11
1364.5257334866913
 21
92.18952182708675
 31
0.0
 11
1363.084682612011
 21
91.690810133713683
 31
0.0
 11
1361.930953817538
 21
91.210134484881351
 31
0.0
 11
1360.8212452553557
 21
90.64825505812442
 31
0.0
 11
1359.9997679935354
 21
90.127916056988212
 31
0.0
 11
1359.2549710562969
 21
89.519412932484386
 31
0.0
 11
1358.7667339301941
 21
88.950321055931241
 31
0.0
 11
1358.4332954972756
 21
88.288051988422239
 31
0.0
 11
1358.3171701153724
 21
87.645053546188635
 31
0.0
 11
1358.4332954972756
 21
87.002055103955115
 31
0.0
 11
1358.7667339301943
 21
86.339786036446355
 31
0.0
 11
1359.2549710562967
 21
85.770694159893267
 31
0.0
 11
1359.9997679935354
 21
85.162191035389455
 31
0.0
 11
1360.8212452553557
 21
84.641852034253418
 31
0.0
 11
1361.9309538175382
 21
84.079972607496629
 31
0.0
 11
1363.084682612011
 21
83.599296958664198
 31
0.0
 11
1364.5257334866915
 21
83.100585265291002
 31
0.0
 11
1365.9916539785206
 21
82.673899257486028
 31
0.0
 11
1367.7146256095746
 21
82.252815450106169
 31
0.0
 11
1369.4530157676313
 21
81.896121440504515
 31
0.0
 11
1371.4042414214091
 21
81.563853528478191
 31
0.0
 11
1373.3650032224396
 21
81.290518050850636
 31
0.0
 11
1375.4842259828245
 21
81.055600887296663
 31
0.0
 11
1377.6090629145933
 21
80.876029636325498
 31
0.0
 11
1379.8315098297855
 21
80.744117148268955
 31
0.0
 11
1382.0565664845467
 21
80.665526430613355
 31
0.0
 11
1384.314574999999
 21
80.639192431710455
 31
0.0
 11
1386.5725835154517
 21
80.66552643061334
 31
0.0
 11
1388.7976401702133
 21
80.744117148268884
 31
0.0
 11
1391.0200870854051
 21
80.876029636325256
 31
0.0
 11
1393.1449240171739
 21
81.055600887296364
 31
0.0
 11
1395.2641467775593
 21
81.290518050850636
 31
0.0
 11
1397.2249085785904
 21
81.563853528478433
 31
0.0
 11
1399.1761342323684
 21
81.896121440504544
 31
0.0
 11
1400.914524390425
 21
82.252815450105956
 31
0.0
 11
1402.6374960214782
 21
82.673899257486056
 31
0.0
 11
1404.1034165133076
 21
83.10058526529123
 31
0.0
 11
1405.5444673879879
 21
83.599296958664155
 31
0.0
 11
1406.6981961824604
 21
84.079972607496288
 31
0.0
 11
1407.8079047446427
 21
84.641852034253048
 31
0.0
 11
1408.6293820064632
 21
85.162191035389753
 31
0.0
 11
1409.3741789437029
 21
85.770694159894759
 31
0.0
 11
1409.8624160698055
 21
86.339786036448174
 31
0.0
 11
1410.1958545027235
 21
87.002055103956479
 31
0.0
 11
1410.309006344311
 21
87.65328594878315
 31
0.0
 11
1410.1839603414637
 21
88.320981598798937
 31
0.0
 11
1410.0618878789305
 21
88.658945625104593
 31
0.0
 11
1410.1839603414635
 21
88.320981598799335
 31
0.0
 11
1410.3090063443112
 21
87.974785169899818
 31
0.0
 11
1410.1958545027233
 21
88.288051988422723
 31
0.0
  0
CIRCLE
  5
10B
100
AcDbEntity
  8
GEOMETRIE
  6
CONTINUOUS
 62
           7
100
AcDbCircle
 10
1385.0
 20
425.000000000001
 40
75.67802
  0
CIRCLE
  5
10A
100
AcDbEntity
  8
GEOMETRIE
  6
CONTINUOUS
 62
           7
100
AcDbCircle
 10
1385.0
 20
425.000000000001
 40
68.395779
  0
CIRCLE
  5
109
100
AcDbEntity
  8
GEOMETRIE
  6
CONTINUOUS
 62
           7
100
AcDbCircle
 10
1385.0
 20
425.000000000001
 40
54.964289
  0
CIRCLE
  5
108
100
AcDbEntity
  8
GEOMETRIE
  6
CONTINUOUS
 62
           7
100
AcDbCircle
 10
1385.0
 20
425.000000000001
 40
45.0
  0
ARC
  5
107
100
AcDbEntity
  8
1
  6
CONTINUOUS
 62
           7
100
AcDbCircle
 10
975.000000587669
 20
3994.479617586026
 40
3944.55884142204
100
AcDbArc
 50
-97.938591823505
 51
-89.636865844475
  0
ARC
  5
106
100
AcDbEntity
  8
1
  6
CONTINUOUS
 62
           7
100
AcDbCircle
 10
1024.999999999994
 20
-3144.479607629967
 40
3944.558831480229
100
AcDbArc
 50
82.061408164976
 51
90.363134164976
  0
ARC
  5
105
100
AcDbEntity
  8
1
  6
CONTINUOUS
 62
           7
100
AcDbCircle
 10
615.835425327685
 20
425.328688939868
 40
399.85013535561
100
AcDbArc
 50
130.98712791239
 51
-179.95290112599
  0
ARC
  5
104
100
AcDbEntity
  8
1
  6
CONTINUOUS
 62
           7
100
AcDbCircle
 10
1384.164574682723
 20
424.671311060141
 40
399.850135348789
100
AcDbArc
 50
-49.012872088736
 51
0.04709887401
  0
ARC
  5
103
100
AcDbEntity
  8
1
  6
CONTINUOUS
 62
           7
100
AcDbCircle
 10
1025.000000587669
 20
3994.479603377404
 40
3944.558827221153
100
AcDbArc
 50
-90.363134173904
 51
-82.061407853653
  0
ARC
  5
102
100
AcDbEntity
  8
1
  6
CONTINUOUS
 62
           7
100
AcDbCircle
 10
974.999999999994
 20
-3144.479607629947
 40
3944.558831480209
100
AcDbArc
 50
89.636865835024
 51
97.938591835024
  0
ARC
  5
101
100
AcDbEntity
  8
1
  6
CONTINUOUS
 62
           7
100
AcDbCircle
 10
1049.999966461998
 20
3265.000242350468
 40
3175.000244631862
100
AcDbArc
 50
-85.298929861726
 51
-81.251136067033
  0
ARC
  5
100
100
AcDbEntity
  8
1
  6
CONTINUOUS
 62
           7
100
AcDbCircle
 10
1049.999942758141
 20
-2415.000455998345
 40
3175.000459503697
100
AcDbArc
 50
81.251136644992
 51
85.29892975139
  0
ARC
  5
FF
100
AcDbEntity
  8
1
  6
CONTINUOUS
 62
           7
100
AcDbCircle
 10
1309.966116057967
 20
424.999999968951
 40
399.999999934984
100
AcDbArc
 50
-36.813395001414
 51
36.813395074644
  0
ARC
  5
FE
100
AcDbEntity
  8
1
  6
CONTINUOUS
 62
           7
100
AcDbCircle
 10
1510.113941941074
 20
574.802695806189
 40
150.000000200518
100
AcDbArc
 50
36.813394869493
 51
81.251135989015
  0
ARC
  5
FD
100
AcDbEntity
  8
1
  6
CONTINUOUS
 62
           7
100
AcDbCircle
 10
1510.113942253372
 20
275.197303941672
 40
149.999999799408
100
AcDbArc
 50
-81.251127322769
 51
-36.813394863866
  0
ARC
  5
FC
100
AcDbEntity
  8
1
  6
CONTINUOUS
 62
           7
100
AcDbCircle
 10
1384.164574682723
 20
425.32868905752
 40
399.850135348885
100
AcDbArc
 50
-0.04709889087
 51
49.012872170678
  0
ARC
  5
FB
100
AcDbEntity
  8
1
  6
CONTINUOUS
 62
           7
100
AcDbCircle
 10
1548.131756436782
 20
236.151032207603
 40
149.999996859711
100
AcDbArc
 50
-81.698282573637
 51
-49.059970467768
  0
ARC
  5
FA
100
AcDbEntity
  8
1
  6
CONTINUOUS
 62
           7
100
AcDbCircle
 10
1548.131756442245
 20
613.848967804335
 40
149.999996847108
100
AcDbArc
 50
49.05997046636
 51
81.698282575063
  0
ARC
  5
F9
100
AcDbEntity
  8
1
  6
CONTINUOUS
 62
           7
100
AcDbCircle
 10
451.868244822646
 20
236.151034230945
 40
149.999999213396
100
AcDbArc
 50
-130.940029389192
 51
-98.301725975379
  0
ARC
  5
F8
100
AcDbEntity
  8
1
  6
CONTINUOUS
 62
           7
100
AcDbCircle
 10
615.835425327685
 20
424.671310942472
 40
399.850135355707
100
AcDbArc
 50
179.95290110913
 51
-130.987127830448
  0
ARC
  5
F7
100
AcDbEntity
  8
1
  6
CONTINUOUS
 62
           7
100
AcDbCircle
 10
451.868243559067
 20
613.848967801456
 40
149.999996850149
100
AcDbArc
 50
98.301717425285
 51
130.940029533301
  0
ARC
  5
F6
100
AcDbEntity
  8
1
  6
CONTINUOUS
 62
           7
100
AcDbCircle
 10
-286.063558000692
 20
7242.798466004373
 40
6598.554490004422
100
AcDbArc
 50
-84.032686999997
 51
-79.792436
  0
ARC
  5
F5
100
AcDbEntity
  8
1
  6
CONTINUOUS
 62
           7
100
AcDbCircle
 10
1249.274047000015
 20
-860.216077000079
 40
1650.000000000078
100
AcDbArc
 50
87.689344000001
 51
102.815026
  0
ARC
  5
F4
100
AcDbEntity
  8
1
  6
CONTINUOUS
 62
           7
100
AcDbCircle
 10
-286.063556922633
 20
-6392.798459010866
 40
6598.554481942154
100
AcDbArc
 50
79.792436155582
 51
84.032687002092
  0
ARC
  5
F3
100
AcDbEntity
  8
1
  6
CONTINUOUS
 62
           7
100
AcDbCircle
 10
1249.274046999999
 20
1710.216076999976
 40
1649.999999999975
100
AcDbArc
 50
-102.815025999999
 51
-87.689344241726
  0
ARC
  5
F2
100
AcDbEntity
  8
1
  6
CONTINUOUS
 62
           7
100
AcDbCircle
 10
648.371006999989
 20
537.768325000015
 40
149.999999999985
100
AcDbArc
 50
94.562612999995
 51
153.187433000004
  0
ARC
  5
F1
100
AcDbEntity
  8
1
  6
CONTINUOUS
 62
           7
100
AcDbCircle
 10
871.492738381536
 20
425.0
 40
400.000004276002
100
AcDbArc
 50
153.187433535192
 51
-153.187433535192
  0
ARC
  5
F0
100
AcDbEntity
  8
1
  6
CONTINUOUS
 62
           7
100
AcDbCircle
 10
648.371006638973
 20
312.23167379245
 40
149.999998767557
100
AcDbArc
 50
-153.187432677201
 51
-94.562612899225
  0
ARC
  5
EF
100
AcDbEntity
  8
1
  6
CONTINUOUS
 62
           7
100
AcDbCircle
 10
1554.611165431471
 20
5661.635978399878
 40
5575.056972290957
100
AcDbArc
 50
-99.47939623449
 51
-94.438697202418
  0
ARC
  5
EE
100
AcDbEntity
  8
1
  6
CONTINUOUS
 62
           7
100
AcDbCircle
 10
1554.61083299536
 20
-4811.633080773359
 40
5575.054057044926
100
AcDbArc
 50
94.438696280146
 51
99.479396794637
  0
ARC
  5
ED
100
AcDbEntity
  8
1
  6
CONTINUOUS
 62
           7
100
AcDbCircle
 10
1230.234949
 20
1072.401115000019
 40
975.000000000018
100
AcDbArc
 50
-96.305908999999
 51
-85.29893
  0
ARC
  5
EC
100
AcDbEntity
  8
1
  6
CONTINUOUS
 62
           7
100
AcDbCircle
 10
1230.234948999975
 20
-222.401115999666
 40
974.999999999665
100
AcDbArc
 50
85.298929999997
 51
96.305909000001
  0
LINE
  5
EB
100
AcDbEntity
  8
1
  6
CONTINUOUS
 62
           7
100
AcDbLine
 10
1575.0
 20
850.0
 11
2000.0
 21
425.000000000001
  0
LINE
  5
EA
100
AcDbEntity
  8
1
  6
CONTINUOUS
 62
           7
100
AcDbLine
 10
425.0
 20
850.0
 11
1575.0
 21
850.0
  0
LINE
  5
E9
100
AcDbEntity
  8
1
  6
CONTINUOUS
 62
           7
100
AcDbLine
 10
0.0
 20
425.000000000001
 11
425.0
 21
850.0
  0
LINE
  5
E8
100
AcDbEntity
  8
1
  6
CONTINUOUS
 62
           7
100
AcDbLine
 10
425.000000000001
 20
0.0
 11
0.0
 21
425.000000000001
  0
LINE
  5
E7
100
AcDbEntity
  8
1
  6
CONTINUOUS
 62
           7
100
AcDbLine
 10
1575.0
 20
0.0
 11
425.000000000001
 21
0.0
  0
LINE
  5
E6
100
AcDbEntity
  8
1
  6
CONTINUOUS
 62
           7
100
AcDbLine
 10
2000.0
 20
425.000000000001
 11
1575.0
 21
0.0
  0
LINE
  5
E5
100
AcDbEntity
  8
MITTELLINIEN
  6
DOT_CENTER
 62
           3
100
AcDbLine
 10
1385.0
 20
518.989955
 11
1385.0
 21
329.321981000001
  0
LINE
  5
E4
100
AcDbEntity
  8
MITTELLINIEN
  6
DOT_CENTER
 62
           3
100
AcDbLine
 10
1478.989955
 20
425.000000000001
 11
1289.321981
 21
425.000000000001
  0
ENDBLK
  5
10D
100
AcDbEntity
  8
0
100
AcDbBlockEnd
  0
ENDSEC
  0
SECTION
  2
ENTITIES
  0
MTEXT
  5
111
100
AcDbEntity
  8
1
 62
           3
100
AcDbMText
 10
1310.0
 20
500.000000000001
 30
0.0
 40
35.0
 41
0.0
 71
           9
 72
           1
  1
ø 90
  7
CONVERTER_1
  0
TEXT
  5
110
100
AcDbEntity
  8
1
 62
           2
100
AcDbText
 10
535.0
 20
325.000000000001
 40
35.0
  1
CORDOBA Free-Line 534
 41
0.71262
  7
CONVERTER_1
100
AcDbText
  0
INSERT
  5
2D
100
AcDbEntity
  8
0
100
AcDbBlockReference
  2
DLX
 10
0.0
 20
0.0
  0
INSERT
  5
2E
100
AcDbEntity
  8
0
100
AcDbBlockReference
  2
WANNE_CORDOBA_FREE_LINE_51
 10
0.0
 20
0.0
  0
ENDSEC
  0
SECTION
  2
OBJECTS
  0
DICTIONARY
  5
19
100
AcDbDictionary
  3
ACAD_GROUP
350
1A
  3
ACAD_MLINESTYLE
350
1B
  0
DICTIONARY
  5
1A
102
{ACAD_REACTORS
330
19
102
}
100
AcDbDictionary
  0
DICTIONARY
  5
1B
102
{ACAD_REACTORS
330
19
102
}
100
AcDbDictionary
  3
STANDARD
350
1C
  0
MLINESTYLE
  5
1C
102
{ACAD_REACTORS
330
1B
102
}
100
AcDbMlineStyle
  2
STANDARD
 70
           0
  3

 62
           0
 51
90.0
 52
90.0
 71
           2
 49
0.5
 62
         256
  6
BYLAYER
 49
-0.5
 62
         256
  6
BYLAYER
  0
ENDSEC
  0
EOF
