  0
SECTION
  2
HEADER
  9
$ACADVER
  1
AC1009
  9
$INSBASE
 10
0
 20
0
  9
$EXTMIN
 10
0.003526491344032934
 20
0
  9
$EXTMAX
 10
1970.996473508655
 20
1600.000000000001
  9
$LIMMIN
 10
0.003526491344032934
 20
0
  9
$LIMMAX
 10
1970.996473508655
 20
1600.000000000001
  9
$VIEWCTR
 10
10
 20
10
  9
$VIEWSIZE
 40
10
  9
$SNAPMODE
 70
0
  9
$SNAPUNIT
 10
1
 20
1
  9
$SNAPBASE
 10
0
 20
0
  9
$SNAPANG
 50
0
  9
$SNAPSTYLE
 70
0
  9
$SNAPISOPAIR
 70
0
  9
$GRIDMODE
 70
0
  9
$GRIDUNIT
 10
0
 20
0
  9
$ORTHOMODE
 70
0
  9
$REGENMODE
 70
1
  9
$FILLMODE
 70
1
  9
$QTEXTMODE
 70
0
  9
$DRAGMODE
 70
2
  9
$LTSCALE
 40
1
  9
$OSMODE
 70
0
  9
$ATTMODE
 70
1
  9
$TEXTSIZE
 40
3.5
  9
$TRACEWID
 40
0.5
  9
$TEXTSTYLE
  7
STANDARD
  9
$CLAYER
  8
0
  9
$CELTYPE
  6
BYLAYER
  9
$CECOLOR
 62
256
  9
$DIMSCALE
 40
1
  9
$DIMASZ
 40
0.18
  9
$DIMEXO
 40
0.0625
  9
$DIMDLI
 40
0.38
  9
$DIMRND
 40
0
  9
$DIMDLE
 40
0
  9
$DIMEXE
 40
0.18
  9
$DIMTP
 40
0
  9
$DIMTM
 40
0
  9
$DIMTXT
 40
0.18
  9
$DIMCEN
 40
0.09
  9
$DIMTSZ
 40
0
  9
$DIMTOL
 70
0
  9
$DIMLIM
 70
0
  9
$DIMTIH
 70
1
  9
$DIMTOH
 70
1
  9
$DIMSE1
 70
0
  9
$DIMSE2
 70
0
  9
$DIMTAD
 70
0
  9
$DIMZIN
 70
0
  9
$DIMBLK
  1

  9
$DIMASO
 70
1
  9
$DIMSHO
 70
1
  9
$DIMPOST
  1

  9
$DIMAPOST
  1

  9
$DIMALT
 70
0
  9
$DIMALTD
 70
2
  9
$DIMALTF
 40
25.4
  9
$DIMLFAC
 40
1
  9
$DIMTOFL
 70
0
  9
$DIMTVP
 40
0
  9
$DIMTIX
 70
0
  9
$DIMSOXD
 70
0
  9
$DIMSAH
 70
0
  9
$DIMBLK1
  1

  9
$DIMBLK2
  1

  9
$DIMSTYLE
  2
*UNNAMED
  9
$DIMCLRD
 70
0
  9
$DIMCLRE
 70
0
  9
$DIMCLRT
 70
0
  9
$DIMTFAC
 40
1
  9
$DIMGAP
 40
0.09
  9
$LUNITS
 70
2
  9
$LUPREC
 70
4
  9
$AXISMODE
 70
0
  9
$AXISUNIT
 10
0
 20
0
  9
$SKETCHINC
 40
0.1
  9
$FILLETRAD
 40
2
  9
$AUNITS
 70
0
  9
$AUPREC
 70
0
  9
$MENU
  1
ACAD
  9
$ELEVATION
 40
0
  9
$THICKNESS
 40
0
  9
$VIEWDIR
 10
0
 20
0
 30
1
  9
$LIMCHECK
 70
0
  9
$BLIPMODE
 70
1
  9
$CHAMFERA
 40
0
  9
$CHAMFERB
 40
0
  9
$FASTZOOM
 70
1
  9
$SKPOLY
 70
0
  9
$ANGBASE
 50
0
  9
$ANGDIR
 70
0
  9
$PDMODE
 70
0
  9
$PDSIZE
 40
0
  9
$PLINEWID
 40
0
  9
$COORDS
 70
2
  0
ENDSEC
  0
SECTION
  2
TABLES
  0
TABLE
  2
DIMSTYLE
 70
0
  0
ENDTAB
  0
TABLE
  2
LTYPE
 70
9
  0
LTYPE
  2
CONTINUOUS
 70
64
  3
Solid line
 72
65
 73
0
 40
0
  0
LTYPE
  2
BORDER
 70
64
  3
__ __ . __ __ .
 72
65
 73
6
 40
90.76941203369196
 49
25.93411772391199
 49
-12.96705886195599
 49
25.93411772391199
 49
-12.96705886195599
 49
0
 49
-12.96705886195599
  0
LTYPE
  2
CENTER
 70
64
  3
____ _ ____ _
 72
65
 73
4
 40
103.736470895648
 49
64.83529430977997
 49
-12.96705886195599
 49
12.96705886195599
 49
-12.96705886195599
  0
LTYPE
  2
DASHDOT
 70
64
  3
__ . __ . __ .
 72
65
 73
4
 40
51.86823544782398
 49
25.93411772391199
 49
-12.96705886195599
 49
0
 49
-12.96705886195599
  0
LTYPE
  2
DASHED
 70
64
  3
__ __ __ __ __
 72
65
 73
2
 40
38.90117658586799
 49
25.93411772391199
 49
-12.96705886195599
  0
LTYPE
  2
DIVIDE
 70
64
  3
__ . . __ . . 
 72
65
 73
6
 40
64.83529430977997
 49
25.93411772391199
 49
-12.96705886195599
 49
0
 49
-12.96705886195599
 49
0
 49
-12.96705886195599
  0
LTYPE
  2
DOT
 70
64
  3
..............
 72
65
 73
4
 40
25.93411772391199
 49
0
 49
-12.96705886195599
 49
0
 49
-12.96705886195599
  0
LTYPE
  2
HIDDEN
 70
64
  3
_ _ _ _ _ _ _
 72
65
 73
2
 40
19.45058829293399
 49
12.96705886195599
 49
-6.483529430977997
  0
LTYPE
  2
PHANTOM
 70
64
  3
_____ _ _ _____ _ _ 
 72
65
 73
6
 40
129.6705886195599
 49
64.83529430977997
 49
-12.96705886195599
 49
12.96705886195599
 49
-12.96705886195599
 49
12.96705886195599
 49
-12.96705886195599
  0
ENDTAB
  0
TABLE
  2
LAYER
 70
6
  0
LAYER
  2
MITTELLINIEN
 70
0
 62
7
  6
CONTINUOUS
  0
LAYER
  2
HILFSLINIEN
 70
0
 62
7
  6
CONTINUOUS
  0
LAYER
  2
0
 70
0
 62
7
  6
CONTINUOUS
  0
LAYER
  2
1
 70
0
 62
7
  6
CONTINUOUS
  0
LAYER
  2
GEOMETRIE
 70
0
 62
7
  6
CONTINUOUS
  0
ENDTAB
  0
TABLE
  2
STYLE
 70
4
  0
STYLE
  2
STANDARD
 70
0
 40
0
 41
1
 50
0
 71
0
 42
3.5
  3
txt
  4

  0
STYLE
  2
SIMPLEX
 70
0
 40
0
 41
1
 50
0
 71
0
 42
3.5
  3
simplex
  4

  0
STYLE
  2
COMPLEX
 70
0
 40
0
 41
1
 50
0
 71
0
 42
3.5
  3
complex
  4

  0
STYLE
  2
ITALIC
 70
0
 40
0
 41
1
 50
0
 71
0
 42
3.5
  3
italic
  4

  0
ENDTAB
  0
TABLE
  2
VIEW
 70
0
  0
ENDTAB
  0
ENDSEC
  0
SECTION
  2
BLOCKS
  0
BLOCK
  8
0
  2
DLX
 70
0
 10
0
 20
0
 30
0
  0
LINE
  8
1
 62
3
 10
856.706636135699
 20
564.4779776477826
 30
0
 11
856.706636135699
 21
562.0223196577806
 31
0
  0
LINE
  8
1
 62
3
 10
858.562609127785
 20
564.4779776477826
 30
0
 11
856.706636135699
 21
564.4779776477826
 31
0
  0
LINE
  8
1
 62
3
 10
856.706636135699
 20
562.0223196577806
 30
0
 11
858.694119363641
 21
562.0223196577806
 31
0
  0
LINE
  8
1
 62
3
 10
856.706636135699
 20
558.4230409047867
 30
0
 11
855.8341884365839
 21
558.4230409047867
 31
0
  0
LINE
  8
1
 62
3
 10
858.431697837317
 20
561.1720963303465
 30
0
 11
856.706636135699
 21
561.1720963303465
 31
0
  0
LINE
  8
1
 62
3
 10
859.4449125772369
 20
558.4230409047867
 30
0
 11
859.4449125772369
 21
560.0448961724046
 31
0
  0
LINE
  8
1
 62
3
 10
860.4060993927419
 20
558.4230409047867
 30
0
 11
859.4449125772369
 21
558.4230409047867
 31
0
  0
LINE
  8
1
 62
3
 10
860.4060993927419
 20
560.3026746711305
 30
0
 11
860.4060993927419
 21
558.4230409047867
 31
0
  0
LINE
  8
1
 62
3
 10
858.2761082958239
 20
565.2815090799608
 30
0
 11
858.5724648781759
 21
565.2815090799608
 31
0
  0
LINE
  8
1
 62
3
 10
855.8341884365839
 20
565.2815090799608
 30
0
 11
858.2761082958239
 21
565.2815090799608
 31
0
  0
LINE
  8
1
 62
3
 10
855.8341884365839
 20
558.4230409047867
 30
0
 11
855.8341884365839
 21
565.2815090799608
 31
0
  0
LINE
  8
1
 62
3
 10
856.706636135699
 20
561.1720963303465
 30
0
 11
856.706636135699
 21
558.4230409047867
 31
0
  0
LINE
  8
1
 62
3
 10
812.18540084903
 20
567.3564935948247
 30
0
 11
810.091323771416
 21
567.3564935948247
 31
0
  0
LINE
  8
1
 62
3
 10
809.4754657010669
 20
556.2958875342977
 30
0
 11
812.18540084903
 21
567.3564935948247
 31
0
  0
LINE
  8
1
 62
3
 10
819.945851089087
 20
556.2958875342977
 30
0
 11
809.4754657010669
 21
556.2958875342977
 31
0
  0
LINE
  8
1
 62
3
 10
819.4038640594258
 20
554.0837663221666
 30
0
 11
819.945851089087
 21
556.2958875342977
 31
0
  0
LINE
  8
1
 62
3
 10
806.839401593847
 20
554.0837663221666
 30
0
 11
819.4038640594258
 21
554.0837663221666
 31
0
  0
LINE
  8
1
 62
3
 10
810.091323771416
 20
567.3564935948247
 30
0
 11
806.839401593847
 21
554.0837663221666
 31
0
  0
LINE
  8
1
 62
3
 10
796.644653716558
 20
558.5080087463487
 30
0
 11
800.4003688559239
 21
565.1443723827736
 31
0
  0
LINE
  8
1
 62
3
 10
801.4571720012139
 20
565.1443723827736
 30
0
 11
800.4003688559239
 21
565.1443723827736
 31
0
  0
LINE
  8
1
 62
3
 10
801.9609649630688
 20
558.5080087463487
 30
0
 11
801.4571720012139
 21
565.1443723827736
 31
0
  0
LINE
  8
1
 62
3
 10
796.644653716558
 20
558.5080087463487
 30
0
 11
801.9609649630688
 21
558.5080087463487
 31
0
  0
LINE
  8
1
 62
3
 10
794.1408436236638
 20
554.0837663221666
 30
0
 11
791.7620466350929
 21
554.0837663221666
 31
0
  0
LINE
  8
1
 62
3
 10
795.392748670027
 20
556.2958875342977
 30
0
 11
794.1408436236638
 21
554.0837663221666
 31
0
  0
LINE
  8
1
 62
3
 10
802.1288959503909
 20
556.2958875342977
 30
0
 11
795.392748670027
 21
556.2958875342977
 31
0
  0
LINE
  8
1
 62
3
 10
802.2968269376579
 20
554.0837663221666
 30
0
 11
802.1288959503909
 21
556.2958875342977
 31
0
  0
LINE
  8
1
 62
3
 10
804.326509100727
 20
554.0837663221666
 30
0
 11
802.2968269376579
 21
554.0837663221666
 31
0
  0
LINE
  8
1
 62
3
 10
803.318923176965
 20
567.3564935948247
 30
0
 11
804.326509100727
 21
554.0837663221666
 31
0
  0
LINE
  8
1
 62
3
 10
799.27347691399
 20
567.3564935948247
 30
0
 11
803.318923176965
 21
567.3564935948247
 31
0
  0
LINE
  8
1
 62
3
 10
791.7620466350929
 20
554.0837663221666
 30
0
 11
799.27347691399
 21
567.3564935948247
 31
0
  0
LINE
  8
1
 62
3
 10
778.778768754059
 20
554.0837663221666
 30
0
 11
776.6846916764989
 21
554.0837663221666
 31
0
  0
LINE
  8
1
 62
3
 10
781.5847710509879
 20
565.5364706551025
 30
0
 11
778.778768754059
 21
554.0837663221666
 31
0
  0
LINE
  8
1
 62
3
 10
782.2253193174979
 20
563.8773797460397
 30
0
 11
781.5847710509879
 21
565.5364706551025
 31
0
  0
LINE
  8
1
 62
3
 10
786.0064756532079
 20
554.0837663221666
 30
0
 11
782.2253193174979
 21
563.8773797460397
 31
0
  0
LINE
  8
1
 62
3
 10
789.249154141977
 20
554.0837663221666
 30
0
 11
786.0064756532079
 21
554.0837663221666
 31
0
  0
LINE
  8
1
 62
3
 10
792.5010763195969
 20
567.3564935948247
 30
0
 11
789.249154141977
 21
554.0837663221666
 31
0
  0
LINE
  8
1
 62
3
 10
790.4069992419829
 20
567.3564935948247
 30
0
 11
792.5010763195969
 21
567.3564935948247
 31
0
  0
LINE
  8
1
 62
3
 10
787.5615673366299
 20
555.7428572312506
 30
0
 11
790.4069992419829
 21
567.3564935948247
 31
0
  0
LINE
  8
1
 62
3
 10
783.0777294703548
 20
567.3564935948247
 30
0
 11
787.5615673366299
 21
555.7428572312506
 31
0
  0
LINE
  8
1
 62
3
 10
779.936613854014
 20
567.3564935948247
 30
0
 11
783.0777294703548
 21
567.3564935948247
 31
0
  0
LINE
  8
1
 62
3
 10
776.6846916764989
 20
554.0837663221666
 30
0
 11
779.936613854014
 21
567.3564935948247
 31
0
  0
LINE
  8
1
 62
3
 10
777.4237213608981
 20
567.3564935948247
 30
0
 11
775.3296442833339
 21
567.3564935948247
 31
0
  0
LINE
  8
1
 62
3
 10
775.3296442833339
 20
567.3564935948247
 30
0
 11
772.0777221057688
 21
554.0837663221666
 31
0
  0
LINE
  8
1
 62
3
 10
774.1717991833289
 20
554.0837663221666
 30
0
 11
777.4237213608981
 21
567.3564935948247
 31
0
  0
LINE
  8
1
 62
3
 10
772.0777221057688
 20
554.0837663221666
 30
0
 11
774.1717991833289
 21
554.0837663221666
 31
0
  0
LINE
  8
1
 62
3
 10
769.5845019505218
 20
562.7110390493956
 30
0
 11
771.6785790280478
 21
562.7110390493956
 31
0
  0
LINE
  8
1
 62
3
 10
768.5547265943719
 20
558.5080087463487
 30
0
 11
768.012739564605
 21
556.2958875342977
 31
0
  0
LINE
  8
1
 62
3
 10
764.3665724389718
 20
558.5080087463487
 30
0
 11
768.5547265943719
 21
558.5080087463487
 31
0
  0
LINE
  8
1
 62
3
 10
764.9085594686189
 20
560.7201299585377
 30
0
 11
764.3665724389718
 21
558.5080087463487
 31
0
  0
LINE
  8
1
 62
3
 10
771.1907907014249
 20
560.7201299585377
 30
0
 11
769.5648296126528
 21
554.0837663221666
 31
0
  0
LINE
  8
1
 62
3
 10
771.1907907014249
 20
560.7201299585377
 30
0
 11
764.9085594686189
 21
560.7201299585377
 31
0
  0
LINE
  8
1
 62
3
 10
759.6364312542755
 20
556.2958875342977
 30
0
 11
761.8043793726031
 21
565.1443723827736
 31
0
  0
LINE
  8
1
 62
3
 10
761.8043793726031
 20
565.1443723827736
 30
0
 11
770.1806876828998
 21
565.1443723827736
 31
0
  0
LINE
  8
1
 62
3
 10
770.1806876828998
 20
565.1443723827736
 30
0
 11
769.5845019505218
 21
562.7110390493956
 31
0
  0
LINE
  8
1
 62
3
 10
768.012739564605
 20
556.2958875342977
 30
0
 11
759.6364312542755
 21
556.2958875342977
 31
0
  0
LINE
  8
1
 62
3
 10
769.5648296126528
 20
554.0837663221666
 30
0
 11
757.0003671470404
 21
554.0837663221666
 31
0
  0
LINE
  8
1
 62
3
 10
772.816751790175
 20
567.3564935948247
 30
0
 11
771.6785790280478
 21
562.7110390493956
 31
0
  0
LINE
  8
1
 62
3
 10
760.2522893245841
 20
567.3564935948247
 30
0
 11
772.816751790175
 21
567.3564935948247
 31
0
  0
LINE
  8
1
 62
3
 10
757.0003671470404
 20
554.0837663221666
 30
0
 11
760.2522893245841
 21
567.3564935948247
 31
0
  0
LINE
  8
1
 62
3
 10
754.4874746540554
 20
554.0837663221666
 30
0
 11
757.7393968314646
 21
567.3564935948247
 31
0
  0
LINE
  8
1
 62
3
 10
752.3933975763357
 20
554.0837663221666
 30
0
 11
754.4874746540554
 21
554.0837663221666
 31
0
  0
LINE
  8
1
 62
3
 10
755.6453197539013
 20
567.3564935948247
 30
0
 11
752.3933975763357
 21
554.0837663221666
 31
0
  0
LINE
  8
1
 62
3
 10
757.7393968314646
 20
567.3564935948247
 30
0
 11
755.6453197539013
 21
567.3564935948247
 31
0
  0
LINE
  8
1
 62
3
 10
739.4101196952979
 20
554.0837663221666
 30
0
 11
740.4940937544088
 21
558.5080087463487
 31
0
  0
LINE
  8
1
 62
3
 10
737.3160426176219
 20
554.0837663221666
 30
0
 11
739.4101196952979
 21
554.0837663221666
 31
0
  0
LINE
  8
1
 62
3
 10
750.8282234693179
 20
557.9518809272865
 30
0
 11
749.8805050832052
 21
554.0837663221666
 31
0
  0
LINE
  8
1
 62
3
 10
742.1200548431843
 20
565.1443723827736
 30
0
 11
741.0360807840007
 21
560.7201299585377
 31
0
  0
LINE
  8
1
 62
3
 10
750.496363153703
 20
565.1443723827736
 30
0
 11
742.1200548431843
 21
565.1443723827736
 31
0
  0
LINE
  8
1
 62
3
 10
749.4123890943811
 20
560.7201299585377
 30
0
 11
750.496363153703
 21
565.1443723827736
 31
0
  0
LINE
  8
1
 62
3
 10
741.0360807840007
 20
560.7201299585377
 30
0
 11
749.4123890943811
 21
560.7201299585377
 31
0
  0
LINE
  8
1
 62
3
 10
748.8704020649384
 20
558.5080087463487
 30
0
 11
740.4940937544088
 21
558.5080087463487
 31
0
  0
LINE
  8
1
 62
3
 10
747.7864280055655
 20
554.0837663221666
 30
0
 11
748.8704020649384
 21
558.5080087463487
 31
0
  0
LINE
  8
1
 62
3
 10
749.8805050832052
 20
554.0837663221666
 30
0
 11
747.7864280055655
 21
554.0837663221666
 31
0
  0
LINE
  8
1
 62
3
 10
753.132427260738
 20
567.3564935948247
 30
0
 11
751.2649031508845
 21
559.7341899748365
 31
0
  0
LINE
  8
1
 62
3
 10
740.5679647951583
 20
567.3564935948247
 30
0
 11
753.132427260738
 21
567.3564935948247
 31
0
  0
LINE
  8
1
 62
3
 10
740.5679647951583
 20
567.3564935948247
 30
0
 11
737.3160426176219
 21
554.0837663221666
 31
0
  0
LINE
  8
1
 62
3
 10
724.8747517661323
 20
556.2958875342977
 30
0
 11
727.0426998844741
 21
565.1443723827736
 31
0
  0
LINE
  8
1
 62
3
 10
727.0426998844741
 20
565.1443723827736
 30
0
 11
735.4190081949637
 21
565.1443723827736
 31
0
  0
LINE
  8
1
 62
3
 10
735.4190081949637
 20
565.1443723827736
 30
0
 11
733.2510600764872
 21
556.2958875342977
 31
0
  0
LINE
  8
1
 62
3
 10
733.2510600764872
 20
556.2958875342977
 30
0
 11
724.8747517661323
 21
556.2958875342977
 31
0
  0
LINE
  8
1
 62
3
 10
734.8031501244914
 20
554.0837663221666
 30
0
 11
722.2386876589662
 21
554.0837663221666
 31
0
  0
LINE
  8
1
 62
3
 10
738.0550723021661
 20
567.3564935948247
 30
0
 11
734.8031501244914
 21
554.0837663221666
 31
0
  0
LINE
  8
1
 62
3
 10
725.4906098364481
 20
567.3564935948247
 30
0
 11
738.0550723021661
 21
567.3564935948247
 31
0
  0
LINE
  8
1
 62
3
 10
722.2386876589662
 20
554.0837663221666
 30
0
 11
725.4906098364481
 21
567.3564935948247
 31
0
  0
LINE
  8
1
 62
3
 10
865.8295031522068
 20
510.9719851165046
 30
0
 11
813.238701733397
 21
510.9719851165046
 31
0
  0
LINE
  8
1
 62
3
 10
863.428830785688
 20
517.1659245104145
 30
0
 11
820.6196812335149
 21
517.1659245104145
 31
0
  0
LINE
  8
1
 62
3
 10
863.428830785688
 20
517.1659245104145
 30
0
 11
865.8295031522068
 21
510.9719851165046
 31
0
  0
LINE
  8
1
 62
3
 10
856.186830708906
 20
535.8509021833286
 30
0
 11
853.4069775849489
 21
543.0231602615836
 31
0
  0
LINE
  8
1
 62
3
 10
861.784056889192
 20
543.0231602615836
 30
0
 11
856.186830708906
 21
535.8509021833286
 31
0
  0
LINE
  8
1
 62
3
 10
865.82950315225
 20
543.0231602615836
 30
0
 11
861.784056889192
 21
543.0231602615836
 31
0
  0
LINE
  8
1
 62
3
 10
857.5292731071679
 20
532.3872863351076
 30
0
 11
865.82950315225
 21
543.0231602615836
 31
0
  0
LINE
  8
1
 62
3
 10
862.3999712001719
 20
519.8204699649816
 30
0
 11
857.5292731071679
 21
532.3872863351076
 31
0
  0
LINE
  8
1
 62
3
 10
858.3545249371239
 20
519.8204699649816
 30
0
 11
862.3999712001719
 21
519.8204699649816
 31
0
  0
LINE
  8
1
 62
3
 10
854.8262692424398
 20
528.9236704870066
 30
0
 11
858.3545249371239
 21
519.8204699649816
 31
0
  0
LINE
  8
1
 62
3
 10
847.722136662338
 20
519.8204699649816
 30
0
 11
854.8262692424398
 21
528.9236704870066
 31
0
  0
LINE
  8
1
 62
3
 10
843.6766903993409
 20
519.8204699649816
 30
0
 11
847.722136662338
 21
519.8204699649816
 31
0
  0
LINE
  8
1
 62
3
 10
853.4838268441308
 20
532.3872863351655
 30
0
 11
843.6766903993409
 21
519.8204699649816
 31
0
  0
LINE
  8
1
 62
3
 10
849.3615313219339
 20
543.0231602615836
 30
0
 11
853.4838268441308
 21
532.3872863351655
 31
0
  0
LINE
  8
1
 62
3
 10
853.4069775849489
 20
543.0231602615836
 30
0
 11
849.3615313219339
 21
543.0231602615836
 31
0
  0
LINE
  8
1
 62
3
 10
836.378253440889
 20
543.0231602615836
 30
0
 11
831.143060746967
 21
543.0231602615836
 31
0
  0
LINE
  8
1
 62
3
 10
831.777386577538
 20
524.2447123893016
 30
0
 11
836.378253440889
 21
543.0231602615836
 31
0
  0
LINE
  8
1
 62
3
 10
837.0125792714898
 20
524.2447123893016
 30
0
 11
831.777386577538
 21
524.2447123893016
 31
0
  0
LINE
  8
1
 62
3
 10
841.613446134885
 20
543.0231602615836
 30
0
 11
837.0125792714898
 21
524.2447123893016
 31
0
  0
LINE
  8
1
 62
3
 10
846.8486388288079
 20
543.0231602615836
 30
0
 11
841.613446134885
 21
543.0231602615836
 31
0
  0
LINE
  8
1
 62
3
 10
841.1637979062
 20
519.8204699649816
 30
0
 11
846.8486388288079
 21
543.0231602615836
 31
0
  0
LINE
  8
1
 62
3
 10
825.458219824279
 20
519.8204699649816
 30
0
 11
841.1637979062
 21
519.8204699649816
 31
0
  0
LINE
  8
1
 62
3
 10
831.143060746967
 20
543.0231602615836
 30
0
 11
825.458219824279
 21
519.8204699649816
 31
0
  0
LINE
  8
1
 62
3
 10
823.801425922338
 20
554.0837663221666
 30
0
 11
813.238701733397
 21
510.9719851165046
 31
0
  0
LINE
  8
1
 62
3
 10
829.6648417396059
 20
554.0837663221666
 30
0
 11
823.801425922338
 21
554.0837663221666
 31
0
  0
LINE
  8
1
 62
3
 10
820.6196812335149
 20
517.1659245104145
 30
0
 11
829.6648417396059
 21
554.0837663221666
 31
0
  0
LINE
  8
1
 62
3
 10
685.5
 20
510.9719851165046
 30
0
 11
693.3527890410551
 21
543.0231602615836
 31
0
  0
LINE
  8
1
 62
3
 10
693.3527890410551
 20
543.0231602615836
 30
0
 11
699.6350202737523
 21
543.0231602615836
 31
0
  0
LINE
  8
1
 62
3
 10
699.6350202737523
 20
543.0231602615836
 30
0
 11
692.8662052920627
 21
515.3962275406866
 31
0
  0
LINE
  8
1
 62
3
 10
692.8662052920627
 20
515.3962275406866
 30
0
 11
698.1013979859416
 21
515.3962275406866
 31
0
  0
LINE
  8
1
 62
3
 10
698.1013979859416
 20
515.3962275406866
 30
0
 11
706.2251805418237
 21
548.5534632919096
 31
0
  0
LINE
  8
1
 62
3
 10
706.2251805418237
 20
548.5534632919096
 30
0
 11
688.5340846972904
 21
548.5534632919096
 31
0
  0
LINE
  8
1
 62
3
 10
688.5340846972904
 20
548.5534632919096
 30
0
 11
689.8890522712754
 21
554.0837663221666
 31
0
  0
LINE
  8
1
 62
3
 10
689.8890522712754
 20
554.0837663221666
 30
0
 11
713.8623793485675
 21
554.0837663221666
 31
0
  0
LINE
  8
1
 62
3
 10
713.8623793485675
 20
554.0837663221666
 30
0
 11
703.299655159648
 21
510.9719851165046
 31
0
  0
LINE
  8
1
 62
3
 10
703.299655159648
 20
510.9719851165046
 30
0
 11
685.5
 21
510.9719851165046
 31
0
  0
LINE
  8
1
 62
3
 10
707.4878093147745
 20
510.9719851165046
 30
0
 11
715.3405983557677
 21
543.0231602615836
 31
0
  0
LINE
  8
1
 62
3
 10
715.3405983557677
 20
543.0231602615836
 30
0
 11
721.6228295885776
 21
543.0231602615836
 31
0
  0
LINE
  8
1
 62
3
 10
721.6228295885776
 20
543.0231602615836
 30
0
 11
714.8540146067826
 21
515.3962275406866
 31
0
  0
LINE
  8
1
 62
3
 10
714.8540146067826
 20
515.3962275406866
 30
0
 11
720.0892073007672
 21
515.3962275406866
 31
0
  0
LINE
  8
1
 62
3
 10
720.0892073007672
 20
515.3962275406866
 30
0
 11
726.8580222825731
 21
543.0231602615836
 31
0
  0
LINE
  8
1
 62
3
 10
725.2874644743642
 20
510.9719851165046
 30
0
 11
707.4878093147745
 21
510.9719851165046
 31
0
  0
LINE
  8
1
 62
3
 10
726.8580222825731
 20
543.0231602615836
 30
0
 11
733.1402535153793
 21
543.0231602615836
 31
0
  0
LINE
  8
1
 62
3
 10
733.1402535153793
 20
543.0231602615836
 30
0
 11
725.2874644743642
 21
510.9719851165046
 31
0
  0
LINE
  8
1
 62
3
 10
754.081024291314
 20
543.0231602615836
 30
0
 11
737.3284076705422
 21
543.0231602615836
 31
0
  0
LINE
  8
1
 62
3
 10
737.3284076705422
 20
543.0231602615836
 30
0
 11
732.7275408071509
 21
524.2447123893016
 31
0
  0
LINE
  8
1
 62
3
 10
732.7275408071509
 20
524.2447123893016
 30
0
 11
743.1979261951165
 21
524.2447123893016
 31
0
  0
LINE
  8
1
 62
3
 10
743.1979261951165
 20
524.2447123893016
 30
0
 11
741.0299780766982
 21
515.3962275406866
 31
0
  0
LINE
  8
1
 62
3
 10
741.0299780766982
 20
515.3962275406866
 30
0
 11
730.5595926887872
 21
515.3962275406866
 31
0
  0
LINE
  8
1
 62
3
 10
730.5595926887872
 20
515.3962275406866
 30
0
 11
729.4756186294799
 21
510.9719851165046
 31
0
  0
LINE
  8
1
 62
3
 10
729.4756186294799
 20
510.9719851165046
 30
0
 11
746.2282352503025
 21
510.9719851165046
 31
0
  0
LINE
  8
1
 62
3
 10
746.2282352503025
 20
510.9719851165046
 30
0
 11
750.5641314872264
 21
528.6689548134576
 31
0
  0
LINE
  8
1
 62
3
 10
750.5641314872264
 20
528.6689548134576
 30
0
 11
740.0937460991627
 21
528.6689548134576
 31
0
  0
LINE
  8
1
 62
3
 10
740.0937460991627
 20
528.6689548134576
 30
0
 11
742.5266648441757
 21
538.5989178373436
 31
0
  0
LINE
  8
1
 62
3
 10
742.5266648441757
 20
538.5989178373436
 30
0
 11
752.9970502321557
 21
538.5989178373436
 31
0
  0
LINE
  8
1
 62
3
 10
752.9970502321557
 20
538.5989178373436
 30
0
 11
754.081024291314
 21
543.0231602615836
 31
0
  0
LINE
  8
1
 62
3
 10
772.3118599193219
 20
531.9625542009176
 30
0
 11
775.0217950672518
 21
543.0231602615836
 31
0
  0
LINE
  8
1
 62
3
 10
775.0217950672518
 20
543.0231602615836
 30
0
 11
758.2691784465314
 21
543.0231602615836
 31
0
  0
LINE
  8
1
 62
3
 10
758.2691784465314
 20
543.0231602615836
 30
0
 11
750.4163894055382
 21
510.9719851165046
 31
0
  0
LINE
  8
1
 62
3
 10
750.4163894055382
 20
510.9719851165046
 30
0
 11
767.169006026292
 21
510.9719851165046
 31
0
  0
LINE
  8
1
 62
3
 10
767.169006026292
 20
510.9719851165046
 30
0
 11
769.878941174266
 21
522.0325911771128
 31
0
  0
LINE
  8
1
 62
3
 10
769.878941174266
 20
522.0325911771128
 30
0
 11
763.5967099414779
 21
522.0325911771128
 31
0
  0
LINE
  8
1
 62
3
 10
763.5967099414779
 20
522.0325911771128
 30
0
 11
761.970748852691
 21
515.3962275406866
 31
0
  0
LINE
  8
1
 62
3
 10
761.970748852691
 20
515.3962275406866
 30
0
 11
757.7825946974881
 21
515.3962275406866
 31
0
  0
LINE
  8
1
 62
3
 10
757.7825946974881
 20
515.3962275406866
 30
0
 11
763.4674356201178
 21
538.5989178373436
 31
0
  0
LINE
  8
1
 62
3
 10
763.4674356201178
 20
538.5989178373436
 30
0
 11
767.6555897753099
 21
538.5989178373436
 31
0
  0
LINE
  8
1
 62
3
 10
767.6555897753099
 20
538.5989178373436
 30
0
 11
766.0296286865159
 21
531.9625542009176
 31
0
  0
LINE
  8
1
 62
3
 10
766.0296286865159
 20
531.9625542009176
 30
0
 11
772.3118599193219
 21
531.9625542009176
 31
0
  0
LINE
  8
1
 62
3
 10
771.3571601814729
 20
510.9719851165046
 30
0
 11
777.6393914142609
 21
510.9719851165046
 31
0
  0
LINE
  8
1
 62
3
 10
788.109776802336
 20
510.9719851165046
 30
0
 11
795.9625658433508
 21
543.0231602615836
 31
0
  0
LINE
  8
1
 62
3
 10
781.8275455694388
 20
510.9719851165046
 30
0
 11
785.2119530603338
 21
524.7854514768455
 31
0
  0
LINE
  8
1
 62
3
 10
777.6393914142609
 20
510.9719851165046
 30
0
 11
781.0237989051459
 21
524.7854514768455
 31
0
  0
LINE
  8
1
 62
3
 10
779.2099492224659
 20
543.0231602615836
 30
0
 11
771.3571601814729
 21
510.9719851165046
 31
0
  0
LINE
  8
1
 62
3
 10
795.9625658433508
 20
543.0231602615836
 30
0
 11
789.6803346104348
 21
543.0231602615836
 31
0
  0
LINE
  8
1
 62
3
 10
792.2979309574619
 20
510.9719851165046
 30
0
 11
809.05054757827
 21
510.9719851165046
 31
0
  0
LINE
  8
1
 62
3
 10
803.8522904045678
 20
515.3962275406866
 30
0
 11
799.664136249467
 21
515.3962275406866
 31
0
  0
LINE
  8
1
 62
3
 10
800.150719998459
 20
543.0231602615836
 30
0
 11
792.2979309574619
 21
510.9719851165046
 31
0
  0
LINE
  8
1
 62
3
 10
799.664136249467
 20
515.3962275406866
 30
0
 11
805.3489771720419
 21
538.5989178373436
 31
0
  0
LINE
  8
1
 62
3
 10
816.9033366192889
 20
543.0231602615836
 30
0
 11
800.150719998459
 21
543.0231602615836
 31
0
  0
LINE
  8
1
 62
3
 10
805.3489771720419
 20
538.5989178373436
 30
0
 11
809.537131327292
 21
538.5989178373436
 31
0
  0
LINE
  8
1
 62
3
 10
809.537131327292
 20
538.5989178373436
 30
0
 11
803.8522904045678
 21
515.3962275406866
 31
0
  0
LINE
  8
1
 62
3
 10
816.9033366192889
 20
543.0231602615836
 30
0
 11
809.05054757827
 21
510.9719851165046
 31
0
  0
LINE
  8
1
 62
3
 10
785.492180455331
 20
543.0231602615836
 30
0
 11
779.2099492224659
 21
543.0231602615836
 31
0
  0
LINE
  8
1
 62
3
 10
781.8275455694388
 20
510.9719851165046
 30
0
 11
788.109776802336
 21
510.9719851165046
 31
0
  0
LINE
  8
1
 62
3
 10
781.0237989051459
 20
524.7854514768455
 30
0
 11
785.2119530603338
 21
524.7854514768455
 31
0
  0
LINE
  8
1
 62
3
 10
782.1077729643148
 20
529.2096939010318
 30
0
 11
786.2959271195539
 21
529.2096939010318
 31
0
  0
LINE
  8
1
 62
3
 10
782.1077729643148
 20
529.2096939010318
 30
0
 11
785.492180455331
 21
543.0231602615836
 31
0
  0
LINE
  8
1
 62
3
 10
786.2959271195539
 20
529.2096939010318
 30
0
 11
789.6803346104348
 21
543.0231602615836
 31
0
  0
LINE
  8
1
 62
3
 10
751.2649031508845
 20
559.7341899748365
 30
0
 11
750.5328203819372
 21
558.9504329888677
 31
0
  0
LINE
  8
1
 62
3
 10
750.8282234693179
 20
557.9518809272865
 30
0
 11
750.5328203819372
 21
558.9504329888677
 31
0
  0
ARC
  8
1
 62
3
 10
859.014586791596
 20
560.3342187987305
 30
0
 40
1.39187009132817
 50
358.7013873342734
 51
66.54486649404552
  0
ARC
  8
1
 62
3
 10
858.289193605106
 20
560.0250245063266
 30
0
 40
1.155889798231655
 50
0.9850581704851609
 51
82.91825463293205
  0
ARC
  8
1
 62
3
 10
858.3643762433019
 20
563.2360110470556
 30
0
 40
1.257687287767243
 50
285.1995809529428
 51
80.9313952387881
  0
ARC
  8
1
 62
3
 10
858.4426940693159
 20
563.2759050378857
 30
0
 40
2.00979800886174
 50
304.0700115354277
 51
86.29788871825882
  0
CIRCLE
  8
1
 62
3
 10
858.2358752379369
 20
561.8507729952596
 30
0
 40
5.530127989695984
  0
CIRCLE
  8
1
 62
3
 10
858.2358752379369
 20
561.8507729952596
 30
0
 40
5.972862778753957
  0
ENDBLK
  8
0
  0
BLOCK
  8
0
  2
WANNE_MALAGA_441
 70
0
 10
-0.3073580000001357
 20
-24.14213499999983
 30
0
  0
POLYLINE
  8
0
 62
7
 66
1
  0
VERTEX
  8
0
 10
374.5143639999999
 20
372.5689550000002
 30
0
  0
VERTEX
  8
0
 10
375.6933639999999
 20
371.2999550000002
 30
0
  0
VERTEX
  8
0
 10
376.8723639999998
 20
370.0309550000004
 30
0
  0
VERTEX
  8
0
 10
378.0523639999999
 20
368.7629550000004
 30
0
  0
VERTEX
  8
0
 10
379.2323639999999
 20
367.4959550000003
 30
0
  0
VERTEX
  8
0
 10
380.4133639999999
 20
366.2299550000003
 30
0
  0
VERTEX
  8
0
 10
381.5953639999999
 20
364.9649550000004
 30
0
  0
VERTEX
  8
0
 10
382.7793639999999
 20
363.7009550000003
 30
0
  0
VERTEX
  8
0
 10
383.9643639999998
 20
362.4399550000003
 30
0
  0
VERTEX
  8
0
 10
385.1523639999999
 20
361.1809550000003
 30
0
  0
VERTEX
  8
0
 10
386.3413639999999
 20
359.9239550000002
 30
0
  0
VERTEX
  8
0
 10
387.5323639999999
 20
358.6689550000003
 30
0
  0
VERTEX
  8
0
 10
388.7263639999999
 20
357.4179550000004
 30
0
  0
VERTEX
  8
0
 10
389.9233639999999
 20
356.1699550000003
 30
0
  0
VERTEX
  8
0
 10
391.1233639999998
 20
354.9249550000002
 30
0
  0
VERTEX
  8
0
 10
392.3263639999999
 20
353.6839550000002
 30
0
  0
VERTEX
  8
0
 10
393.5333639999999
 20
352.4469550000003
 30
0
  0
VERTEX
  8
0
 10
394.7433639999998
 20
351.2149550000004
 30
0
  0
VERTEX
  8
0
 10
395.9583639999999
 20
349.9869550000003
 30
0
  0
VERTEX
  8
0
 10
397.1763639999999
 20
348.7639550000004
 30
0
  0
VERTEX
  8
0
 10
398.3993639999999
 20
347.5449550000003
 30
0
  0
VERTEX
  8
0
 10
399.6263639999999
 20
346.3319550000003
 30
0
  0
VERTEX
  8
0
 10
400.8583639999998
 20
345.1249550000002
 30
0
  0
VERTEX
  8
0
 10
402.0963639999999
 20
343.9239550000002
 30
0
  0
VERTEX
  8
0
 10
403.3383639999998
 20
342.7289550000003
 30
0
  0
VERTEX
  8
0
 10
404.5873639999999
 20
341.5399550000002
 30
0
  0
VERTEX
  8
0
 10
405.8413639999999
 20
340.3579550000004
 30
0
  0
VERTEX
  8
0
 10
407.1013639999999
 20
339.1819550000002
 30
0
  0
VERTEX
  8
0
 10
408.3673639999998
 20
338.0139550000004
 30
0
  0
VERTEX
  8
0
 10
409.6403639999999
 20
336.8539550000003
 30
0
  0
VERTEX
  8
0
 10
410.9193639999999
 20
335.7009550000003
 30
0
  0
VERTEX
  8
0
 10
412.2053639999999
 20
334.5559550000003
 30
0
  0
VERTEX
  8
0
 10
413.4993639999999
 20
333.4199550000003
 30
0
  0
VERTEX
  8
0
 10
414.8003639999998
 20
332.2919550000004
 30
0
  0
VERTEX
  8
0
 10
416.1093639999999
 20
331.1729550000002
 30
0
  0
VERTEX
  8
0
 10
417.4253639999998
 20
330.0629550000003
 30
0
  0
VERTEX
  8
0
 10
418.7493639999999
 20
328.9619550000002
 30
0
  0
VERTEX
  8
0
 10
420.0823639999999
 20
327.8709550000003
 30
0
  0
VERTEX
  8
0
 10
421.4233639999999
 20
326.7889550000002
 30
0
  0
VERTEX
  8
0
 10
422.7713639999998
 20
325.7169550000003
 30
0
  0
VERTEX
  8
0
 10
424.1283639999999
 20
324.6529550000003
 30
0
  0
VERTEX
  8
0
 10
425.4923639999998
 20
323.5989550000004
 30
0
  0
VERTEX
  8
0
 10
426.8633639999998
 20
322.5539550000003
 30
0
  0
VERTEX
  8
0
 10
428.2423639999998
 20
321.5169550000003
 30
0
  0
VERTEX
  8
0
 10
429.6283639999999
 20
320.4899550000002
 30
0
  0
VERTEX
  8
0
 10
431.0203639999999
 20
319.4709550000002
 30
0
  0
VERTEX
  8
0
 10
432.4203639999998
 20
318.4609550000002
 30
0
  0
VERTEX
  8
0
 10
433.8263639999999
 20
317.4599550000003
 30
0
  0
VERTEX
  8
0
 10
435.2393639999999
 20
316.4669550000003
 30
0
  0
VERTEX
  8
0
 10
436.6593639999999
 20
315.4819550000003
 30
0
  0
VERTEX
  8
0
 10
438.0843639999998
 20
314.5059550000003
 30
0
  0
VERTEX
  8
0
 10
439.5163639999998
 20
313.5379550000002
 30
0
  0
VERTEX
  8
0
 10
440.9543639999998
 20
312.5779550000003
 30
0
  0
VERTEX
  8
0
 10
442.3973639999998
 20
311.6259550000003
 30
0
  0
VERTEX
  8
0
 10
443.8463639999999
 20
310.6819550000002
 30
0
  0
VERTEX
  8
0
 10
445.3013639999999
 20
309.7459550000003
 30
0
  0
VERTEX
  8
0
 10
446.7613639999998
 20
308.8169550000002
 30
0
  0
VERTEX
  8
0
 10
448.2263639999999
 20
307.8969550000003
 30
0
  0
VERTEX
  8
0
 10
449.6963639999999
 20
306.9829550000003
 30
0
  0
VERTEX
  8
0
 10
451.1713639999998
 20
306.0779550000003
 30
0
  0
VERTEX
  8
0
 10
452.6513639999998
 20
305.1789550000003
 30
0
  0
VERTEX
  8
0
 10
454.1363639999998
 20
304.2879550000002
 30
0
  0
VERTEX
  8
0
 10
455.6253639999999
 20
303.4039550000002
 30
0
  0
VERTEX
  8
0
 10
457.1183639999998
 20
302.5279550000003
 30
0
  0
VERTEX
  8
0
 10
458.6163639999999
 20
301.6579550000004
 30
0
  0
VERTEX
  8
0
 10
460.1183639999998
 20
300.7949550000003
 30
0
  0
VERTEX
  8
0
 10
461.6233639999998
 20
299.9389550000003
 30
0
  0
VERTEX
  8
0
 10
463.1323639999998
 20
299.0899550000004
 30
0
  0
VERTEX
  8
0
 10
464.6453639999999
 20
298.2469550000003
 30
0
  0
VERTEX
  8
0
 10
466.1613639999998
 20
297.4109550000003
 30
0
  0
VERTEX
  8
0
 10
467.6813639999999
 20
296.5819550000003
 30
0
  0
VERTEX
  8
0
 10
469.2043639999998
 20
295.7589550000002
 30
0
  0
VERTEX
  8
0
 10
470.7293639999999
 20
294.9419550000002
 30
0
  0
VERTEX
  8
0
 10
472.2583639999999
 20
294.1309550000003
 30
0
  0
VERTEX
  8
0
 10
473.7893639999999
 20
293.3269550000002
 30
0
  0
VERTEX
  8
0
 10
475.3243639999998
 20
292.5279550000003
 30
0
  0
VERTEX
  8
0
 10
476.8613639999999
 20
291.7359550000003
 30
0
  0
VERTEX
  8
0
 10
478.4013639999998
 20
290.9499550000003
 30
0
  0
VERTEX
  8
0
 10
479.9443639999998
 20
290.1709550000003
 30
0
  0
VERTEX
  8
0
 10
481.4893639999999
 20
289.3969550000003
 30
0
  0
VERTEX
  8
0
 10
483.0373639999999
 20
288.6289550000004
 30
0
  0
VERTEX
  8
0
 10
484.5893639999998
 20
287.8679550000003
 30
0
  0
VERTEX
  8
0
 10
486.142364
 20
287.1119550000003
 30
0
  0
VERTEX
  8
0
 10
487.699364
 20
286.3629550000003
 30
0
  0
VERTEX
  8
0
 10
489.258364
 20
285.6199550000004
 30
0
  0
VERTEX
  8
0
 10
490.819364
 20
284.8819550000003
 30
0
  0
VERTEX
  8
0
 10
492.384364
 20
284.1509550000003
 30
0
  0
VERTEX
  8
0
 10
493.951364
 20
283.4249550000003
 30
0
  0
VERTEX
  8
0
 10
495.520364
 20
282.7059550000004
 30
0
  0
VERTEX
  8
0
 10
497.092364
 20
281.9919550000003
 30
0
  0
VERTEX
  8
0
 10
498.666364
 20
281.2839550000003
 30
0
  0
VERTEX
  8
0
 10
500.243364
 20
280.5819550000003
 30
0
  0
VERTEX
  8
0
 10
501.823364
 20
279.8859550000003
 30
0
  0
VERTEX
  8
0
 10
503.405364
 20
279.1959550000004
 30
0
  0
VERTEX
  8
0
 10
504.989364
 20
278.5119550000003
 30
0
  0
VERTEX
  8
0
 10
506.576364
 20
277.8329550000003
 30
0
  0
VERTEX
  8
0
 10
508.165364
 20
277.1599550000003
 30
0
  0
VERTEX
  8
0
 10
509.7563640000001
 20
276.4929550000003
 30
0
  0
VERTEX
  8
0
 10
511.3503639999999
 20
275.8319550000003
 30
0
  0
VERTEX
  8
0
 10
512.9463639999999
 20
275.1759550000003
 30
0
  0
VERTEX
  8
0
 10
514.5443640000001
 20
274.5259550000003
 30
0
  0
VERTEX
  8
0
 10
516.145364
 20
273.8819550000003
 30
0
  0
VERTEX
  8
0
 10
517.748364
 20
273.2429550000003
 30
0
  0
VERTEX
  8
0
 10
519.3533640000001
 20
272.6099550000004
 30
0
  0
VERTEX
  8
0
 10
520.960364
 20
271.9819550000003
 30
0
  0
VERTEX
  8
0
 10
522.569364
 20
271.3609550000003
 30
0
  0
VERTEX
  8
0
 10
524.181364
 20
270.7439550000004
 30
0
  0
VERTEX
  8
0
 10
525.7943640000001
 20
270.1329550000003
 30
0
  0
VERTEX
  8
0
 10
527.4103640000001
 20
269.5279550000003
 30
0
  0
VERTEX
  8
0
 10
529.028364
 20
268.9289550000003
 30
0
  0
VERTEX
  8
0
 10
530.6483639999999
 20
268.3339550000003
 30
0
  0
VERTEX
  8
0
 10
532.270364
 20
267.7449550000004
 30
0
  0
VERTEX
  8
0
 10
533.893364
 20
267.1619550000003
 30
0
  0
VERTEX
  8
0
 10
535.519364
 20
266.5829550000003
 30
0
  0
VERTEX
  8
0
 10
537.1473639999999
 20
266.0099550000002
 30
0
  0
VERTEX
  8
0
 10
538.7763640000001
 20
265.4419550000002
 30
0
  0
VERTEX
  8
0
 10
540.4073639999999
 20
264.8789550000004
 30
0
  0
VERTEX
  8
0
 10
542.0413639999999
 20
264.3209550000004
 30
0
  0
VERTEX
  8
0
 10
543.675364
 20
263.7679550000003
 30
0
  0
VERTEX
  8
0
 10
545.3123639999999
 20
263.2199550000003
 30
0
  0
VERTEX
  8
0
 10
546.950364
 20
262.6769550000004
 30
0
  0
VERTEX
  8
0
 10
548.5903639999999
 20
262.1389550000004
 30
0
  0
VERTEX
  8
0
 10
550.231364
 20
261.6049550000003
 30
0
  0
VERTEX
  8
0
 10
551.875364
 20
261.0759550000003
 30
0
  0
VERTEX
  8
0
 10
553.519364
 20
260.5509550000003
 30
0
  0
VERTEX
  8
0
 10
555.165364
 20
260.0309550000003
 30
0
  0
VERTEX
  8
0
 10
556.8133640000001
 20
259.5159550000003
 30
0
  0
VERTEX
  8
0
 10
558.462364
 20
259.0049550000003
 30
0
  0
VERTEX
  8
0
 10
560.1123640000001
 20
258.4979550000003
 30
0
  0
VERTEX
  8
0
 10
561.7643639999999
 20
257.9959550000003
 30
0
  0
VERTEX
  8
0
 10
563.4173639999999
 20
257.4969550000003
 30
0
  0
VERTEX
  8
0
 10
565.0723640000001
 20
257.0029550000003
 30
0
  0
VERTEX
  8
0
 10
566.7273640000001
 20
256.5139550000004
 30
0
  0
VERTEX
  8
0
 10
568.384364
 20
256.0279550000003
 30
0
  0
VERTEX
  8
0
 10
570.0433640000001
 20
255.5459550000003
 30
0
  0
VERTEX
  8
0
 10
571.702364
 20
255.0679550000002
 30
0
  0
VERTEX
  8
0
 10
573.3623640000001
 20
254.5939550000003
 30
0
  0
VERTEX
  8
0
 10
575.0243640000001
 20
254.1239550000003
 30
0
  0
VERTEX
  8
0
 10
576.6863639999999
 20
253.6579550000004
 30
0
  0
VERTEX
  8
0
 10
578.3503639999999
 20
253.1949550000003
 30
0
  0
VERTEX
  8
0
 10
580.011364
 20
252.7359550000003
 30
0
  0
VERTEX
  8
0
 10
581.681364
 20
252.2799550000003
 30
0
  0
VERTEX
  8
0
 10
583.3513640000001
 20
251.8289550000003
 30
0
  0
VERTEX
  8
0
 10
585.011364
 20
251.3799550000003
 30
0
  0
VERTEX
  8
0
 10
586.681364
 20
250.9349550000003
 30
0
  0
VERTEX
  8
0
 10
588.3513640000001
 20
250.4929550000003
 30
0
  0
VERTEX
  8
0
 10
590.021364
 20
250.0549550000003
 30
0
  0
VERTEX
  8
0
 10
591.691364
 20
249.6199550000004
 30
0
  0
VERTEX
  8
0
 10
593.3613640000001
 20
249.1879550000003
 30
0
  0
VERTEX
  8
0
 10
595.0313639999999
 20
248.7599550000002
 30
0
  0
VERTEX
  8
0
 10
596.711364
 20
248.3339550000003
 30
0
  0
VERTEX
  8
0
 10
598.3813640000001
 20
247.9129550000002
 30
0
  0
VERTEX
  8
0
 10
600.0613639999999
 20
247.4939550000004
 30
0
  0
VERTEX
  8
0
 10
601.731364
 20
247.0779550000003
 30
0
  0
VERTEX
  8
0
 10
603.4113640000001
 20
246.6659550000003
 30
0
  0
VERTEX
  8
0
 10
605.0813639999999
 20
246.2569550000003
 30
0
  0
VERTEX
  8
0
 10
606.761364
 20
245.8509550000003
 30
0
  0
VERTEX
  8
0
 10
608.441364
 20
245.4479550000003
 30
0
  0
VERTEX
  8
0
 10
610.1213640000001
 20
245.0479550000002
 30
0
  0
VERTEX
  8
0
 10
611.8013639999999
 20
244.6519550000003
 30
0
  0
VERTEX
  8
0
 10
613.481364
 20
244.2579550000003
 30
0
  0
VERTEX
  8
0
 10
615.1613640000001
 20
243.8679550000003
 30
0
  0
VERTEX
  8
0
 10
616.8413640000001
 20
243.4799550000003
 30
0
  0
VERTEX
  8
0
 10
618.521364
 20
243.0959550000002
 30
0
  0
VERTEX
  8
0
 10
620.211364
 20
242.7149550000004
 30
0
  0
VERTEX
  8
0
 10
621.8913640000001
 20
242.3369550000002
 30
0
  0
VERTEX
  8
0
 10
623.5713639999999
 20
241.9609550000002
 30
0
  0
VERTEX
  8
0
 10
625.261364
 20
241.5889550000003
 30
0
  0
VERTEX
  8
0
 10
626.941364
 20
241.2199550000003
 30
0
  0
VERTEX
  8
0
 10
628.6313640000001
 20
240.8529550000003
 30
0
  0
VERTEX
  8
0
 10
630.3213639999999
 20
240.4899550000002
 30
0
  0
VERTEX
  8
0
 10
632.011364
 20
240.1289550000004
 30
0
  0
VERTEX
  8
0
 10
633.691364
 20
239.7709550000003
 30
0
  0
VERTEX
  8
0
 10
635.3813640000001
 20
239.4159550000003
 30
0
  0
VERTEX
  8
0
 10
637.0713639999999
 20
239.0639550000003
 30
0
  0
VERTEX
  8
0
 10
638.761364
 20
238.7149550000004
 30
0
  0
VERTEX
  8
0
 10
640.451364
 20
238.3689550000004
 30
0
  0
VERTEX
  8
0
 10
642.1413640000001
 20
238.0249550000003
 30
0
  0
VERTEX
  8
0
 10
643.8313639999999
 20
237.6839550000003
 30
0
  0
VERTEX
  8
0
 10
645.5313639999999
 20
237.3459550000002
 30
0
  0
VERTEX
  8
0
 10
647.221364
 20
237.0109550000003
 30
0
  0
VERTEX
  8
0
 10
648.9113640000001
 20
236.6779550000003
 30
0
  0
VERTEX
  8
0
 10
650.6113640000001
 20
236.3479550000003
 30
0
  0
VERTEX
  8
0
 10
652.3013639999999
 20
236.0209550000003
 30
0
  0
VERTEX
  8
0
 10
654.001364
 20
235.6969550000003
 30
0
  0
VERTEX
  8
0
 10
655.691364
 20
235.3749550000002
 30
0
  0
VERTEX
  8
0
 10
657.3913640000001
 20
235.0549550000003
 30
0
  0
VERTEX
  8
0
 10
659.0813639999999
 20
234.7389550000003
 30
0
  0
VERTEX
  8
0
 10
660.7813639999999
 20
234.4239550000002
 30
0
  0
VERTEX
  8
0
 10
662.481364
 20
234.1129550000003
 30
0
  0
VERTEX
  8
0
 10
664.171364
 20
233.8039550000003
 30
0
  0
VERTEX
  8
0
 10
665.8713640000001
 20
233.4969550000003
 30
0
  0
VERTEX
  8
0
 10
667.5713639999999
 20
233.1929550000002
 30
0
  0
VERTEX
  8
0
 10
669.271364
 20
232.8909550000003
 30
0
  0
VERTEX
  8
0
 10
670.971364
 20
232.5919550000003
 30
0
  0
VERTEX
  8
0
 10
672.671364
 20
232.2949550000003
 30
0
  0
VERTEX
  8
0
 10
674.3713640000001
 20
231.9999550000002
 30
0
  0
VERTEX
  8
0
 10
676.0713639999999
 20
231.7079550000003
 30
0
  0
VERTEX
  8
0
 10
677.771364
 20
231.4179550000004
 30
0
  0
VERTEX
  8
0
 10
679.471364
 20
231.1299550000003
 30
0
  0
VERTEX
  8
0
 10
681.171364
 20
230.8449550000003
 30
0
  0
VERTEX
  8
0
 10
682.8813640000001
 20
230.5619550000004
 30
0
  0
VERTEX
  8
0
 10
684.5813639999999
 20
230.2809550000003
 30
0
  0
VERTEX
  8
0
 10
686.2813639999999
 20
230.0019550000003
 30
0
  0
VERTEX
  8
0
 10
687.991364
 20
229.7259550000003
 30
0
  0
VERTEX
  8
0
 10
689.691364
 20
229.4519550000002
 30
0
  0
VERTEX
  8
0
 10
691.3913640000001
 20
229.1789550000003
 30
0
  0
VERTEX
  8
0
 10
693.1013640000001
 20
228.9089550000003
 30
0
  0
VERTEX
  8
0
 10
694.8013639999999
 20
228.6409550000003
 30
0
  0
VERTEX
  8
0
 10
696.511364
 20
228.3749550000002
 30
0
  0
VERTEX
  8
0
 10
698.211364
 20
228.1109550000003
 30
0
  0
VERTEX
  8
0
 10
699.921364
 20
227.8499550000004
 30
0
  0
VERTEX
  8
0
 10
701.6313640000001
 20
227.5899550000004
 30
0
  0
VERTEX
  8
0
 10
703.3313639999999
 20
227.3319550000003
 30
0
  0
VERTEX
  8
0
 10
705.0413639999999
 20
227.0759550000003
 30
0
  0
VERTEX
  8
0
 10
706.751364
 20
226.8219550000003
 30
0
  0
VERTEX
  8
0
 10
708.451364
 20
226.5689550000003
 30
0
  0
VERTEX
  8
0
 10
710.1613640000001
 20
226.3189550000003
 30
0
  0
VERTEX
  8
0
 10
711.8713640000001
 20
226.0709550000004
 30
0
  0
VERTEX
  8
0
 10
713.5813639999999
 20
225.8239550000003
 30
0
  0
VERTEX
  8
0
 10
715.2913639999999
 20
225.5789550000003
 30
0
  0
VERTEX
  8
0
 10
717.001364
 20
225.3359550000002
 30
0
  0
VERTEX
  8
0
 10
718.701364
 20
225.0949550000003
 30
0
  0
VERTEX
  8
0
 10
720.4113640000001
 20
224.8559550000002
 30
0
  0
VERTEX
  8
0
 10
722.1213640000001
 20
224.6189550000004
 30
0
  0
VERTEX
  8
0
 10
723.8313639999999
 20
224.3839550000002
 30
0
  0
VERTEX
  8
0
 10
725.5413639999999
 20
224.1499550000003
 30
0
  0
VERTEX
  8
0
 10
727.251364
 20
223.9179550000004
 30
0
  0
VERTEX
  8
0
 10
728.961364
 20
223.6879550000003
 30
0
  0
VERTEX
  8
0
 10
730.671364
 20
223.4599550000003
 30
0
  0
VERTEX
  8
0
 10
732.3913640000001
 20
223.2339550000003
 30
0
  0
VERTEX
  8
0
 10
734.1013640000001
 20
223.0089550000002
 30
0
  0
VERTEX
  8
0
 10
735.8113639999999
 20
222.7869550000003
 30
0
  0
VERTEX
  8
0
 10
737.521364
 20
222.5659550000003
 30
0
  0
VERTEX
  8
0
 10
739.231364
 20
222.3469550000002
 30
0
  0
VERTEX
  8
0
 10
740.941364
 20
222.1299550000003
 30
0
  0
VERTEX
  8
0
 10
742.6613640000001
 20
221.9139550000002
 30
0
  0
VERTEX
  8
0
 10
744.3713640000001
 20
221.7009550000003
 30
0
  0
VERTEX
  8
0
 10
746.0813639999999
 20
221.4889550000003
 30
0
  0
VERTEX
  8
0
 10
747.8013639999999
 20
221.2789550000002
 30
0
  0
VERTEX
  8
0
 10
749.511364
 20
221.0709550000004
 30
0
  0
VERTEX
  8
0
 10
751.221364
 20
220.8639550000003
 30
0
  0
VERTEX
  8
0
 10
752.941364
 20
220.6589550000003
 30
0
  0
VERTEX
  8
0
 10
754.6513640000001
 20
220.4569550000003
 30
0
  0
VERTEX
  8
0
 10
756.3613640000001
 20
220.2549550000003
 30
0
  0
VERTEX
  8
0
 10
758.0813639999999
 20
220.0559550000003
 30
0
  0
VERTEX
  8
0
 10
759.7913639999999
 20
219.8579550000003
 30
0
  0
VERTEX
  8
0
 10
761.511364
 20
219.6629550000002
 30
0
  0
VERTEX
  8
0
 10
763.221364
 20
219.4679550000003
 30
0
  0
VERTEX
  8
0
 10
764.941364
 20
219.2759550000003
 30
0
  0
VERTEX
  8
0
 10
766.6513640000001
 20
219.0849550000003
 30
0
  0
VERTEX
  8
0
 10
768.3713640000001
 20
218.8969550000003
 30
0
  0
VERTEX
  8
0
 10
770.0813639999999
 20
218.7089550000003
 30
0
  0
VERTEX
  8
0
 10
771.8013639999999
 20
218.5239550000003
 30
0
  0
VERTEX
  8
0
 10
773.521364
 20
218.3399550000004
 30
0
  0
VERTEX
  8
0
 10
775.231364
 20
218.1579550000004
 30
0
  0
VERTEX
  8
0
 10
776.951364
 20
217.9779550000003
 30
0
  0
VERTEX
  8
0
 10
778.671364
 20
217.7999550000003
 30
0
  0
VERTEX
  8
0
 10
780.3813640000001
 20
217.6229550000003
 30
0
  0
VERTEX
  8
0
 10
782.1013640000001
 20
217.4479550000003
 30
0
  0
VERTEX
  8
0
 10
783.8213639999999
 20
217.2739550000003
 30
0
  0
VERTEX
  8
0
 10
785.5313639999999
 20
217.1019550000003
 30
0
  0
VERTEX
  8
0
 10
787.251364
 20
216.9319550000002
 30
0
  0
VERTEX
  8
0
 10
788.971364
 20
216.7639550000004
 30
0
  0
VERTEX
  8
0
 10
790.691364
 20
216.5969550000002
 30
0
  0
VERTEX
  8
0
 10
792.4113640000001
 20
216.4329550000002
 30
0
  0
VERTEX
  8
0
 10
794.1213640000001
 20
216.2689550000002
 30
0
  0
VERTEX
  8
0
 10
795.8413640000001
 20
216.1079550000003
 30
0
  0
VERTEX
  8
0
 10
797.5613639999999
 20
215.9479550000003
 30
0
  0
VERTEX
  8
0
 10
799.2813639999999
 20
215.7889550000002
 30
0
  0
VERTEX
  8
0
 10
801.001364
 20
215.6329550000003
 30
0
  0
VERTEX
  8
0
 10
802.721364
 20
215.4779550000003
 30
0
  0
VERTEX
  8
0
 10
804.441364
 20
215.3249550000003
 30
0
  0
VERTEX
  8
0
 10
806.1513640000001
 20
215.1729550000002
 30
0
  0
VERTEX
  8
0
 10
807.8713640000001
 20
215.0229550000004
 30
0
  0
VERTEX
  8
0
 10
809.5913640000001
 20
214.8749550000002
 30
0
  0
VERTEX
  8
0
 10
811.3113639999999
 20
214.7279550000003
 30
0
  0
VERTEX
  8
0
 10
813.0313639999999
 20
214.5829550000003
 30
0
  0
VERTEX
  8
0
 10
814.751364
 20
214.4389550000003
 30
0
  0
VERTEX
  8
0
 10
816.471364
 20
214.2979550000002
 30
0
  0
VERTEX
  8
0
 10
818.191364
 20
214.1569550000003
 30
0
  0
VERTEX
  8
0
 10
819.9113640000001
 20
214.0189550000002
 30
0
  0
VERTEX
  8
0
 10
821.6313640000001
 20
213.8819550000003
 30
0
  0
VERTEX
  8
0
 10
823.3513640000001
 20
213.7459550000003
 30
0
  0
VERTEX
  8
0
 10
825.0713639999999
 20
213.6129550000003
 30
0
  0
VERTEX
  8
0
 10
826.7913639999999
 20
213.4799550000003
 30
0
  0
VERTEX
  8
0
 10
828.511364
 20
213.3499550000004
 30
0
  0
VERTEX
  8
0
 10
830.231364
 20
213.2209550000002
 30
0
  0
VERTEX
  8
0
 10
831.961364
 20
213.0929550000003
 30
0
  0
VERTEX
  8
0
 10
833.681364
 20
212.9669550000003
 30
0
  0
VERTEX
  8
0
 10
835.4013640000001
 20
212.8429550000003
 30
0
  0
VERTEX
  8
0
 10
837.1213640000001
 20
212.7189550000003
 30
0
  0
VERTEX
  8
0
 10
838.8413640000001
 20
212.5979550000003
 30
0
  0
VERTEX
  8
0
 10
840.5613639999999
 20
212.4769550000003
 30
0
  0
VERTEX
  8
0
 10
842.2813639999999
 20
212.3579550000003
 30
0
  0
VERTEX
  8
0
 10
844.001364
 20
212.2409550000002
 30
0
  0
VERTEX
  8
0
 10
845.731364
 20
212.1249550000002
 30
0
  0
VERTEX
  8
0
 10
847.451364
 20
212.0099550000002
 30
0
  0
VERTEX
  8
0
 10
849.171364
 20
211.8959550000003
 30
0
  0
VERTEX
  8
0
 10
850.8913640000001
 20
211.7829550000004
 30
0
  0
VERTEX
  8
0
 10
852.6113640000001
 20
211.6719550000003
 30
0
  0
VERTEX
  8
0
 10
854.3313639999999
 20
211.5619550000004
 30
0
  0
VERTEX
  8
0
 10
856.0613639999999
 20
211.4529550000003
 30
0
  0
VERTEX
  8
0
 10
857.7813639999999
 20
211.3459550000002
 30
0
  0
VERTEX
  8
0
 10
859.501364
 20
211.2389550000003
 30
0
  0
VERTEX
  8
0
 10
861.221364
 20
211.1339550000002
 30
0
  0
VERTEX
  8
0
 10
862.951364
 20
211.0289550000002
 30
0
  0
VERTEX
  8
0
 10
864.671364
 20
210.9259550000003
 30
0
  0
VERTEX
  8
0
 10
866.3913640000001
 20
210.8239550000003
 30
0
  0
VERTEX
  8
0
 10
868.1113640000001
 20
210.7229550000003
 30
0
  0
VERTEX
  8
0
 10
869.8413640000001
 20
210.6229550000003
 30
0
  0
VERTEX
  8
0
 10
871.5613639999999
 20
210.5229550000004
 30
0
  0
VERTEX
  8
0
 10
873.2813639999999
 20
210.4249550000003
 30
0
  0
VERTEX
  8
0
 10
875.001364
 20
210.3279550000003
 30
0
  0
VERTEX
  8
0
 10
876.731364
 20
210.2309550000002
 30
0
  0
VERTEX
  8
0
 10
878.451364
 20
210.1359550000003
 30
0
  0
VERTEX
  8
0
 10
880.171364
 20
210.0409550000003
 30
0
  0
VERTEX
  8
0
 10
881.9013640000001
 20
209.9469550000003
 30
0
  0
VERTEX
  8
0
 10
883.6213640000001
 20
209.8539550000003
 30
0
  0
VERTEX
  8
0
 10
885.3413640000001
 20
209.7619550000003
 30
0
  0
VERTEX
  8
0
 10
887.0613639999999
 20
209.6699550000003
 30
0
  0
VERTEX
  8
0
 10
888.7913639999999
 20
209.5789550000003
 30
0
  0
VERTEX
  8
0
 10
890.511364
 20
209.4889550000003
 30
0
  0
VERTEX
  8
0
 10
892.231364
 20
209.3999550000003
 30
0
  0
VERTEX
  8
0
 10
893.961364
 20
209.3109550000003
 30
0
  0
VERTEX
  8
0
 10
895.681364
 20
209.2229550000003
 30
0
  0
VERTEX
  8
0
 10
897.4013640000001
 20
209.1359550000003
 30
0
  0
VERTEX
  8
0
 10
899.1313640000001
 20
209.0489550000002
 30
0
  0
VERTEX
  8
0
 10
900.8513640000001
 20
208.9619550000002
 30
0
  0
VERTEX
  8
0
 10
902.5713639999999
 20
208.8759550000003
 30
0
  0
VERTEX
  8
0
 10
904.3013639999999
 20
208.7909550000003
 30
0
  0
VERTEX
  8
0
 10
906.021364
 20
208.7059550000004
 30
0
  0
VERTEX
  8
0
 10
907.751364
 20
208.6219550000003
 30
0
  0
VERTEX
  8
0
 10
909.471364
 20
208.5379550000002
 30
0
  0
VERTEX
  8
0
 10
911.191364
 20
208.4549550000003
 30
0
  0
VERTEX
  8
0
 10
912.921364
 20
208.3719550000003
 30
0
  0
VERTEX
  8
0
 10
914.6413640000001
 20
208.2889550000002
 30
0
  0
VERTEX
  8
0
 10
916.3613640000001
 20
208.2069550000003
 30
0
  0
VERTEX
  8
0
 10
918.0913640000001
 20
208.1249550000002
 30
0
  0
VERTEX
  8
0
 10
919.8113639999999
 20
208.0429550000004
 30
0
  0
VERTEX
  8
0
 10
921.5413639999999
 20
207.9619550000002
 30
0
  0
VERTEX
  8
0
 10
923.261364
 20
207.8809550000003
 30
0
  0
VERTEX
  8
0
 10
924.981364
 20
207.7999550000003
 30
0
  0
VERTEX
  8
0
 10
926.711364
 20
207.7189550000003
 30
0
  0
VERTEX
  8
0
 10
928.431364
 20
207.6389550000004
 30
0
  0
VERTEX
  8
0
 10
930.1613640000001
 20
207.5589550000003
 30
0
  0
VERTEX
  8
0
 10
931.8813640000001
 20
207.4779550000003
 30
0
  0
VERTEX
  8
0
 10
933.6013640000001
 20
207.3979550000004
 30
0
  0
VERTEX
  8
0
 10
935.3313639999999
 20
207.3179550000002
 30
0
  0
VERTEX
  8
0
 10
937.0513639999999
 20
207.2389550000003
 30
0
  0
VERTEX
  8
0
 10
938.771364
 20
207.1589550000003
 30
0
  0
VERTEX
  8
0
 10
940.501364
 20
207.0789550000003
 30
0
  0
SEQEND
  8
0
  0
POLYLINE
  8
0
 62
7
 66
1
  0
VERTEX
  8
0
 10
1596.481364
 20
372.5689550000002
 30
0
  0
VERTEX
  8
0
 10
1595.311364
 20
371.2999550000002
 30
0
  0
VERTEX
  8
0
 10
1594.131364
 20
370.0309550000004
 30
0
  0
VERTEX
  8
0
 10
1592.951364
 20
368.7629550000004
 30
0
  0
VERTEX
  8
0
 10
1591.771364
 20
367.4959550000003
 30
0
  0
VERTEX
  8
0
 10
1590.591364
 20
366.2299550000003
 30
0
  0
VERTEX
  8
0
 10
1589.401364
 20
364.9649550000004
 30
0
  0
VERTEX
  8
0
 10
1588.221364
 20
363.7009550000003
 30
0
  0
VERTEX
  8
0
 10
1587.031364
 20
362.4399550000003
 30
0
  0
VERTEX
  8
0
 10
1585.851364
 20
361.1809550000003
 30
0
  0
VERTEX
  8
0
 10
1584.661364
 20
359.9239550000002
 30
0
  0
VERTEX
  8
0
 10
1583.471364
 20
358.6689550000003
 30
0
  0
VERTEX
  8
0
 10
1582.271364
 20
357.4179550000004
 30
0
  0
VERTEX
  8
0
 10
1581.071364
 20
356.1699550000003
 30
0
  0
VERTEX
  8
0
 10
1579.881364
 20
354.9249550000002
 30
0
  0
VERTEX
  8
0
 10
1578.671364
 20
353.6839550000002
 30
0
  0
VERTEX
  8
0
 10
1577.471364
 20
352.4469550000003
 30
0
  0
VERTEX
  8
0
 10
1576.251364
 20
351.2149550000004
 30
0
  0
VERTEX
  8
0
 10
1575.041364
 20
349.9869550000003
 30
0
  0
VERTEX
  8
0
 10
1573.821364
 20
348.7639550000004
 30
0
  0
VERTEX
  8
0
 10
1572.601364
 20
347.5449550000003
 30
0
  0
VERTEX
  8
0
 10
1571.371364
 20
346.3319550000003
 30
0
  0
VERTEX
  8
0
 10
1570.141364
 20
345.1249550000002
 30
0
  0
VERTEX
  8
0
 10
1568.901364
 20
343.9239550000002
 30
0
  0
VERTEX
  8
0
 10
1567.661364
 20
342.7289550000003
 30
0
  0
VERTEX
  8
0
 10
1566.411364
 20
341.5399550000002
 30
0
  0
VERTEX
  8
0
 10
1565.161364
 20
340.3579550000004
 30
0
  0
VERTEX
  8
0
 10
1563.901364
 20
339.1819550000002
 30
0
  0
VERTEX
  8
0
 10
1562.631364
 20
338.0139550000004
 30
0
  0
VERTEX
  8
0
 10
1561.361364
 20
336.8539550000003
 30
0
  0
VERTEX
  8
0
 10
1560.081364
 20
335.7009550000003
 30
0
  0
VERTEX
  8
0
 10
1558.791364
 20
334.5559550000003
 30
0
  0
VERTEX
  8
0
 10
1557.501364
 20
333.4199550000003
 30
0
  0
VERTEX
  8
0
 10
1556.201364
 20
332.2919550000004
 30
0
  0
VERTEX
  8
0
 10
1554.891364
 20
331.1729550000002
 30
0
  0
VERTEX
  8
0
 10
1553.571364
 20
330.0629550000003
 30
0
  0
VERTEX
  8
0
 10
1552.251364
 20
328.9619550000002
 30
0
  0
VERTEX
  8
0
 10
1550.921364
 20
327.8709550000003
 30
0
  0
VERTEX
  8
0
 10
1549.581364
 20
326.7889550000002
 30
0
  0
VERTEX
  8
0
 10
1548.231364
 20
325.7169550000003
 30
0
  0
VERTEX
  8
0
 10
1546.871364
 20
324.6529550000003
 30
0
  0
VERTEX
  8
0
 10
1545.511364
 20
323.5989550000004
 30
0
  0
VERTEX
  8
0
 10
1544.141364
 20
322.5539550000003
 30
0
  0
VERTEX
  8
0
 10
1542.761364
 20
321.5169550000003
 30
0
  0
VERTEX
  8
0
 10
1541.371364
 20
320.4899550000002
 30
0
  0
VERTEX
  8
0
 10
1539.981364
 20
319.4709550000002
 30
0
  0
VERTEX
  8
0
 10
1538.581364
 20
318.4609550000002
 30
0
  0
VERTEX
  8
0
 10
1537.171364
 20
317.4599550000003
 30
0
  0
VERTEX
  8
0
 10
1535.761364
 20
316.4669550000003
 30
0
  0
VERTEX
  8
0
 10
1534.341364
 20
315.4819550000003
 30
0
  0
VERTEX
  8
0
 10
1532.911364
 20
314.5059550000003
 30
0
  0
VERTEX
  8
0
 10
1531.481364
 20
313.5379550000002
 30
0
  0
VERTEX
  8
0
 10
1530.041364
 20
312.5779550000003
 30
0
  0
VERTEX
  8
0
 10
1528.601364
 20
311.6259550000003
 30
0
  0
VERTEX
  8
0
 10
1527.151364
 20
310.6819550000002
 30
0
  0
VERTEX
  8
0
 10
1525.701364
 20
309.7459550000003
 30
0
  0
VERTEX
  8
0
 10
1524.241364
 20
308.8169550000002
 30
0
  0
VERTEX
  8
0
 10
1522.771364
 20
307.8969550000003
 30
0
  0
VERTEX
  8
0
 10
1521.301364
 20
306.9829550000003
 30
0
  0
VERTEX
  8
0
 10
1519.831364
 20
306.0779550000003
 30
0
  0
VERTEX
  8
0
 10
1518.351364
 20
305.1789550000003
 30
0
  0
VERTEX
  8
0
 10
1516.861364
 20
304.2879550000002
 30
0
  0
VERTEX
  8
0
 10
1515.371364
 20
303.4039550000002
 30
0
  0
VERTEX
  8
0
 10
1513.881364
 20
302.5279550000003
 30
0
  0
VERTEX
  8
0
 10
1512.381364
 20
301.6579550000004
 30
0
  0
VERTEX
  8
0
 10
1510.881364
 20
300.7949550000003
 30
0
  0
VERTEX
  8
0
 10
1509.381364
 20
299.9389550000003
 30
0
  0
VERTEX
  8
0
 10
1507.871364
 20
299.0899550000004
 30
0
  0
VERTEX
  8
0
 10
1506.351364
 20
298.2469550000003
 30
0
  0
VERTEX
  8
0
 10
1504.841364
 20
297.4109550000003
 30
0
  0
VERTEX
  8
0
 10
1503.321364
 20
296.5819550000003
 30
0
  0
VERTEX
  8
0
 10
1501.791364
 20
295.7589550000002
 30
0
  0
VERTEX
  8
0
 10
1500.271364
 20
294.9419550000002
 30
0
  0
VERTEX
  8
0
 10
1498.741364
 20
294.1309550000003
 30
0
  0
VERTEX
  8
0
 10
1497.211364
 20
293.3269550000002
 30
0
  0
VERTEX
  8
0
 10
1495.671364
 20
292.5279550000003
 30
0
  0
VERTEX
  8
0
 10
1494.141364
 20
291.7359550000003
 30
0
  0
VERTEX
  8
0
 10
1492.601364
 20
290.9499550000003
 30
0
  0
VERTEX
  8
0
 10
1491.051364
 20
290.1709550000003
 30
0
  0
VERTEX
  8
0
 10
1489.511364
 20
289.3969550000003
 30
0
  0
VERTEX
  8
0
 10
1487.961364
 20
288.6289550000004
 30
0
  0
VERTEX
  8
0
 10
1486.411364
 20
287.8679550000003
 30
0
  0
VERTEX
  8
0
 10
1484.861364
 20
287.1119550000003
 30
0
  0
VERTEX
  8
0
 10
1483.301364
 20
286.3629550000003
 30
0
  0
VERTEX
  8
0
 10
1481.741364
 20
285.6199550000004
 30
0
  0
VERTEX
  8
0
 10
1480.181364
 20
284.8819550000003
 30
0
  0
VERTEX
  8
0
 10
1478.611364
 20
284.1509550000003
 30
0
  0
VERTEX
  8
0
 10
1477.051364
 20
283.4249550000003
 30
0
  0
VERTEX
  8
0
 10
1475.481364
 20
282.7059550000004
 30
0
  0
VERTEX
  8
0
 10
1473.911364
 20
281.9919550000003
 30
0
  0
VERTEX
  8
0
 10
1472.331364
 20
281.2839550000003
 30
0
  0
VERTEX
  8
0
 10
1470.751364
 20
280.5819550000003
 30
0
  0
VERTEX
  8
0
 10
1469.181364
 20
279.8859550000003
 30
0
  0
VERTEX
  8
0
 10
1467.591364
 20
279.1959550000004
 30
0
  0
VERTEX
  8
0
 10
1466.011364
 20
278.5119550000003
 30
0
  0
VERTEX
  8
0
 10
1464.421364
 20
277.8329550000003
 30
0
  0
VERTEX
  8
0
 10
1462.831364
 20
277.1599550000003
 30
0
  0
VERTEX
  8
0
 10
1461.241364
 20
276.4929550000003
 30
0
  0
VERTEX
  8
0
 10
1459.651364
 20
275.8319550000003
 30
0
  0
VERTEX
  8
0
 10
1458.051364
 20
275.1759550000003
 30
0
  0
VERTEX
  8
0
 10
1456.451364
 20
274.5259550000003
 30
0
  0
VERTEX
  8
0
 10
1454.851364
 20
273.8819550000003
 30
0
  0
VERTEX
  8
0
 10
1453.251364
 20
273.2429550000003
 30
0
  0
VERTEX
  8
0
 10
1451.651364
 20
272.6099550000004
 30
0
  0
VERTEX
  8
0
 10
1450.041364
 20
271.9819550000003
 30
0
  0
VERTEX
  8
0
 10
1448.431364
 20
271.3609550000003
 30
0
  0
VERTEX
  8
0
 10
1446.821364
 20
270.7439550000004
 30
0
  0
VERTEX
  8
0
 10
1445.201364
 20
270.1329550000003
 30
0
  0
VERTEX
  8
0
 10
1443.591364
 20
269.5279550000003
 30
0
  0
VERTEX
  8
0
 10
1441.971364
 20
268.9289550000003
 30
0
  0
VERTEX
  8
0
 10
1440.351364
 20
268.3339550000003
 30
0
  0
VERTEX
  8
0
 10
1438.731364
 20
267.7449550000004
 30
0
  0
VERTEX
  8
0
 10
1437.101364
 20
267.1619550000003
 30
0
  0
VERTEX
  8
0
 10
1435.481364
 20
266.5829550000003
 30
0
  0
VERTEX
  8
0
 10
1433.851364
 20
266.0099550000002
 30
0
  0
VERTEX
  8
0
 10
1432.221364
 20
265.4419550000002
 30
0
  0
VERTEX
  8
0
 10
1430.591364
 20
264.8789550000004
 30
0
  0
VERTEX
  8
0
 10
1428.961364
 20
264.3209550000004
 30
0
  0
VERTEX
  8
0
 10
1427.321364
 20
263.7679550000003
 30
0
  0
VERTEX
  8
0
 10
1425.691364
 20
263.2199550000003
 30
0
  0
VERTEX
  8
0
 10
1424.051364
 20
262.6769550000004
 30
0
  0
VERTEX
  8
0
 10
1422.411364
 20
262.1389550000004
 30
0
  0
VERTEX
  8
0
 10
1420.771364
 20
261.6049550000003
 30
0
  0
VERTEX
  8
0
 10
1419.121364
 20
261.0759550000003
 30
0
  0
VERTEX
  8
0
 10
1417.481364
 20
260.5509550000003
 30
0
  0
VERTEX
  8
0
 10
1415.831364
 20
260.0309550000003
 30
0
  0
VERTEX
  8
0
 10
1414.191364
 20
259.5159550000003
 30
0
  0
VERTEX
  8
0
 10
1412.541364
 20
259.0049550000003
 30
0
  0
VERTEX
  8
0
 10
1410.891364
 20
258.4979550000003
 30
0
  0
VERTEX
  8
0
 10
1409.231364
 20
257.9959550000003
 30
0
  0
VERTEX
  8
0
 10
1407.581364
 20
257.4969550000003
 30
0
  0
VERTEX
  8
0
 10
1405.931364
 20
257.0029550000003
 30
0
  0
VERTEX
  8
0
 10
1404.271364
 20
256.5139550000004
 30
0
  0
VERTEX
  8
0
 10
1402.611364
 20
256.0279550000003
 30
0
  0
VERTEX
  8
0
 10
1400.961364
 20
255.5459550000003
 30
0
  0
VERTEX
  8
0
 10
1399.301364
 20
255.0679550000002
 30
0
  0
VERTEX
  8
0
 10
1397.641364
 20
254.5939550000003
 30
0
  0
VERTEX
  8
0
 10
1395.971364
 20
254.1239550000003
 30
0
  0
VERTEX
  8
0
 10
1394.311364
 20
253.6579550000004
 30
0
  0
VERTEX
  8
0
 10
1392.651364
 20
253.1949550000003
 30
0
  0
VERTEX
  8
0
 10
1390.981364
 20
252.7359550000003
 30
0
  0
VERTEX
  8
0
 10
1389.321364
 20
252.2799550000003
 30
0
  0
VERTEX
  8
0
 10
1387.651364
 20
251.8289550000003
 30
0
  0
VERTEX
  8
0
 10
1385.981364
 20
251.3799550000003
 30
0
  0
VERTEX
  8
0
 10
1384.321364
 20
250.9349550000003
 30
0
  0
VERTEX
  8
0
 10
1382.651364
 20
250.4929550000003
 30
0
  0
VERTEX
  8
0
 10
1380.981364
 20
250.0549550000003
 30
0
  0
VERTEX
  8
0
 10
1379.311364
 20
249.6199550000004
 30
0
  0
VERTEX
  8
0
 10
1377.641364
 20
249.1879550000003
 30
0
  0
VERTEX
  8
0
 10
1375.961364
 20
248.7599550000002
 30
0
  0
VERTEX
  8
0
 10
1374.291364
 20
248.3339550000003
 30
0
  0
VERTEX
  8
0
 10
1372.621364
 20
247.9129550000002
 30
0
  0
VERTEX
  8
0
 10
1370.941364
 20
247.4939550000004
 30
0
  0
VERTEX
  8
0
 10
1369.271364
 20
247.0779550000003
 30
0
  0
VERTEX
  8
0
 10
1367.591364
 20
246.6659550000003
 30
0
  0
VERTEX
  8
0
 10
1365.911364
 20
246.2569550000003
 30
0
  0
VERTEX
  8
0
 10
1364.241364
 20
245.8509550000003
 30
0
  0
VERTEX
  8
0
 10
1362.561364
 20
245.4479550000003
 30
0
  0
VERTEX
  8
0
 10
1360.881364
 20
245.0479550000002
 30
0
  0
VERTEX
  8
0
 10
1359.201364
 20
244.6519550000003
 30
0
  0
VERTEX
  8
0
 10
1357.521364
 20
244.2579550000003
 30
0
  0
VERTEX
  8
0
 10
1355.841364
 20
243.8679550000003
 30
0
  0
VERTEX
  8
0
 10
1354.161364
 20
243.4799550000003
 30
0
  0
VERTEX
  8
0
 10
1352.471364
 20
243.0959550000002
 30
0
  0
VERTEX
  8
0
 10
1350.791364
 20
242.7149550000004
 30
0
  0
VERTEX
  8
0
 10
1349.111364
 20
242.3369550000002
 30
0
  0
VERTEX
  8
0
 10
1347.421364
 20
241.9609550000002
 30
0
  0
VERTEX
  8
0
 10
1345.741364
 20
241.5889550000003
 30
0
  0
VERTEX
  8
0
 10
1344.051364
 20
241.2199550000003
 30
0
  0
VERTEX
  8
0
 10
1342.371364
 20
240.8529550000003
 30
0
  0
VERTEX
  8
0
 10
1340.681364
 20
240.4899550000002
 30
0
  0
VERTEX
  8
0
 10
1338.991364
 20
240.1289550000004
 30
0
  0
VERTEX
  8
0
 10
1337.301364
 20
239.7709550000003
 30
0
  0
VERTEX
  8
0
 10
1335.621364
 20
239.4159550000003
 30
0
  0
VERTEX
  8
0
 10
1333.931364
 20
239.0639550000003
 30
0
  0
VERTEX
  8
0
 10
1332.241364
 20
238.7149550000004
 30
0
  0
VERTEX
  8
0
 10
1330.551364
 20
238.3689550000004
 30
0
  0
VERTEX
  8
0
 10
1328.851364
 20
238.0249550000003
 30
0
  0
VERTEX
  8
0
 10
1327.161364
 20
237.6839550000003
 30
0
  0
VERTEX
  8
0
 10
1325.471364
 20
237.3459550000002
 30
0
  0
VERTEX
  8
0
 10
1323.781364
 20
237.0109550000003
 30
0
  0
VERTEX
  8
0
 10
1322.081364
 20
236.6779550000003
 30
0
  0
VERTEX
  8
0
 10
1320.391364
 20
236.3479550000003
 30
0
  0
VERTEX
  8
0
 10
1318.701364
 20
236.0209550000003
 30
0
  0
VERTEX
  8
0
 10
1317.001364
 20
235.6969550000003
 30
0
  0
VERTEX
  8
0
 10
1315.311364
 20
235.3749550000002
 30
0
  0
VERTEX
  8
0
 10
1313.611364
 20
235.0549550000003
 30
0
  0
VERTEX
  8
0
 10
1311.911364
 20
234.7389550000003
 30
0
  0
VERTEX
  8
0
 10
1310.221364
 20
234.4239550000002
 30
0
  0
VERTEX
  8
0
 10
1308.521364
 20
234.1129550000003
 30
0
  0
VERTEX
  8
0
 10
1306.821364
 20
233.8039550000003
 30
0
  0
VERTEX
  8
0
 10
1305.131364
 20
233.4969550000003
 30
0
  0
VERTEX
  8
0
 10
1303.431364
 20
233.1929550000002
 30
0
  0
VERTEX
  8
0
 10
1301.731364
 20
232.8909550000003
 30
0
  0
VERTEX
  8
0
 10
1300.031364
 20
232.5919550000003
 30
0
  0
VERTEX
  8
0
 10
1298.331364
 20
232.2949550000003
 30
0
  0
VERTEX
  8
0
 10
1296.631364
 20
231.9999550000002
 30
0
  0
VERTEX
  8
0
 10
1294.931364
 20
231.7079550000003
 30
0
  0
VERTEX
  8
0
 10
1293.231364
 20
231.4179550000004
 30
0
  0
VERTEX
  8
0
 10
1291.521364
 20
231.1299550000003
 30
0
  0
VERTEX
  8
0
 10
1289.821364
 20
230.8449550000003
 30
0
  0
VERTEX
  8
0
 10
1288.121364
 20
230.5619550000004
 30
0
  0
VERTEX
  8
0
 10
1286.421364
 20
230.2809550000003
 30
0
  0
VERTEX
  8
0
 10
1284.711364
 20
230.0019550000003
 30
0
  0
VERTEX
  8
0
 10
1283.011364
 20
229.7259550000003
 30
0
  0
VERTEX
  8
0
 10
1281.311364
 20
229.4519550000002
 30
0
  0
VERTEX
  8
0
 10
1279.601364
 20
229.1789550000003
 30
0
  0
VERTEX
  8
0
 10
1277.901364
 20
228.9089550000003
 30
0
  0
VERTEX
  8
0
 10
1276.191364
 20
228.6409550000003
 30
0
  0
VERTEX
  8
0
 10
1274.491364
 20
228.3749550000002
 30
0
  0
VERTEX
  8
0
 10
1272.781364
 20
228.1109550000003
 30
0
  0
VERTEX
  8
0
 10
1271.081364
 20
227.8499550000004
 30
0
  0
VERTEX
  8
0
 10
1269.371364
 20
227.5899550000004
 30
0
  0
VERTEX
  8
0
 10
1267.661364
 20
227.3319550000003
 30
0
  0
VERTEX
  8
0
 10
1265.961364
 20
227.0759550000003
 30
0
  0
VERTEX
  8
0
 10
1264.251364
 20
226.8219550000003
 30
0
  0
VERTEX
  8
0
 10
1262.541364
 20
226.5689550000003
 30
0
  0
VERTEX
  8
0
 10
1260.841364
 20
226.3189550000003
 30
0
  0
VERTEX
  8
0
 10
1259.131364
 20
226.0709550000004
 30
0
  0
VERTEX
  8
0
 10
1257.421364
 20
225.8239550000003
 30
0
  0
VERTEX
  8
0
 10
1255.711364
 20
225.5789550000003
 30
0
  0
VERTEX
  8
0
 10
1254.001364
 20
225.3359550000002
 30
0
  0
VERTEX
  8
0
 10
1252.291364
 20
225.0949550000003
 30
0
  0
VERTEX
  8
0
 10
1250.581364
 20
224.8559550000002
 30
0
  0
VERTEX
  8
0
 10
1248.871364
 20
224.6189550000004
 30
0
  0
VERTEX
  8
0
 10
1247.161364
 20
224.3839550000002
 30
0
  0
VERTEX
  8
0
 10
1245.451364
 20
224.1499550000003
 30
0
  0
VERTEX
  8
0
 10
1243.741364
 20
223.9179550000004
 30
0
  0
VERTEX
  8
0
 10
1242.031364
 20
223.6879550000003
 30
0
  0
VERTEX
  8
0
 10
1240.321364
 20
223.4599550000003
 30
0
  0
VERTEX
  8
0
 10
1238.611364
 20
223.2339550000003
 30
0
  0
VERTEX
  8
0
 10
1236.901364
 20
223.0089550000002
 30
0
  0
VERTEX
  8
0
 10
1235.191364
 20
222.7869550000003
 30
0
  0
VERTEX
  8
0
 10
1233.481364
 20
222.5659550000003
 30
0
  0
VERTEX
  8
0
 10
1231.771364
 20
222.3469550000002
 30
0
  0
VERTEX
  8
0
 10
1230.051364
 20
222.1299550000003
 30
0
  0
VERTEX
  8
0
 10
1228.341364
 20
221.9139550000002
 30
0
  0
VERTEX
  8
0
 10
1226.631364
 20
221.7009550000003
 30
0
  0
VERTEX
  8
0
 10
1224.911364
 20
221.4889550000003
 30
0
  0
VERTEX
  8
0
 10
1223.201364
 20
221.2789550000002
 30
0
  0
VERTEX
  8
0
 10
1221.491364
 20
221.0709550000004
 30
0
  0
VERTEX
  8
0
 10
1219.781364
 20
220.8639550000003
 30
0
  0
VERTEX
  8
0
 10
1218.061364
 20
220.6589550000003
 30
0
  0
VERTEX
  8
0
 10
1216.351364
 20
220.4569550000003
 30
0
  0
VERTEX
  8
0
 10
1214.631364
 20
220.2549550000003
 30
0
  0
VERTEX
  8
0
 10
1212.921364
 20
220.0559550000003
 30
0
  0
VERTEX
  8
0
 10
1211.201364
 20
219.8579550000003
 30
0
  0
VERTEX
  8
0
 10
1209.491364
 20
219.6629550000002
 30
0
  0
VERTEX
  8
0
 10
1207.771364
 20
219.4679550000003
 30
0
  0
VERTEX
  8
0
 10
1206.061364
 20
219.2759550000003
 30
0
  0
VERTEX
  8
0
 10
1204.341364
 20
219.0849550000003
 30
0
  0
VERTEX
  8
0
 10
1202.631364
 20
218.8969550000003
 30
0
  0
VERTEX
  8
0
 10
1200.911364
 20
218.7089550000003
 30
0
  0
VERTEX
  8
0
 10
1199.201364
 20
218.5239550000003
 30
0
  0
VERTEX
  8
0
 10
1197.481364
 20
218.3399550000004
 30
0
  0
VERTEX
  8
0
 10
1195.761364
 20
218.1579550000004
 30
0
  0
VERTEX
  8
0
 10
1194.051364
 20
217.9779550000003
 30
0
  0
VERTEX
  8
0
 10
1192.331364
 20
217.7999550000003
 30
0
  0
VERTEX
  8
0
 10
1190.611364
 20
217.6229550000003
 30
0
  0
VERTEX
  8
0
 10
1188.901364
 20
217.4479550000003
 30
0
  0
VERTEX
  8
0
 10
1187.181364
 20
217.2739550000003
 30
0
  0
VERTEX
  8
0
 10
1185.461364
 20
217.1019550000003
 30
0
  0
VERTEX
  8
0
 10
1183.751364
 20
216.9319550000002
 30
0
  0
VERTEX
  8
0
 10
1182.031364
 20
216.7639550000004
 30
0
  0
VERTEX
  8
0
 10
1180.311364
 20
216.5969550000002
 30
0
  0
VERTEX
  8
0
 10
1178.591364
 20
216.4329550000002
 30
0
  0
VERTEX
  8
0
 10
1176.871364
 20
216.2689550000002
 30
0
  0
VERTEX
  8
0
 10
1175.161364
 20
216.1079550000003
 30
0
  0
VERTEX
  8
0
 10
1173.441364
 20
215.9479550000003
 30
0
  0
VERTEX
  8
0
 10
1171.721364
 20
215.7889550000002
 30
0
  0
VERTEX
  8
0
 10
1170.001364
 20
215.6329550000003
 30
0
  0
VERTEX
  8
0
 10
1168.281364
 20
215.4779550000003
 30
0
  0
VERTEX
  8
0
 10
1166.561364
 20
215.3249550000003
 30
0
  0
VERTEX
  8
0
 10
1164.841364
 20
215.1729550000002
 30
0
  0
VERTEX
  8
0
 10
1163.121364
 20
215.0229550000004
 30
0
  0
VERTEX
  8
0
 10
1161.401364
 20
214.8749550000002
 30
0
  0
VERTEX
  8
0
 10
1159.681364
 20
214.7279550000003
 30
0
  0
VERTEX
  8
0
 10
1157.971364
 20
214.5829550000003
 30
0
  0
VERTEX
  8
0
 10
1156.251364
 20
214.4389550000003
 30
0
  0
VERTEX
  8
0
 10
1154.531364
 20
214.2979550000002
 30
0
  0
VERTEX
  8
0
 10
1152.811364
 20
214.1569550000003
 30
0
  0
VERTEX
  8
0
 10
1151.091364
 20
214.0189550000002
 30
0
  0
VERTEX
  8
0
 10
1149.371364
 20
213.8819550000003
 30
0
  0
VERTEX
  8
0
 10
1147.641364
 20
213.7459550000003
 30
0
  0
VERTEX
  8
0
 10
1145.921364
 20
213.6129550000003
 30
0
  0
VERTEX
  8
0
 10
1144.201364
 20
213.4799550000003
 30
0
  0
VERTEX
  8
0
 10
1142.481364
 20
213.3499550000004
 30
0
  0
VERTEX
  8
0
 10
1140.761364
 20
213.2209550000002
 30
0
  0
VERTEX
  8
0
 10
1139.041364
 20
213.0929550000003
 30
0
  0
VERTEX
  8
0
 10
1137.321364
 20
212.9669550000003
 30
0
  0
VERTEX
  8
0
 10
1135.601364
 20
212.8429550000003
 30
0
  0
VERTEX
  8
0
 10
1133.881364
 20
212.7189550000003
 30
0
  0
VERTEX
  8
0
 10
1132.161364
 20
212.5979550000003
 30
0
  0
VERTEX
  8
0
 10
1130.441364
 20
212.4769550000003
 30
0
  0
VERTEX
  8
0
 10
1128.721364
 20
212.3579550000003
 30
0
  0
VERTEX
  8
0
 10
1126.991364
 20
212.2409550000002
 30
0
  0
VERTEX
  8
0
 10
1125.271364
 20
212.1249550000002
 30
0
  0
VERTEX
  8
0
 10
1123.551364
 20
212.0099550000002
 30
0
  0
VERTEX
  8
0
 10
1121.831364
 20
211.8959550000003
 30
0
  0
VERTEX
  8
0
 10
1120.111364
 20
211.7829550000004
 30
0
  0
VERTEX
  8
0
 10
1118.391364
 20
211.6719550000003
 30
0
  0
VERTEX
  8
0
 10
1116.661364
 20
211.5619550000004
 30
0
  0
VERTEX
  8
0
 10
1114.941364
 20
211.4529550000003
 30
0
  0
VERTEX
  8
0
 10
1113.221364
 20
211.3459550000002
 30
0
  0
VERTEX
  8
0
 10
1111.501364
 20
211.2389550000003
 30
0
  0
VERTEX
  8
0
 10
1109.771364
 20
211.1339550000002
 30
0
  0
VERTEX
  8
0
 10
1108.051364
 20
211.0289550000002
 30
0
  0
VERTEX
  8
0
 10
1106.331364
 20
210.9259550000003
 30
0
  0
VERTEX
  8
0
 10
1104.611364
 20
210.8239550000003
 30
0
  0
VERTEX
  8
0
 10
1102.881364
 20
210.7229550000003
 30
0
  0
VERTEX
  8
0
 10
1101.161364
 20
210.6229550000003
 30
0
  0
VERTEX
  8
0
 10
1099.441364
 20
210.5229550000004
 30
0
  0
VERTEX
  8
0
 10
1097.721364
 20
210.4249550000003
 30
0
  0
VERTEX
  8
0
 10
1095.991364
 20
210.3279550000003
 30
0
  0
VERTEX
  8
0
 10
1094.271364
 20
210.2309550000002
 30
0
  0
VERTEX
  8
0
 10
1092.551364
 20
210.1359550000003
 30
0
  0
VERTEX
  8
0
 10
1090.831364
 20
210.0409550000003
 30
0
  0
VERTEX
  8
0
 10
1089.101364
 20
209.9469550000003
 30
0
  0
VERTEX
  8
0
 10
1087.381364
 20
209.8539550000003
 30
0
  0
VERTEX
  8
0
 10
1085.661364
 20
209.7619550000003
 30
0
  0
VERTEX
  8
0
 10
1083.931364
 20
209.6699550000003
 30
0
  0
VERTEX
  8
0
 10
1082.211364
 20
209.5789550000003
 30
0
  0
VERTEX
  8
0
 10
1080.491364
 20
209.4889550000003
 30
0
  0
VERTEX
  8
0
 10
1078.761364
 20
209.3999550000003
 30
0
  0
VERTEX
  8
0
 10
1077.041364
 20
209.3109550000003
 30
0
  0
VERTEX
  8
0
 10
1075.321364
 20
209.2229550000003
 30
0
  0
VERTEX
  8
0
 10
1073.591364
 20
209.1359550000003
 30
0
  0
VERTEX
  8
0
 10
1071.871364
 20
209.0489550000002
 30
0
  0
VERTEX
  8
0
 10
1070.151364
 20
208.9619550000002
 30
0
  0
VERTEX
  8
0
 10
1068.421364
 20
208.8759550000003
 30
0
  0
VERTEX
  8
0
 10
1066.701364
 20
208.7909550000003
 30
0
  0
VERTEX
  8
0
 10
1064.981364
 20
208.7059550000004
 30
0
  0
VERTEX
  8
0
 10
1063.251364
 20
208.6219550000003
 30
0
  0
VERTEX
  8
0
 10
1061.531364
 20
208.5379550000002
 30
0
  0
VERTEX
  8
0
 10
1059.801364
 20
208.4549550000003
 30
0
  0
VERTEX
  8
0
 10
1058.081364
 20
208.3719550000003
 30
0
  0
VERTEX
  8
0
 10
1056.361364
 20
208.2889550000002
 30
0
  0
VERTEX
  8
0
 10
1054.631364
 20
208.2069550000003
 30
0
  0
VERTEX
  8
0
 10
1052.911364
 20
208.1249550000002
 30
0
  0
VERTEX
  8
0
 10
1051.191364
 20
208.0429550000004
 30
0
  0
VERTEX
  8
0
 10
1049.461364
 20
207.9619550000002
 30
0
  0
VERTEX
  8
0
 10
1047.741364
 20
207.8809550000003
 30
0
  0
VERTEX
  8
0
 10
1046.011364
 20
207.7999550000003
 30
0
  0
VERTEX
  8
0
 10
1044.291364
 20
207.7189550000003
 30
0
  0
VERTEX
  8
0
 10
1042.571364
 20
207.6389550000004
 30
0
  0
VERTEX
  8
0
 10
1040.841364
 20
207.5589550000003
 30
0
  0
VERTEX
  8
0
 10
1039.121364
 20
207.4779550000003
 30
0
  0
VERTEX
  8
0
 10
1037.391364
 20
207.3979550000004
 30
0
  0
VERTEX
  8
0
 10
1035.671364
 20
207.3179550000002
 30
0
  0
VERTEX
  8
0
 10
1033.951364
 20
207.2389550000003
 30
0
  0
VERTEX
  8
0
 10
1032.221364
 20
207.1589550000003
 30
0
  0
VERTEX
  8
0
 10
1030.501364
 20
207.0789550000003
 30
0
  0
SEQEND
  8
0
  0
POLYLINE
  8
0
 62
7
 66
1
  0
VERTEX
  8
0
 10
1596.481364
 20
789.1189550000001
 30
0
  0
VERTEX
  8
0
 10
1595.311364
 20
790.3879550000002
 30
0
  0
VERTEX
  8
0
 10
1594.131364
 20
791.6569550000002
 30
0
  0
VERTEX
  8
0
 10
1592.951364
 20
792.9249550000002
 30
0
  0
VERTEX
  8
0
 10
1591.771364
 20
794.1929550000002
 30
0
  0
VERTEX
  8
0
 10
1590.591364
 20
795.4589550000003
 30
0
  0
VERTEX
  8
0
 10
1589.401364
 20
796.7239550000002
 30
0
  0
VERTEX
  8
0
 10
1588.221364
 20
797.9869550000001
 30
0
  0
VERTEX
  8
0
 10
1587.031364
 20
799.2489550000003
 30
0
  0
VERTEX
  8
0
 10
1585.851364
 20
800.5079550000003
 30
0
  0
VERTEX
  8
0
 10
1584.661364
 20
801.7649550000001
 30
0
  0
VERTEX
  8
0
 10
1583.471364
 20
803.0189550000002
 30
0
  0
VERTEX
  8
0
 10
1582.271364
 20
804.2699550000002
 30
0
  0
VERTEX
  8
0
 10
1581.071364
 20
805.5179550000003
 30
0
  0
VERTEX
  8
0
 10
1579.881364
 20
806.7629550000002
 30
0
  0
VERTEX
  8
0
 10
1578.671364
 20
808.0039550000001
 30
0
  0
VERTEX
  8
0
 10
1577.471364
 20
809.2409550000002
 30
0
  0
VERTEX
  8
0
 10
1576.251364
 20
810.4739550000002
 30
0
  0
VERTEX
  8
0
 10
1575.041364
 20
811.7029550000002
 30
0
  0
VERTEX
  8
0
 10
1573.821364
 20
812.9229550000002
 30
0
  0
VERTEX
  8
0
 10
1572.601364
 20
814.1429550000003
 30
0
  0
VERTEX
  8
0
 10
1571.371364
 20
815.3529550000001
 30
0
  0
VERTEX
  8
0
 10
1570.141364
 20
816.5629550000001
 30
0
  0
VERTEX
  8
0
 10
1568.901364
 20
817.7629550000002
 30
0
  0
VERTEX
  8
0
 10
1567.661364
 20
818.9629550000002
 30
0
  0
VERTEX
  8
0
 10
1566.411364
 20
820.1529550000003
 30
0
  0
VERTEX
  8
0
 10
1565.161364
 20
821.3329550000001
 30
0
  0
VERTEX
  8
0
 10
1563.901364
 20
822.5029550000002
 30
0
  0
VERTEX
  8
0
 10
1562.631364
 20
823.6729550000002
 30
0
  0
VERTEX
  8
0
 10
1561.361364
 20
824.8329550000001
 30
0
  0
VERTEX
  8
0
 10
1560.081364
 20
825.9829550000002
 30
0
  0
VERTEX
  8
0
 10
1558.791364
 20
827.1329550000003
 30
0
  0
VERTEX
  8
0
 10
1557.501364
 20
828.2729550000001
 30
0
  0
VERTEX
  8
0
 10
1556.201364
 20
829.3929550000003
 30
0
  0
VERTEX
  8
0
 10
1554.891364
 20
830.5129550000002
 30
0
  0
VERTEX
  8
0
 10
1553.571364
 20
831.6229550000003
 30
0
  0
VERTEX
  8
0
 10
1552.251364
 20
832.7229550000002
 30
0
  0
VERTEX
  8
0
 10
1550.921364
 20
833.8129550000001
 30
0
  0
VERTEX
  8
0
 10
1549.581364
 20
834.9029550000003
 30
0
  0
VERTEX
  8
0
 10
1548.231364
 20
835.9729550000002
 30
0
  0
VERTEX
  8
0
 10
1546.871364
 20
837.0329550000001
 30
0
  0
VERTEX
  8
0
 10
1545.511364
 20
838.0929550000001
 30
0
  0
VERTEX
  8
0
 10
1544.141364
 20
839.1329550000003
 30
0
  0
VERTEX
  8
0
 10
1542.761364
 20
840.1729550000002
 30
0
  0
VERTEX
  8
0
 10
1541.371364
 20
841.2029550000002
 30
0
  0
VERTEX
  8
0
 10
1539.981364
 20
842.2129550000002
 30
0
  0
VERTEX
  8
0
 10
1538.581364
 20
843.2229550000002
 30
0
  0
VERTEX
  8
0
 10
1537.171364
 20
844.2329550000002
 30
0
  0
VERTEX
  8
0
 10
1535.761364
 20
845.2229550000002
 30
0
  0
VERTEX
  8
0
 10
1534.341364
 20
846.2029550000002
 30
0
  0
VERTEX
  8
0
 10
1532.911364
 20
847.1829550000002
 30
0
  0
VERTEX
  8
0
 10
1531.481364
 20
848.1529550000003
 30
0
  0
VERTEX
  8
0
 10
1530.041364
 20
849.1129550000003
 30
0
  0
VERTEX
  8
0
 10
1528.601364
 20
850.0629550000001
 30
0
  0
VERTEX
  8
0
 10
1527.151364
 20
851.0029550000002
 30
0
  0
VERTEX
  8
0
 10
1525.701364
 20
851.9429550000002
 30
0
  0
VERTEX
  8
0
 10
1524.241364
 20
852.8729550000003
 30
0
  0
VERTEX
  8
0
 10
1522.771364
 20
853.7929550000001
 30
0
  0
VERTEX
  8
0
 10
1521.301364
 20
854.7029550000002
 30
0
  0
VERTEX
  8
0
 10
1519.831364
 20
855.6129550000003
 30
0
  0
VERTEX
  8
0
 10
1518.351364
 20
856.5129550000002
 30
0
  0
VERTEX
  8
0
 10
1516.861364
 20
857.4029550000003
 30
0
  0
VERTEX
  8
0
 10
1515.371364
 20
858.2829550000001
 30
0
  0
VERTEX
  8
0
 10
1513.881364
 20
859.1629550000002
 30
0
  0
VERTEX
  8
0
 10
1512.381364
 20
860.0329550000001
 30
0
  0
VERTEX
  8
0
 10
1510.881364
 20
860.8929550000003
 30
0
  0
VERTEX
  8
0
 10
1509.381364
 20
861.7529550000002
 30
0
  0
VERTEX
  8
0
 10
1507.871364
 20
862.6029550000001
 30
0
  0
VERTEX
  8
0
 10
1506.351364
 20
863.4429550000002
 30
0
  0
VERTEX
  8
0
 10
1504.841364
 20
864.2729550000001
 30
0
  0
VERTEX
  8
0
 10
1503.321364
 20
865.1029550000001
 30
0
  0
VERTEX
  8
0
 10
1501.791364
 20
865.9329550000002
 30
0
  0
VERTEX
  8
0
 10
1500.271364
 20
866.7429550000002
 30
0
  0
VERTEX
  8
0
 10
1498.741364
 20
867.5529550000001
 30
0
  0
VERTEX
  8
0
 10
1497.211364
 20
868.3629550000003
 30
0
  0
VERTEX
  8
0
 10
1495.671364
 20
869.1629550000002
 30
0
  0
VERTEX
  8
0
 10
1494.141364
 20
869.9529550000002
 30
0
  0
VERTEX
  8
0
 10
1492.601364
 20
870.7329550000002
 30
0
  0
VERTEX
  8
0
 10
1491.051364
 20
871.5129550000002
 30
0
  0
VERTEX
  8
0
 10
1489.511364
 20
872.2929550000001
 30
0
  0
VERTEX
  8
0
 10
1487.961364
 20
873.0629550000001
 30
0
  0
VERTEX
  8
0
 10
1486.411364
 20
873.8229550000001
 30
0
  0
VERTEX
  8
0
 10
1484.861364
 20
874.5729550000001
 30
0
  0
VERTEX
  8
0
 10
1483.301364
 20
875.3229550000001
 30
0
  0
VERTEX
  8
0
 10
1481.741364
 20
876.0729550000001
 30
0
  0
VERTEX
  8
0
 10
1480.181364
 20
876.8029550000001
 30
0
  0
VERTEX
  8
0
 10
1478.611364
 20
877.5329550000001
 30
0
  0
VERTEX
  8
0
 10
1477.051364
 20
878.2629550000002
 30
0
  0
VERTEX
  8
0
 10
1475.481364
 20
878.9829550000002
 30
0
  0
VERTEX
  8
0
 10
1473.911364
 20
879.6929550000002
 30
0
  0
VERTEX
  8
0
 10
1472.331364
 20
880.4029550000003
 30
0
  0
VERTEX
  8
0
 10
1470.751364
 20
881.1029550000001
 30
0
  0
VERTEX
  8
0
 10
1469.181364
 20
881.8029550000001
 30
0
  0
VERTEX
  8
0
 10
1467.591364
 20
882.4929550000002
 30
0
  0
VERTEX
  8
0
 10
1466.011364
 20
883.1729550000002
 30
0
  0
VERTEX
  8
0
 10
1464.421364
 20
883.8529550000001
 30
0
  0
VERTEX
  8
0
 10
1462.831364
 20
884.5329550000001
 30
0
  0
VERTEX
  8
0
 10
1461.241364
 20
885.1929550000002
 30
0
  0
VERTEX
  8
0
 10
1459.651364
 20
885.8529550000001
 30
0
  0
VERTEX
  8
0
 10
1458.051364
 20
886.5129550000002
 30
0
  0
VERTEX
  8
0
 10
1456.451364
 20
887.1629550000002
 30
0
  0
VERTEX
  8
0
 10
1454.851364
 20
887.8029550000001
 30
0
  0
VERTEX
  8
0
 10
1453.251364
 20
888.4429550000002
 30
0
  0
VERTEX
  8
0
 10
1451.651364
 20
889.0829550000001
 30
0
  0
VERTEX
  8
0
 10
1450.041364
 20
889.7029550000002
 30
0
  0
VERTEX
  8
0
 10
1448.431364
 20
890.3229550000001
 30
0
  0
VERTEX
  8
0
 10
1446.821364
 20
890.9429550000002
 30
0
  0
VERTEX
  8
0
 10
1445.201364
 20
891.5529550000001
 30
0
  0
VERTEX
  8
0
 10
1443.591364
 20
892.1629550000002
 30
0
  0
VERTEX
  8
0
 10
1441.971364
 20
892.7629550000002
 30
0
  0
VERTEX
  8
0
 10
1440.351364
 20
893.3529550000001
 30
0
  0
VERTEX
  8
0
 10
1438.731364
 20
893.9429550000002
 30
0
  0
VERTEX
  8
0
 10
1437.101364
 20
894.5229550000001
 30
0
  0
VERTEX
  8
0
 10
1435.481364
 20
895.1029550000001
 30
0
  0
VERTEX
  8
0
 10
1433.851364
 20
895.6829550000002
 30
0
  0
VERTEX
  8
0
 10
1432.221364
 20
896.2429550000002
 30
0
  0
VERTEX
  8
0
 10
1430.591364
 20
896.8129550000001
 30
0
  0
VERTEX
  8
0
 10
1428.961364
 20
897.3629550000003
 30
0
  0
VERTEX
  8
0
 10
1427.321364
 20
897.9229550000002
 30
0
  0
VERTEX
  8
0
 10
1425.691364
 20
898.4729550000002
 30
0
  0
VERTEX
  8
0
 10
1424.051364
 20
899.0129550000002
 30
0
  0
VERTEX
  8
0
 10
1422.411364
 20
899.5529550000001
 30
0
  0
VERTEX
  8
0
 10
1420.771364
 20
900.0829550000001
 30
0
  0
VERTEX
  8
0
 10
1419.121364
 20
900.6129550000003
 30
0
  0
VERTEX
  8
0
 10
1417.481364
 20
901.1329550000003
 30
0
  0
VERTEX
  8
0
 10
1415.831364
 20
901.6529550000003
 30
0
  0
VERTEX
  8
0
 10
1414.191364
 20
902.1729550000002
 30
0
  0
VERTEX
  8
0
 10
1412.541364
 20
902.6829550000002
 30
0
  0
VERTEX
  8
0
 10
1410.891364
 20
903.1929550000002
 30
0
  0
VERTEX
  8
0
 10
1409.231364
 20
903.6929550000002
 30
0
  0
VERTEX
  8
0
 10
1407.581364
 20
904.1929550000002
 30
0
  0
VERTEX
  8
0
 10
1405.931364
 20
904.6829550000002
 30
0
  0
VERTEX
  8
0
 10
1404.271364
 20
905.1729550000002
 30
0
  0
VERTEX
  8
0
 10
1402.611364
 20
905.6629550000002
 30
0
  0
VERTEX
  8
0
 10
1400.961364
 20
906.1429550000003
 30
0
  0
VERTEX
  8
0
 10
1399.301364
 20
906.6229550000003
 30
0
  0
VERTEX
  8
0
 10
1397.641364
 20
907.0929550000001
 30
0
  0
VERTEX
  8
0
 10
1395.971364
 20
907.5629550000001
 30
0
  0
VERTEX
  8
0
 10
1394.311364
 20
908.0329550000001
 30
0
  0
VERTEX
  8
0
 10
1392.651364
 20
908.4929550000002
 30
0
  0
VERTEX
  8
0
 10
1390.981364
 20
908.9529550000002
 30
0
  0
VERTEX
  8
0
 10
1389.321364
 20
909.4029550000003
 30
0
  0
VERTEX
  8
0
 10
1387.651364
 20
909.8629550000003
 30
0
  0
VERTEX
  8
0
 10
1385.981364
 20
910.3129550000001
 30
0
  0
VERTEX
  8
0
 10
1384.321364
 20
910.7529550000002
 30
0
  0
VERTEX
  8
0
 10
1382.651364
 20
911.1929550000002
 30
0
  0
VERTEX
  8
0
 10
1380.981364
 20
911.6329550000003
 30
0
  0
VERTEX
  8
0
 10
1379.311364
 20
912.0729550000001
 30
0
  0
VERTEX
  8
0
 10
1377.641364
 20
912.5029550000002
 30
0
  0
VERTEX
  8
0
 10
1375.961364
 20
912.9329550000002
 30
0
  0
VERTEX
  8
0
 10
1374.291364
 20
913.3529550000001
 30
0
  0
VERTEX
  8
0
 10
1372.621364
 20
913.7729550000001
 30
0
  0
VERTEX
  8
0
 10
1370.941364
 20
914.1929550000002
 30
0
  0
VERTEX
  8
0
 10
1369.271364
 20
914.6129550000003
 30
0
  0
VERTEX
  8
0
 10
1367.591364
 20
915.0229550000001
 30
0
  0
VERTEX
  8
0
 10
1365.911364
 20
915.4329550000002
 30
0
  0
VERTEX
  8
0
 10
1364.241364
 20
915.8329550000001
 30
0
  0
VERTEX
  8
0
 10
1362.561364
 20
916.2429550000002
 30
0
  0
VERTEX
  8
0
 10
1360.881364
 20
916.6429550000003
 30
0
  0
VERTEX
  8
0
 10
1359.201364
 20
917.0329550000001
 30
0
  0
VERTEX
  8
0
 10
1357.521364
 20
917.4329550000002
 30
0
  0
VERTEX
  8
0
 10
1355.841364
 20
917.8229550000001
 30
0
  0
VERTEX
  8
0
 10
1354.161364
 20
918.2029550000002
 30
0
  0
VERTEX
  8
0
 10
1352.471364
 20
918.5929550000001
 30
0
  0
VERTEX
  8
0
 10
1350.791364
 20
918.9729550000002
 30
0
  0
VERTEX
  8
0
 10
1349.111364
 20
919.3529550000001
 30
0
  0
VERTEX
  8
0
 10
1347.421364
 20
919.7229550000002
 30
0
  0
VERTEX
  8
0
 10
1345.741364
 20
920.1029550000001
 30
0
  0
VERTEX
  8
0
 10
1344.051364
 20
920.4729550000002
 30
0
  0
VERTEX
  8
0
 10
1342.371364
 20
920.8329550000001
 30
0
  0
VERTEX
  8
0
 10
1340.681364
 20
921.2029550000002
 30
0
  0
VERTEX
  8
0
 10
1338.991364
 20
921.5629550000001
 30
0
  0
VERTEX
  8
0
 10
1337.301364
 20
921.9129550000002
 30
0
  0
VERTEX
  8
0
 10
1335.621364
 20
922.2729550000001
 30
0
  0
VERTEX
  8
0
 10
1333.931364
 20
922.6229550000003
 30
0
  0
VERTEX
  8
0
 10
1332.241364
 20
922.9729550000002
 30
0
  0
VERTEX
  8
0
 10
1330.551364
 20
923.3229550000001
 30
0
  0
VERTEX
  8
0
 10
1328.851364
 20
923.6629550000002
 30
0
  0
VERTEX
  8
0
 10
1327.161364
 20
924.0029550000002
 30
0
  0
VERTEX
  8
0
 10
1325.471364
 20
924.3429550000001
 30
0
  0
VERTEX
  8
0
 10
1323.781364
 20
924.6729550000002
 30
0
  0
VERTEX
  8
0
 10
1322.081364
 20
925.0129550000002
 30
0
  0
VERTEX
  8
0
 10
1320.391364
 20
925.3429550000001
 30
0
  0
VERTEX
  8
0
 10
1318.701364
 20
925.6629550000002
 30
0
  0
VERTEX
  8
0
 10
1317.001364
 20
925.9929550000002
 30
0
  0
VERTEX
  8
0
 10
1315.311364
 20
926.3129550000001
 30
0
  0
VERTEX
  8
0
 10
1313.611364
 20
926.6329550000003
 30
0
  0
VERTEX
  8
0
 10
1311.911364
 20
926.9529550000002
 30
0
  0
VERTEX
  8
0
 10
1310.221364
 20
927.2629550000002
 30
0
  0
VERTEX
  8
0
 10
1308.521364
 20
927.5729550000001
 30
0
  0
VERTEX
  8
0
 10
1306.821364
 20
927.8829550000003
 30
0
  0
VERTEX
  8
0
 10
1305.131364
 20
928.1929550000002
 30
0
  0
VERTEX
  8
0
 10
1303.431364
 20
928.4929550000002
 30
0
  0
VERTEX
  8
0
 10
1301.731364
 20
928.7929550000001
 30
0
  0
VERTEX
  8
0
 10
1300.031364
 20
929.0929550000001
 30
0
  0
VERTEX
  8
0
 10
1298.331364
 20
929.3929550000003
 30
0
  0
VERTEX
  8
0
 10
1296.631364
 20
929.6929550000002
 30
0
  0
VERTEX
  8
0
 10
1294.931364
 20
929.9829550000002
 30
0
  0
VERTEX
  8
0
 10
1293.231364
 20
930.2729550000001
 30
0
  0
VERTEX
  8
0
 10
1291.521364
 20
930.5529550000001
 30
0
  0
VERTEX
  8
0
 10
1289.821364
 20
930.8429550000001
 30
0
  0
VERTEX
  8
0
 10
1288.121364
 20
931.1229550000003
 30
0
  0
VERTEX
  8
0
 10
1286.421364
 20
931.4029550000003
 30
0
  0
VERTEX
  8
0
 10
1284.711364
 20
931.6829550000002
 30
0
  0
VERTEX
  8
0
 10
1283.011364
 20
931.9629550000002
 30
0
  0
VERTEX
  8
0
 10
1281.311364
 20
932.2329550000002
 30
0
  0
VERTEX
  8
0
 10
1279.601364
 20
932.5129550000002
 30
0
  0
VERTEX
  8
0
 10
1277.901364
 20
932.7829550000001
 30
0
  0
VERTEX
  8
0
 10
1276.191364
 20
933.0429550000001
 30
0
  0
VERTEX
  8
0
 10
1274.491364
 20
933.3129550000001
 30
0
  0
VERTEX
  8
0
 10
1272.781364
 20
933.5729550000001
 30
0
  0
VERTEX
  8
0
 10
1271.081364
 20
933.8429550000001
 30
0
  0
VERTEX
  8
0
 10
1269.371364
 20
934.1029550000001
 30
0
  0
VERTEX
  8
0
 10
1267.661364
 20
934.3529550000001
 30
0
  0
VERTEX
  8
0
 10
1265.961364
 20
934.6129550000003
 30
0
  0
VERTEX
  8
0
 10
1264.251364
 20
934.8629550000003
 30
0
  0
VERTEX
  8
0
 10
1262.541364
 20
935.1229550000003
 30
0
  0
VERTEX
  8
0
 10
1260.841364
 20
935.3729550000003
 30
0
  0
VERTEX
  8
0
 10
1259.131364
 20
935.6129550000003
 30
0
  0
VERTEX
  8
0
 10
1257.421364
 20
935.8629550000003
 30
0
  0
VERTEX
  8
0
 10
1255.711364
 20
936.1129550000003
 30
0
  0
VERTEX
  8
0
 10
1254.001364
 20
936.3529550000001
 30
0
  0
VERTEX
  8
0
 10
1252.291364
 20
936.5929550000001
 30
0
  0
VERTEX
  8
0
 10
1250.581364
 20
936.8329550000001
 30
0
  0
VERTEX
  8
0
 10
1248.871364
 20
937.0729550000001
 30
0
  0
VERTEX
  8
0
 10
1247.161364
 20
937.3029550000001
 30
0
  0
VERTEX
  8
0
 10
1245.451364
 20
937.5429550000001
 30
0
  0
VERTEX
  8
0
 10
1243.741364
 20
937.7729550000001
 30
0
  0
VERTEX
  8
0
 10
1242.031364
 20
938.0029550000002
 30
0
  0
VERTEX
  8
0
 10
1240.321364
 20
938.2329550000002
 30
0
  0
VERTEX
  8
0
 10
1238.611364
 20
938.4529550000002
 30
0
  0
VERTEX
  8
0
 10
1236.901364
 20
938.6829550000002
 30
0
  0
VERTEX
  8
0
 10
1235.191364
 20
938.9029550000003
 30
0
  0
VERTEX
  8
0
 10
1233.481364
 20
939.1229550000003
 30
0
  0
VERTEX
  8
0
 10
1231.771364
 20
939.3429550000001
 30
0
  0
VERTEX
  8
0
 10
1230.051364
 20
939.5629550000001
 30
0
  0
VERTEX
  8
0
 10
1228.341364
 20
939.7729550000001
 30
0
  0
VERTEX
  8
0
 10
1226.631364
 20
939.9829550000002
 30
0
  0
VERTEX
  8
0
 10
1224.911364
 20
940.2029550000002
 30
0
  0
VERTEX
  8
0
 10
1223.201364
 20
940.4129550000002
 30
0
  0
VERTEX
  8
0
 10
1221.491364
 20
940.6129550000003
 30
0
  0
VERTEX
  8
0
 10
1219.781364
 20
940.8229550000001
 30
0
  0
VERTEX
  8
0
 10
1218.061364
 20
941.0329550000001
 30
0
  0
VERTEX
  8
0
 10
1216.351364
 20
941.2329550000002
 30
0
  0
VERTEX
  8
0
 10
1214.631364
 20
941.4329550000002
 30
0
  0
VERTEX
  8
0
 10
1212.921364
 20
941.6329550000003
 30
0
  0
VERTEX
  8
0
 10
1211.201364
 20
941.8329550000001
 30
0
  0
VERTEX
  8
0
 10
1209.491364
 20
942.0229550000001
 30
0
  0
VERTEX
  8
0
 10
1207.771364
 20
942.2229550000002
 30
0
  0
VERTEX
  8
0
 10
1206.061364
 20
942.4129550000002
 30
0
  0
VERTEX
  8
0
 10
1204.341364
 20
942.6029550000001
 30
0
  0
VERTEX
  8
0
 10
1202.631364
 20
942.7929550000001
 30
0
  0
VERTEX
  8
0
 10
1200.911364
 20
942.9829550000002
 30
0
  0
VERTEX
  8
0
 10
1199.201364
 20
943.1629550000002
 30
0
  0
VERTEX
  8
0
 10
1197.481364
 20
943.3529550000001
 30
0
  0
VERTEX
  8
0
 10
1195.761364
 20
943.5329550000001
 30
0
  0
VERTEX
  8
0
 10
1194.051364
 20
943.7129550000002
 30
0
  0
VERTEX
  8
0
 10
1192.331364
 20
943.8929550000003
 30
0
  0
VERTEX
  8
0
 10
1190.611364
 20
944.0629550000001
 30
0
  0
VERTEX
  8
0
 10
1188.901364
 20
944.2429550000002
 30
0
  0
VERTEX
  8
0
 10
1187.181364
 20
944.4129550000002
 30
0
  0
VERTEX
  8
0
 10
1185.461364
 20
944.5829550000001
 30
0
  0
VERTEX
  8
0
 10
1183.751364
 20
944.7529550000002
 30
0
  0
VERTEX
  8
0
 10
1182.031364
 20
944.9229550000002
 30
0
  0
VERTEX
  8
0
 10
1180.311364
 20
945.0929550000001
 30
0
  0
VERTEX
  8
0
 10
1178.591364
 20
945.2529550000002
 30
0
  0
VERTEX
  8
0
 10
1176.871364
 20
945.4229550000002
 30
0
  0
VERTEX
  8
0
 10
1175.161364
 20
945.5829550000001
 30
0
  0
VERTEX
  8
0
 10
1173.441364
 20
945.7429550000002
 30
0
  0
VERTEX
  8
0
 10
1171.721364
 20
945.9029550000003
 30
0
  0
VERTEX
  8
0
 10
1170.001364
 20
946.0529550000001
 30
0
  0
VERTEX
  8
0
 10
1168.281364
 20
946.2129550000002
 30
0
  0
VERTEX
  8
0
 10
1166.561364
 20
946.3629550000003
 30
0
  0
VERTEX
  8
0
 10
1164.841364
 20
946.5129550000002
 30
0
  0
VERTEX
  8
0
 10
1163.121364
 20
946.6629550000002
 30
0
  0
VERTEX
  8
0
 10
1161.401364
 20
946.8129550000001
 30
0
  0
VERTEX
  8
0
 10
1159.681364
 20
946.9629550000002
 30
0
  0
VERTEX
  8
0
 10
1157.971364
 20
947.1029550000001
 30
0
  0
VERTEX
  8
0
 10
1156.251364
 20
947.2529550000002
 30
0
  0
VERTEX
  8
0
 10
1154.531364
 20
947.3929550000003
 30
0
  0
VERTEX
  8
0
 10
1152.811364
 20
947.5329550000001
 30
0
  0
VERTEX
  8
0
 10
1151.091364
 20
947.6729550000002
 30
0
  0
VERTEX
  8
0
 10
1149.371364
 20
947.8029550000001
 30
0
  0
VERTEX
  8
0
 10
1147.641364
 20
947.9429550000002
 30
0
  0
VERTEX
  8
0
 10
1145.921364
 20
948.0729550000001
 30
0
  0
VERTEX
  8
0
 10
1144.201364
 20
948.2029550000002
 30
0
  0
VERTEX
  8
0
 10
1142.481364
 20
948.3429550000001
 30
0
  0
VERTEX
  8
0
 10
1140.761364
 20
948.4629550000002
 30
0
  0
VERTEX
  8
0
 10
1139.041364
 20
948.5929550000001
 30
0
  0
VERTEX
  8
0
 10
1137.321364
 20
948.7229550000002
 30
0
  0
VERTEX
  8
0
 10
1135.601364
 20
948.8429550000001
 30
0
  0
VERTEX
  8
0
 10
1133.881364
 20
948.9729550000002
 30
0
  0
VERTEX
  8
0
 10
1132.161364
 20
949.0929550000001
 30
0
  0
VERTEX
  8
0
 10
1130.441364
 20
949.2129550000002
 30
0
  0
VERTEX
  8
0
 10
1128.721364
 20
949.3329550000001
 30
0
  0
VERTEX
  8
0
 10
1126.991364
 20
949.4429550000002
 30
0
  0
VERTEX
  8
0
 10
1125.271364
 20
949.5629550000001
 30
0
  0
VERTEX
  8
0
 10
1123.551364
 20
949.6829550000002
 30
0
  0
VERTEX
  8
0
 10
1121.831364
 20
949.7929550000001
 30
0
  0
VERTEX
  8
0
 10
1120.111364
 20
949.9029550000003
 30
0
  0
VERTEX
  8
0
 10
1118.391364
 20
950.0129550000002
 30
0
  0
VERTEX
  8
0
 10
1116.661364
 20
950.1229550000003
 30
0
  0
VERTEX
  8
0
 10
1114.941364
 20
950.2329550000002
 30
0
  0
VERTEX
  8
0
 10
1113.221364
 20
950.3429550000001
 30
0
  0
VERTEX
  8
0
 10
1111.501364
 20
950.4529550000002
 30
0
  0
VERTEX
  8
0
 10
1109.771364
 20
950.5529550000001
 30
0
  0
VERTEX
  8
0
 10
1108.051364
 20
950.6629550000002
 30
0
  0
VERTEX
  8
0
 10
1106.331364
 20
950.7629550000002
 30
0
  0
VERTEX
  8
0
 10
1104.611364
 20
950.8629550000003
 30
0
  0
VERTEX
  8
0
 10
1102.881364
 20
950.9629550000002
 30
0
  0
VERTEX
  8
0
 10
1101.161364
 20
951.0629550000001
 30
0
  0
VERTEX
  8
0
 10
1099.441364
 20
951.1629550000002
 30
0
  0
VERTEX
  8
0
 10
1097.721364
 20
951.2629550000002
 30
0
  0
VERTEX
  8
0
 10
1095.991364
 20
951.3629550000003
 30
0
  0
VERTEX
  8
0
 10
1094.271364
 20
951.4529550000002
 30
0
  0
VERTEX
  8
0
 10
1092.551364
 20
951.5529550000001
 30
0
  0
VERTEX
  8
0
 10
1090.831364
 20
951.6429550000003
 30
0
  0
VERTEX
  8
0
 10
1089.101364
 20
951.7429550000002
 30
0
  0
VERTEX
  8
0
 10
1087.381364
 20
951.8329550000001
 30
0
  0
VERTEX
  8
0
 10
1085.661364
 20
951.9229550000002
 30
0
  0
VERTEX
  8
0
 10
1083.931364
 20
952.0229550000001
 30
0
  0
VERTEX
  8
0
 10
1082.211364
 20
952.1129550000003
 30
0
  0
VERTEX
  8
0
 10
1080.491364
 20
952.2029550000002
 30
0
  0
VERTEX
  8
0
 10
1078.761364
 20
952.2929550000001
 30
0
  0
VERTEX
  8
0
 10
1077.041364
 20
952.3729550000003
 30
0
  0
VERTEX
  8
0
 10
1075.321364
 20
952.4629550000002
 30
0
  0
VERTEX
  8
0
 10
1073.591364
 20
952.5529550000001
 30
0
  0
VERTEX
  8
0
 10
1071.871364
 20
952.6429550000003
 30
0
  0
VERTEX
  8
0
 10
1070.151364
 20
952.7229550000002
 30
0
  0
VERTEX
  8
0
 10
1068.421364
 20
952.8129550000001
 30
0
  0
VERTEX
  8
0
 10
1066.701364
 20
952.8929550000003
 30
0
  0
VERTEX
  8
0
 10
1064.981364
 20
952.9829550000002
 30
0
  0
VERTEX
  8
0
 10
1063.251364
 20
953.0629550000001
 30
0
  0
VERTEX
  8
0
 10
1061.531364
 20
953.1529550000003
 30
0
  0
VERTEX
  8
0
 10
1059.801364
 20
953.2329550000002
 30
0
  0
VERTEX
  8
0
 10
1058.081364
 20
953.3129550000001
 30
0
  0
VERTEX
  8
0
 10
1056.361364
 20
953.4029550000003
 30
0
  0
VERTEX
  8
0
 10
1054.631364
 20
953.4829550000002
 30
0
  0
VERTEX
  8
0
 10
1052.911364
 20
953.5629550000001
 30
0
  0
VERTEX
  8
0
 10
1051.191364
 20
953.6429550000003
 30
0
  0
VERTEX
  8
0
 10
1049.461364
 20
953.7229550000002
 30
0
  0
VERTEX
  8
0
 10
1047.741364
 20
953.8029550000001
 30
0
  0
VERTEX
  8
0
 10
1046.011364
 20
953.8929550000003
 30
0
  0
VERTEX
  8
0
 10
1044.291364
 20
953.9729550000002
 30
0
  0
VERTEX
  8
0
 10
1042.571364
 20
954.0529550000001
 30
0
  0
VERTEX
  8
0
 10
1040.841364
 20
954.1329550000003
 30
0
  0
VERTEX
  8
0
 10
1039.121364
 20
954.2129550000002
 30
0
  0
VERTEX
  8
0
 10
1037.391364
 20
954.2929550000001
 30
0
  0
VERTEX
  8
0
 10
1035.671364
 20
954.3729550000003
 30
0
  0
VERTEX
  8
0
 10
1033.951364
 20
954.4529550000002
 30
0
  0
VERTEX
  8
0
 10
1032.221364
 20
954.5329550000001
 30
0
  0
VERTEX
  8
0
 10
1030.501364
 20
954.6129550000003
 30
0
  0
SEQEND
  8
0
  0
POLYLINE
  8
0
 62
7
 66
1
  0
VERTEX
  8
0
 10
374.5143639999999
 20
789.1189550000001
 30
0
  0
VERTEX
  8
0
 10
375.6933639999999
 20
790.3879550000002
 30
0
  0
VERTEX
  8
0
 10
376.8723639999998
 20
791.6569550000002
 30
0
  0
VERTEX
  8
0
 10
378.0523639999999
 20
792.9249550000002
 30
0
  0
VERTEX
  8
0
 10
379.2323639999999
 20
794.1929550000002
 30
0
  0
VERTEX
  8
0
 10
380.4133639999999
 20
795.4589550000003
 30
0
  0
VERTEX
  8
0
 10
381.5953639999999
 20
796.7239550000002
 30
0
  0
VERTEX
  8
0
 10
382.7793639999999
 20
797.9869550000001
 30
0
  0
VERTEX
  8
0
 10
383.9643639999998
 20
799.2489550000003
 30
0
  0
VERTEX
  8
0
 10
385.1523639999999
 20
800.5079550000003
 30
0
  0
VERTEX
  8
0
 10
386.3413639999999
 20
801.7649550000001
 30
0
  0
VERTEX
  8
0
 10
387.5323639999999
 20
803.0189550000002
 30
0
  0
VERTEX
  8
0
 10
388.7263639999999
 20
804.2699550000002
 30
0
  0
VERTEX
  8
0
 10
389.9233639999999
 20
805.5179550000003
 30
0
  0
VERTEX
  8
0
 10
391.1233639999998
 20
806.7629550000002
 30
0
  0
VERTEX
  8
0
 10
392.3263639999999
 20
808.0039550000001
 30
0
  0
VERTEX
  8
0
 10
393.5333639999999
 20
809.2409550000002
 30
0
  0
VERTEX
  8
0
 10
394.7433639999998
 20
810.4739550000002
 30
0
  0
VERTEX
  8
0
 10
395.9583639999999
 20
811.7029550000002
 30
0
  0
VERTEX
  8
0
 10
397.1763639999999
 20
812.9229550000002
 30
0
  0
VERTEX
  8
0
 10
398.3993639999999
 20
814.1429550000003
 30
0
  0
VERTEX
  8
0
 10
399.6263639999999
 20
815.3529550000001
 30
0
  0
VERTEX
  8
0
 10
400.8583639999998
 20
816.5629550000001
 30
0
  0
VERTEX
  8
0
 10
402.0963639999999
 20
817.7629550000002
 30
0
  0
VERTEX
  8
0
 10
403.3383639999998
 20
818.9629550000002
 30
0
  0
VERTEX
  8
0
 10
404.5873639999999
 20
820.1529550000003
 30
0
  0
VERTEX
  8
0
 10
405.8413639999999
 20
821.3329550000001
 30
0
  0
VERTEX
  8
0
 10
407.1013639999999
 20
822.5029550000002
 30
0
  0
VERTEX
  8
0
 10
408.3673639999998
 20
823.6729550000002
 30
0
  0
VERTEX
  8
0
 10
409.6403639999999
 20
824.8329550000001
 30
0
  0
VERTEX
  8
0
 10
410.9193639999999
 20
825.9829550000002
 30
0
  0
VERTEX
  8
0
 10
412.2053639999999
 20
827.1329550000003
 30
0
  0
VERTEX
  8
0
 10
413.4993639999999
 20
828.2729550000001
 30
0
  0
VERTEX
  8
0
 10
414.8003639999998
 20
829.3929550000003
 30
0
  0
VERTEX
  8
0
 10
416.1093639999999
 20
830.5129550000002
 30
0
  0
VERTEX
  8
0
 10
417.4253639999998
 20
831.6229550000003
 30
0
  0
VERTEX
  8
0
 10
418.7493639999999
 20
832.7229550000002
 30
0
  0
VERTEX
  8
0
 10
420.0823639999999
 20
833.8129550000001
 30
0
  0
VERTEX
  8
0
 10
421.4233639999999
 20
834.9029550000003
 30
0
  0
VERTEX
  8
0
 10
422.7713639999998
 20
835.9729550000002
 30
0
  0
VERTEX
  8
0
 10
424.1283639999999
 20
837.0329550000001
 30
0
  0
VERTEX
  8
0
 10
425.4923639999998
 20
838.0929550000001
 30
0
  0
VERTEX
  8
0
 10
426.8633639999998
 20
839.1329550000003
 30
0
  0
VERTEX
  8
0
 10
428.2423639999998
 20
840.1729550000002
 30
0
  0
VERTEX
  8
0
 10
429.6283639999999
 20
841.2029550000002
 30
0
  0
VERTEX
  8
0
 10
431.0203639999999
 20
842.2129550000002
 30
0
  0
VERTEX
  8
0
 10
432.4203639999998
 20
843.2229550000002
 30
0
  0
VERTEX
  8
0
 10
433.8263639999999
 20
844.2329550000002
 30
0
  0
VERTEX
  8
0
 10
435.2393639999999
 20
845.2229550000002
 30
0
  0
VERTEX
  8
0
 10
436.6593639999999
 20
846.2029550000002
 30
0
  0
VERTEX
  8
0
 10
438.0843639999998
 20
847.1829550000002
 30
0
  0
VERTEX
  8
0
 10
439.5163639999998
 20
848.1529550000003
 30
0
  0
VERTEX
  8
0
 10
440.9543639999998
 20
849.1129550000003
 30
0
  0
VERTEX
  8
0
 10
442.3973639999998
 20
850.0629550000001
 30
0
  0
VERTEX
  8
0
 10
443.8463639999999
 20
851.0029550000002
 30
0
  0
VERTEX
  8
0
 10
445.3013639999999
 20
851.9429550000002
 30
0
  0
VERTEX
  8
0
 10
446.7613639999998
 20
852.8729550000003
 30
0
  0
VERTEX
  8
0
 10
448.2263639999999
 20
853.7929550000001
 30
0
  0
VERTEX
  8
0
 10
449.6963639999999
 20
854.7029550000002
 30
0
  0
VERTEX
  8
0
 10
451.1713639999998
 20
855.6129550000003
 30
0
  0
VERTEX
  8
0
 10
452.6513639999998
 20
856.5129550000002
 30
0
  0
VERTEX
  8
0
 10
454.1363639999998
 20
857.4029550000003
 30
0
  0
VERTEX
  8
0
 10
455.6253639999999
 20
858.2829550000001
 30
0
  0
VERTEX
  8
0
 10
457.1183639999998
 20
859.1629550000002
 30
0
  0
VERTEX
  8
0
 10
458.6163639999999
 20
860.0329550000001
 30
0
  0
VERTEX
  8
0
 10
460.1183639999998
 20
860.8929550000003
 30
0
  0
VERTEX
  8
0
 10
461.6233639999998
 20
861.7529550000002
 30
0
  0
VERTEX
  8
0
 10
463.1323639999998
 20
862.6029550000001
 30
0
  0
VERTEX
  8
0
 10
464.6453639999999
 20
863.4429550000002
 30
0
  0
VERTEX
  8
0
 10
466.1613639999998
 20
864.2729550000001
 30
0
  0
VERTEX
  8
0
 10
467.6813639999999
 20
865.1029550000001
 30
0
  0
VERTEX
  8
0
 10
469.2043639999998
 20
865.9329550000002
 30
0
  0
VERTEX
  8
0
 10
470.7293639999999
 20
866.7429550000002
 30
0
  0
VERTEX
  8
0
 10
472.2583639999999
 20
867.5529550000001
 30
0
  0
VERTEX
  8
0
 10
473.7893639999999
 20
868.3629550000003
 30
0
  0
VERTEX
  8
0
 10
475.3243639999998
 20
869.1629550000002
 30
0
  0
VERTEX
  8
0
 10
476.8613639999999
 20
869.9529550000002
 30
0
  0
VERTEX
  8
0
 10
478.4013639999998
 20
870.7329550000002
 30
0
  0
VERTEX
  8
0
 10
479.9443639999998
 20
871.5129550000002
 30
0
  0
VERTEX
  8
0
 10
481.4893639999999
 20
872.2929550000001
 30
0
  0
VERTEX
  8
0
 10
483.0373639999999
 20
873.0629550000001
 30
0
  0
VERTEX
  8
0
 10
484.5893639999998
 20
873.8229550000001
 30
0
  0
VERTEX
  8
0
 10
486.142364
 20
874.5729550000001
 30
0
  0
VERTEX
  8
0
 10
487.699364
 20
875.3229550000001
 30
0
  0
VERTEX
  8
0
 10
489.258364
 20
876.0729550000001
 30
0
  0
VERTEX
  8
0
 10
490.819364
 20
876.8029550000001
 30
0
  0
VERTEX
  8
0
 10
492.384364
 20
877.5329550000001
 30
0
  0
VERTEX
  8
0
 10
493.951364
 20
878.2629550000002
 30
0
  0
VERTEX
  8
0
 10
495.520364
 20
878.9829550000002
 30
0
  0
VERTEX
  8
0
 10
497.092364
 20
879.6929550000002
 30
0
  0
VERTEX
  8
0
 10
498.666364
 20
880.4029550000003
 30
0
  0
VERTEX
  8
0
 10
500.243364
 20
881.1029550000001
 30
0
  0
VERTEX
  8
0
 10
501.823364
 20
881.8029550000001
 30
0
  0
VERTEX
  8
0
 10
503.405364
 20
882.4929550000002
 30
0
  0
VERTEX
  8
0
 10
504.989364
 20
883.1729550000002
 30
0
  0
VERTEX
  8
0
 10
506.576364
 20
883.8529550000001
 30
0
  0
VERTEX
  8
0
 10
508.165364
 20
884.5329550000001
 30
0
  0
VERTEX
  8
0
 10
509.7563640000001
 20
885.1929550000002
 30
0
  0
VERTEX
  8
0
 10
511.3503639999999
 20
885.8529550000001
 30
0
  0
VERTEX
  8
0
 10
512.9463639999999
 20
886.5129550000002
 30
0
  0
VERTEX
  8
0
 10
514.5443640000001
 20
887.1629550000002
 30
0
  0
VERTEX
  8
0
 10
516.145364
 20
887.8029550000001
 30
0
  0
VERTEX
  8
0
 10
517.748364
 20
888.4429550000002
 30
0
  0
VERTEX
  8
0
 10
519.3533640000001
 20
889.0829550000001
 30
0
  0
VERTEX
  8
0
 10
520.960364
 20
889.7029550000002
 30
0
  0
VERTEX
  8
0
 10
522.569364
 20
890.3229550000001
 30
0
  0
VERTEX
  8
0
 10
524.181364
 20
890.9429550000002
 30
0
  0
VERTEX
  8
0
 10
525.7943640000001
 20
891.5529550000001
 30
0
  0
VERTEX
  8
0
 10
527.4103640000001
 20
892.1629550000002
 30
0
  0
VERTEX
  8
0
 10
529.028364
 20
892.7629550000002
 30
0
  0
VERTEX
  8
0
 10
530.6483639999999
 20
893.3529550000001
 30
0
  0
VERTEX
  8
0
 10
532.270364
 20
893.9429550000002
 30
0
  0
VERTEX
  8
0
 10
533.893364
 20
894.5229550000001
 30
0
  0
VERTEX
  8
0
 10
535.519364
 20
895.1029550000001
 30
0
  0
VERTEX
  8
0
 10
537.1473639999999
 20
895.6829550000002
 30
0
  0
VERTEX
  8
0
 10
538.7763640000001
 20
896.2429550000002
 30
0
  0
VERTEX
  8
0
 10
540.4073639999999
 20
896.8129550000001
 30
0
  0
VERTEX
  8
0
 10
542.0413639999999
 20
897.3629550000003
 30
0
  0
VERTEX
  8
0
 10
543.675364
 20
897.9229550000002
 30
0
  0
VERTEX
  8
0
 10
545.3123639999999
 20
898.4729550000002
 30
0
  0
VERTEX
  8
0
 10
546.950364
 20
899.0129550000002
 30
0
  0
VERTEX
  8
0
 10
548.5903639999999
 20
899.5529550000001
 30
0
  0
VERTEX
  8
0
 10
550.231364
 20
900.0829550000001
 30
0
  0
VERTEX
  8
0
 10
551.875364
 20
900.6129550000003
 30
0
  0
VERTEX
  8
0
 10
553.519364
 20
901.1329550000003
 30
0
  0
VERTEX
  8
0
 10
555.165364
 20
901.6529550000003
 30
0
  0
VERTEX
  8
0
 10
556.8133640000001
 20
902.1729550000002
 30
0
  0
VERTEX
  8
0
 10
558.462364
 20
902.6829550000002
 30
0
  0
VERTEX
  8
0
 10
560.1123640000001
 20
903.1929550000002
 30
0
  0
VERTEX
  8
0
 10
561.7643639999999
 20
903.6929550000002
 30
0
  0
VERTEX
  8
0
 10
563.4173639999999
 20
904.1929550000002
 30
0
  0
VERTEX
  8
0
 10
565.0723640000001
 20
904.6829550000002
 30
0
  0
VERTEX
  8
0
 10
566.7273640000001
 20
905.1729550000002
 30
0
  0
VERTEX
  8
0
 10
568.384364
 20
905.6629550000002
 30
0
  0
VERTEX
  8
0
 10
570.0433640000001
 20
906.1429550000003
 30
0
  0
VERTEX
  8
0
 10
571.702364
 20
906.6229550000003
 30
0
  0
VERTEX
  8
0
 10
573.3623640000001
 20
907.0929550000001
 30
0
  0
VERTEX
  8
0
 10
575.0243640000001
 20
907.5629550000001
 30
0
  0
VERTEX
  8
0
 10
576.6863639999999
 20
908.0329550000001
 30
0
  0
VERTEX
  8
0
 10
578.3503639999999
 20
908.4929550000002
 30
0
  0
VERTEX
  8
0
 10
580.011364
 20
908.9529550000002
 30
0
  0
VERTEX
  8
0
 10
581.681364
 20
909.4029550000003
 30
0
  0
VERTEX
  8
0
 10
583.3513640000001
 20
909.8629550000003
 30
0
  0
VERTEX
  8
0
 10
585.011364
 20
910.3129550000001
 30
0
  0
VERTEX
  8
0
 10
586.681364
 20
910.7529550000002
 30
0
  0
VERTEX
  8
0
 10
588.3513640000001
 20
911.1929550000002
 30
0
  0
VERTEX
  8
0
 10
590.021364
 20
911.6329550000003
 30
0
  0
VERTEX
  8
0
 10
591.691364
 20
912.0729550000001
 30
0
  0
VERTEX
  8
0
 10
593.3613640000001
 20
912.5029550000002
 30
0
  0
VERTEX
  8
0
 10
595.0313639999999
 20
912.9329550000002
 30
0
  0
VERTEX
  8
0
 10
596.711364
 20
913.3529550000001
 30
0
  0
VERTEX
  8
0
 10
598.3813640000001
 20
913.7729550000001
 30
0
  0
VERTEX
  8
0
 10
600.0613639999999
 20
914.1929550000002
 30
0
  0
VERTEX
  8
0
 10
601.731364
 20
914.6129550000003
 30
0
  0
VERTEX
  8
0
 10
603.4113640000001
 20
915.0229550000001
 30
0
  0
VERTEX
  8
0
 10
605.0813639999999
 20
915.4329550000002
 30
0
  0
VERTEX
  8
0
 10
606.761364
 20
915.8329550000001
 30
0
  0
VERTEX
  8
0
 10
608.441364
 20
916.2429550000002
 30
0
  0
VERTEX
  8
0
 10
610.1213640000001
 20
916.6429550000003
 30
0
  0
VERTEX
  8
0
 10
611.8013639999999
 20
917.0329550000001
 30
0
  0
VERTEX
  8
0
 10
613.481364
 20
917.4329550000002
 30
0
  0
VERTEX
  8
0
 10
615.1613640000001
 20
917.8229550000001
 30
0
  0
VERTEX
  8
0
 10
616.8413640000001
 20
918.2029550000002
 30
0
  0
VERTEX
  8
0
 10
618.521364
 20
918.5929550000001
 30
0
  0
VERTEX
  8
0
 10
620.211364
 20
918.9729550000002
 30
0
  0
VERTEX
  8
0
 10
621.8913640000001
 20
919.3529550000001
 30
0
  0
VERTEX
  8
0
 10
623.5713639999999
 20
919.7229550000002
 30
0
  0
VERTEX
  8
0
 10
625.261364
 20
920.1029550000001
 30
0
  0
VERTEX
  8
0
 10
626.941364
 20
920.4729550000002
 30
0
  0
VERTEX
  8
0
 10
628.6313640000001
 20
920.8329550000001
 30
0
  0
VERTEX
  8
0
 10
630.3213639999999
 20
921.2029550000002
 30
0
  0
VERTEX
  8
0
 10
632.011364
 20
921.5629550000001
 30
0
  0
VERTEX
  8
0
 10
633.691364
 20
921.9129550000002
 30
0
  0
VERTEX
  8
0
 10
635.3813640000001
 20
922.2729550000001
 30
0
  0
VERTEX
  8
0
 10
637.0713639999999
 20
922.6229550000003
 30
0
  0
VERTEX
  8
0
 10
638.761364
 20
922.9729550000002
 30
0
  0
VERTEX
  8
0
 10
640.451364
 20
923.3229550000001
 30
0
  0
VERTEX
  8
0
 10
642.1413640000001
 20
923.6629550000002
 30
0
  0
VERTEX
  8
0
 10
643.8313639999999
 20
924.0029550000002
 30
0
  0
VERTEX
  8
0
 10
645.5313639999999
 20
924.3429550000001
 30
0
  0
VERTEX
  8
0
 10
647.221364
 20
924.6729550000002
 30
0
  0
VERTEX
  8
0
 10
648.9113640000001
 20
925.0129550000002
 30
0
  0
VERTEX
  8
0
 10
650.6113640000001
 20
925.3429550000001
 30
0
  0
VERTEX
  8
0
 10
652.3013639999999
 20
925.6629550000002
 30
0
  0
VERTEX
  8
0
 10
654.001364
 20
925.9929550000002
 30
0
  0
VERTEX
  8
0
 10
655.691364
 20
926.3129550000001
 30
0
  0
VERTEX
  8
0
 10
657.3913640000001
 20
926.6329550000003
 30
0
  0
VERTEX
  8
0
 10
659.0813639999999
 20
926.9529550000002
 30
0
  0
VERTEX
  8
0
 10
660.7813639999999
 20
927.2629550000002
 30
0
  0
VERTEX
  8
0
 10
662.481364
 20
927.5729550000001
 30
0
  0
VERTEX
  8
0
 10
664.171364
 20
927.8829550000003
 30
0
  0
VERTEX
  8
0
 10
665.8713640000001
 20
928.1929550000002
 30
0
  0
VERTEX
  8
0
 10
667.5713639999999
 20
928.4929550000002
 30
0
  0
VERTEX
  8
0
 10
669.271364
 20
928.7929550000001
 30
0
  0
VERTEX
  8
0
 10
670.971364
 20
929.0929550000001
 30
0
  0
VERTEX
  8
0
 10
672.671364
 20
929.3929550000003
 30
0
  0
VERTEX
  8
0
 10
674.3713640000001
 20
929.6929550000002
 30
0
  0
VERTEX
  8
0
 10
676.0713639999999
 20
929.9829550000002
 30
0
  0
VERTEX
  8
0
 10
677.771364
 20
930.2729550000001
 30
0
  0
VERTEX
  8
0
 10
679.471364
 20
930.5529550000001
 30
0
  0
VERTEX
  8
0
 10
681.171364
 20
930.8429550000001
 30
0
  0
VERTEX
  8
0
 10
682.8813640000001
 20
931.1229550000003
 30
0
  0
VERTEX
  8
0
 10
684.5813639999999
 20
931.4029550000003
 30
0
  0
VERTEX
  8
0
 10
686.2813639999999
 20
931.6829550000002
 30
0
  0
VERTEX
  8
0
 10
687.991364
 20
931.9629550000002
 30
0
  0
VERTEX
  8
0
 10
689.691364
 20
932.2329550000002
 30
0
  0
VERTEX
  8
0
 10
691.3913640000001
 20
932.5129550000002
 30
0
  0
VERTEX
  8
0
 10
693.1013640000001
 20
932.7829550000001
 30
0
  0
VERTEX
  8
0
 10
694.8013639999999
 20
933.0429550000001
 30
0
  0
VERTEX
  8
0
 10
696.511364
 20
933.3129550000001
 30
0
  0
VERTEX
  8
0
 10
698.211364
 20
933.5729550000001
 30
0
  0
VERTEX
  8
0
 10
699.921364
 20
933.8429550000001
 30
0
  0
VERTEX
  8
0
 10
701.6313640000001
 20
934.1029550000001
 30
0
  0
VERTEX
  8
0
 10
703.3313639999999
 20
934.3529550000001
 30
0
  0
VERTEX
  8
0
 10
705.0413639999999
 20
934.6129550000003
 30
0
  0
VERTEX
  8
0
 10
706.751364
 20
934.8629550000003
 30
0
  0
VERTEX
  8
0
 10
708.451364
 20
935.1229550000003
 30
0
  0
VERTEX
  8
0
 10
710.1613640000001
 20
935.3729550000003
 30
0
  0
VERTEX
  8
0
 10
711.8713640000001
 20
935.6129550000003
 30
0
  0
VERTEX
  8
0
 10
713.5813639999999
 20
935.8629550000003
 30
0
  0
VERTEX
  8
0
 10
715.2913639999999
 20
936.1129550000003
 30
0
  0
VERTEX
  8
0
 10
717.001364
 20
936.3529550000001
 30
0
  0
VERTEX
  8
0
 10
718.701364
 20
936.5929550000001
 30
0
  0
VERTEX
  8
0
 10
720.4113640000001
 20
936.8329550000001
 30
0
  0
VERTEX
  8
0
 10
722.1213640000001
 20
937.0729550000001
 30
0
  0
VERTEX
  8
0
 10
723.8313639999999
 20
937.3029550000001
 30
0
  0
VERTEX
  8
0
 10
725.5413639999999
 20
937.5429550000001
 30
0
  0
VERTEX
  8
0
 10
727.251364
 20
937.7729550000001
 30
0
  0
VERTEX
  8
0
 10
728.961364
 20
938.0029550000002
 30
0
  0
VERTEX
  8
0
 10
730.671364
 20
938.2329550000002
 30
0
  0
VERTEX
  8
0
 10
732.3913640000001
 20
938.4529550000002
 30
0
  0
VERTEX
  8
0
 10
734.1013640000001
 20
938.6829550000002
 30
0
  0
VERTEX
  8
0
 10
735.8113639999999
 20
938.9029550000003
 30
0
  0
VERTEX
  8
0
 10
737.521364
 20
939.1229550000003
 30
0
  0
VERTEX
  8
0
 10
739.231364
 20
939.3429550000001
 30
0
  0
VERTEX
  8
0
 10
740.941364
 20
939.5629550000001
 30
0
  0
VERTEX
  8
0
 10
742.6613640000001
 20
939.7729550000001
 30
0
  0
VERTEX
  8
0
 10
744.3713640000001
 20
939.9829550000002
 30
0
  0
VERTEX
  8
0
 10
746.0813639999999
 20
940.2029550000002
 30
0
  0
VERTEX
  8
0
 10
747.8013639999999
 20
940.4129550000002
 30
0
  0
VERTEX
  8
0
 10
749.511364
 20
940.6129550000003
 30
0
  0
VERTEX
  8
0
 10
751.221364
 20
940.8229550000001
 30
0
  0
VERTEX
  8
0
 10
752.941364
 20
941.0329550000001
 30
0
  0
VERTEX
  8
0
 10
754.6513640000001
 20
941.2329550000002
 30
0
  0
VERTEX
  8
0
 10
756.3613640000001
 20
941.4329550000002
 30
0
  0
VERTEX
  8
0
 10
758.0813639999999
 20
941.6329550000003
 30
0
  0
VERTEX
  8
0
 10
759.7913639999999
 20
941.8329550000001
 30
0
  0
VERTEX
  8
0
 10
761.511364
 20
942.0229550000001
 30
0
  0
VERTEX
  8
0
 10
763.221364
 20
942.2229550000002
 30
0
  0
VERTEX
  8
0
 10
764.941364
 20
942.4129550000002
 30
0
  0
VERTEX
  8
0
 10
766.6513640000001
 20
942.6029550000001
 30
0
  0
VERTEX
  8
0
 10
768.3713640000001
 20
942.7929550000001
 30
0
  0
VERTEX
  8
0
 10
770.0813639999999
 20
942.9829550000002
 30
0
  0
VERTEX
  8
0
 10
771.8013639999999
 20
943.1629550000002
 30
0
  0
VERTEX
  8
0
 10
773.521364
 20
943.3529550000001
 30
0
  0
VERTEX
  8
0
 10
775.231364
 20
943.5329550000001
 30
0
  0
VERTEX
  8
0
 10
776.951364
 20
943.7129550000002
 30
0
  0
VERTEX
  8
0
 10
778.671364
 20
943.8929550000003
 30
0
  0
VERTEX
  8
0
 10
780.3813640000001
 20
944.0629550000001
 30
0
  0
VERTEX
  8
0
 10
782.1013640000001
 20
944.2429550000002
 30
0
  0
VERTEX
  8
0
 10
783.8213639999999
 20
944.4129550000002
 30
0
  0
VERTEX
  8
0
 10
785.5313639999999
 20
944.5829550000001
 30
0
  0
VERTEX
  8
0
 10
787.251364
 20
944.7529550000002
 30
0
  0
VERTEX
  8
0
 10
788.971364
 20
944.9229550000002
 30
0
  0
VERTEX
  8
0
 10
790.691364
 20
945.0929550000001
 30
0
  0
VERTEX
  8
0
 10
792.4113640000001
 20
945.2529550000002
 30
0
  0
VERTEX
  8
0
 10
794.1213640000001
 20
945.4229550000002
 30
0
  0
VERTEX
  8
0
 10
795.8413640000001
 20
945.5829550000001
 30
0
  0
VERTEX
  8
0
 10
797.5613639999999
 20
945.7429550000002
 30
0
  0
VERTEX
  8
0
 10
799.2813639999999
 20
945.9029550000003
 30
0
  0
VERTEX
  8
0
 10
801.001364
 20
946.0529550000001
 30
0
  0
VERTEX
  8
0
 10
802.721364
 20
946.2129550000002
 30
0
  0
VERTEX
  8
0
 10
804.441364
 20
946.3629550000003
 30
0
  0
VERTEX
  8
0
 10
806.1513640000001
 20
946.5129550000002
 30
0
  0
VERTEX
  8
0
 10
807.8713640000001
 20
946.6629550000002
 30
0
  0
VERTEX
  8
0
 10
809.5913640000001
 20
946.8129550000001
 30
0
  0
VERTEX
  8
0
 10
811.3113639999999
 20
946.9629550000002
 30
0
  0
VERTEX
  8
0
 10
813.0313639999999
 20
947.1029550000001
 30
0
  0
VERTEX
  8
0
 10
814.751364
 20
947.2529550000002
 30
0
  0
VERTEX
  8
0
 10
816.471364
 20
947.3929550000003
 30
0
  0
VERTEX
  8
0
 10
818.191364
 20
947.5329550000001
 30
0
  0
VERTEX
  8
0
 10
819.9113640000001
 20
947.6729550000002
 30
0
  0
VERTEX
  8
0
 10
821.6313640000001
 20
947.8029550000001
 30
0
  0
VERTEX
  8
0
 10
823.3513640000001
 20
947.9429550000002
 30
0
  0
VERTEX
  8
0
 10
825.0713639999999
 20
948.0729550000001
 30
0
  0
VERTEX
  8
0
 10
826.7913639999999
 20
948.2029550000002
 30
0
  0
VERTEX
  8
0
 10
828.511364
 20
948.3429550000001
 30
0
  0
VERTEX
  8
0
 10
830.231364
 20
948.4629550000002
 30
0
  0
VERTEX
  8
0
 10
831.961364
 20
948.5929550000001
 30
0
  0
VERTEX
  8
0
 10
833.681364
 20
948.7229550000002
 30
0
  0
VERTEX
  8
0
 10
835.4013640000001
 20
948.8429550000001
 30
0
  0
VERTEX
  8
0
 10
837.1213640000001
 20
948.9729550000002
 30
0
  0
VERTEX
  8
0
 10
838.8413640000001
 20
949.0929550000001
 30
0
  0
VERTEX
  8
0
 10
840.5613639999999
 20
949.2129550000002
 30
0
  0
VERTEX
  8
0
 10
842.2813639999999
 20
949.3329550000001
 30
0
  0
VERTEX
  8
0
 10
844.001364
 20
949.4429550000002
 30
0
  0
VERTEX
  8
0
 10
845.731364
 20
949.5629550000001
 30
0
  0
VERTEX
  8
0
 10
847.451364
 20
949.6829550000002
 30
0
  0
VERTEX
  8
0
 10
849.171364
 20
949.7929550000001
 30
0
  0
VERTEX
  8
0
 10
850.8913640000001
 20
949.9029550000003
 30
0
  0
VERTEX
  8
0
 10
852.6113640000001
 20
950.0129550000002
 30
0
  0
VERTEX
  8
0
 10
854.3313639999999
 20
950.1229550000003
 30
0
  0
VERTEX
  8
0
 10
856.0613639999999
 20
950.2329550000002
 30
0
  0
VERTEX
  8
0
 10
857.7813639999999
 20
950.3429550000001
 30
0
  0
VERTEX
  8
0
 10
859.501364
 20
950.4529550000002
 30
0
  0
VERTEX
  8
0
 10
861.221364
 20
950.5529550000001
 30
0
  0
VERTEX
  8
0
 10
862.951364
 20
950.6629550000002
 30
0
  0
VERTEX
  8
0
 10
864.671364
 20
950.7629550000002
 30
0
  0
VERTEX
  8
0
 10
866.3913640000001
 20
950.8629550000003
 30
0
  0
VERTEX
  8
0
 10
868.1113640000001
 20
950.9629550000002
 30
0
  0
VERTEX
  8
0
 10
869.8413640000001
 20
951.0629550000001
 30
0
  0
VERTEX
  8
0
 10
871.5613639999999
 20
951.1629550000002
 30
0
  0
VERTEX
  8
0
 10
873.2813639999999
 20
951.2629550000002
 30
0
  0
VERTEX
  8
0
 10
875.001364
 20
951.3629550000003
 30
0
  0
VERTEX
  8
0
 10
876.731364
 20
951.4529550000002
 30
0
  0
VERTEX
  8
0
 10
878.451364
 20
951.5529550000001
 30
0
  0
VERTEX
  8
0
 10
880.171364
 20
951.6429550000003
 30
0
  0
VERTEX
  8
0
 10
881.9013640000001
 20
951.7429550000002
 30
0
  0
VERTEX
  8
0
 10
883.6213640000001
 20
951.8329550000001
 30
0
  0
VERTEX
  8
0
 10
885.3413640000001
 20
951.9229550000002
 30
0
  0
VERTEX
  8
0
 10
887.0613639999999
 20
952.0229550000001
 30
0
  0
VERTEX
  8
0
 10
888.7913639999999
 20
952.1129550000003
 30
0
  0
VERTEX
  8
0
 10
890.511364
 20
952.2029550000002
 30
0
  0
VERTEX
  8
0
 10
892.231364
 20
952.2929550000001
 30
0
  0
VERTEX
  8
0
 10
893.961364
 20
952.3729550000003
 30
0
  0
VERTEX
  8
0
 10
895.681364
 20
952.4629550000002
 30
0
  0
VERTEX
  8
0
 10
897.4013640000001
 20
952.5529550000001
 30
0
  0
VERTEX
  8
0
 10
899.1313640000001
 20
952.6429550000003
 30
0
  0
VERTEX
  8
0
 10
900.8513640000001
 20
952.7229550000002
 30
0
  0
VERTEX
  8
0
 10
902.5713639999999
 20
952.8129550000001
 30
0
  0
VERTEX
  8
0
 10
904.3013639999999
 20
952.8929550000003
 30
0
  0
VERTEX
  8
0
 10
906.021364
 20
952.9829550000002
 30
0
  0
VERTEX
  8
0
 10
907.751364
 20
953.0629550000001
 30
0
  0
VERTEX
  8
0
 10
909.471364
 20
953.1529550000003
 30
0
  0
VERTEX
  8
0
 10
911.191364
 20
953.2329550000002
 30
0
  0
VERTEX
  8
0
 10
912.921364
 20
953.3129550000001
 30
0
  0
VERTEX
  8
0
 10
914.6413640000001
 20
953.4029550000003
 30
0
  0
VERTEX
  8
0
 10
916.3613640000001
 20
953.4829550000002
 30
0
  0
VERTEX
  8
0
 10
918.0913640000001
 20
953.5629550000001
 30
0
  0
VERTEX
  8
0
 10
919.8113639999999
 20
953.6429550000003
 30
0
  0
VERTEX
  8
0
 10
921.5413639999999
 20
953.7229550000002
 30
0
  0
VERTEX
  8
0
 10
923.261364
 20
953.8029550000001
 30
0
  0
VERTEX
  8
0
 10
924.981364
 20
953.8929550000003
 30
0
  0
VERTEX
  8
0
 10
926.711364
 20
953.9729550000002
 30
0
  0
VERTEX
  8
0
 10
928.431364
 20
954.0529550000001
 30
0
  0
VERTEX
  8
0
 10
930.1613640000001
 20
954.1329550000003
 30
0
  0
VERTEX
  8
0
 10
931.8813640000001
 20
954.2129550000002
 30
0
  0
VERTEX
  8
0
 10
933.6013640000001
 20
954.2929550000001
 30
0
  0
VERTEX
  8
0
 10
935.3313639999999
 20
954.3729550000003
 30
0
  0
VERTEX
  8
0
 10
937.0513639999999
 20
954.4529550000002
 30
0
  0
VERTEX
  8
0
 10
938.771364
 20
954.5329550000001
 30
0
  0
VERTEX
  8
0
 10
940.501364
 20
954.6129550000003
 30
0
  0
SEQEND
  8
0
  0
LINE
  8
MITTELLINIEN
 62
3
  6
DASHDOT
 10
1079.489955
 20
581
 30
0
 11
889.8219810000001
 21
581
 31
0
  0
LINE
  8
MITTELLINIEN
 62
3
  6
DASHDOT
 10
985.5
 20
674.9899550000001
 30
0
 11
985.5
 21
485.3219810000001
 31
0
  0
LINE
  8
GEOMETRIE
 62
7
 10
1655.773803
 20
319.7042410000004
 30
0
 11
1691.113893
 21
336.0194230000002
 31
0
  0
LINE
  8
GEOMETRIE
 62
7
 10
1596.485545
 20
372.5688850000004
 30
0
 11
1544.615788
 21
402.8831290000003
 31
0
  0
LINE
  8
GEOMETRIE
 62
7
 10
1596.485545
 20
789.1194100000002
 30
0
 11
1544.615788
 21
758.8051650000002
 31
0
  0
LINE
  8
GEOMETRIE
 62
7
 10
1655.773803
 20
841.9840540000002
 30
0
 11
1691.113893
 21
825.6688720000002
 31
0
  0
LINE
  8
GEOMETRIE
 62
7
 10
374.5144549999999
 20
372.5688850000004
 30
0
 11
455.7605179999998
 21
415.3745070000002
 31
0
  0
LINE
  8
GEOMETRIE
 62
7
 10
374.5144549999999
 20
789.1194100000002
 30
0
 11
455.7605179999998
 21
746.3137870000003
 31
0
  0
LINE
  8
GEOMETRIE
 62
7
 10
374.5144549999999
 20
372.5688850000004
 30
0
 11
315.2261969999998
 21
319.7042410000004
 31
0
  0
LINE
  8
GEOMETRIE
 62
7
 10
315.2261969999998
 20
319.7042410000004
 30
0
 11
279.8861069999998
 21
336.0194230000002
 31
0
  0
LINE
  8
GEOMETRIE
 62
7
 10
455.7605179999998
 20
415.3745070000002
 30
0
 11
268.5712579999998
 21
330.9141270000002
 31
0
  0
LINE
  8
GEOMETRIE
 62
7
 10
315.2261969999998
 20
841.9840540000002
 30
0
 11
279.8861069999998
 21
825.6688720000002
 31
0
  0
LINE
  8
GEOMETRIE
 62
7
 10
1596.485545
 20
372.5688850000004
 30
0
 11
1655.773803
 21
319.7042410000004
 31
0
  0
LINE
  8
GEOMETRIE
 62
7
 10
1596.485545
 20
789.1194100000002
 30
0
 11
1655.773803
 21
841.9840540000002
 31
0
  0
LINE
  8
GEOMETRIE
 62
7
 10
455.7605179999998
 20
746.3137870000003
 30
0
 11
268.5712579999998
 21
830.7741680000002
 31
0
  0
LINE
  8
GEOMETRIE
 62
7
 10
374.5144549999999
 20
789.1194100000002
 30
0
 11
315.2261969999998
 21
841.9840540000002
 31
0
  0
LINE
  8
GEOMETRIE
 62
7
 10
1547.287976
 20
400.9141270000002
 30
0
 11
1702.428743
 21
330.9141270000002
 31
0
  0
LINE
  8
GEOMETRIE
 62
7
 10
1547.287976
 20
760.7741680000002
 30
0
 11
1702.428743
 21
830.7741680000002
 31
0
  0
LINE
  8
1
 62
7
 10
985.5
 20
1600.000000000001
 30
0
 11
1960.232647717261
 21
625.2673522827397
 31
0
  0
LINE
  8
1
 62
7
 10
985.5
 20
1600.000000000001
 30
0
 11
10.76735228273901
 21
625.267352282739
 31
0
  0
ARC
  8
GEOMETRIE
 62
7
 10
485.672735
 20
580.8441470000003
 30
0
 40
330.0000000000003
 50
137.689029
 51
180
  0
ARC
  8
GEOMETRIE
 62
7
 10
985.5
 20
1449.688295
 30
0
 40
1355
 50
248.279513
 51
270
  0
ARC
  8
GEOMETRIE
 62
7
 10
985.5
 20
-287.9999999999997
 30
0
 40
1355
 50
68.27951300000001
 51
90
  0
ARC
  8
GEOMETRIE
 62
7
 10
1485.327265
 20
580.8441470000003
 30
0
 40
330.0000000000002
 50
317.689029
 51
0
  0
ARC
  8
1
 62
7
 10
1249.610442087965
 20
802.8163518906713
 30
0
 40
751.0000000000001
 50
314.9999999999999
 51
343.4433336879553
  0
ARC
  8
GEOMETRIE
 62
7
 10
1254.734572
 20
795.8223960000003
 30
0
 40
630.0000000000001
 50
249.1496769999999
 51
298.911714
  0
ARC
  8
HILFSLINIEN
 62
7
 10
1244.42543
 20
799.6461600000002
 30
0
 40
630.0000000000002
 50
250.1496769999999
 51
299.911714
  0
ARC
  8
GEOMETRIE
 62
7
 10
1182.417547000002
 20
926.7611820000011
 30
0
 40
779.5818099999995
 50
298.9117139999998
 51
310.7322209999998
  0
ARC
  8
HILFSLINIEN
 62
7
 10
801.1657780000001
 20
929.3028980000001
 30
0
 40
779.58181
 50
231.4400129999999
 51
240.088286
  0
ARC
  8
GEOMETRIE
 62
7
 10
788.582453
 20
926.7611820000002
 30
0
 40
779.5818099999999
 50
229.2677789999999
 51
241.088286
  0
ARC
  8
GEOMETRIE
 62
7
 10
716.2654279999999
 20
795.8223960000003
 30
0
 40
630
 50
241.088286
 51
290.850323
  0
ARC
  8
HILFSLINIEN
 62
7
 10
726.57457
 20
799.6461600000002
 30
0
 40
630.0000000000002
 50
240.088286
 51
289.850323
  0
ARC
  8
GEOMETRIE
 62
7
 10
1119.22331
 20
96.2784980000003
 30
0
 40
5.000000000000071
 50
95.64278000000256
 51
160.772152999998
  0
ARC
  8
GEOMETRIE
 62
7
 10
851.7766899999999
 20
96.2784980000003
 30
0
 40
5.000000000000761
 50
19.22784699999777
 51
84.35721999999745
  0
ARC
  8
GEOMETRIE
 62
7
 10
1020.080586
 20
130.8576860000003
 30
0
 40
100.0000000000001
 50
290.2309959999999
 51
340.772153
  0
ARC
  8
GEOMETRIE
 62
7
 10
985.5
 20
224.6882950000003
 30
0
 40
199.9999999999999
 50
249.769004
 51
290.230996
  0
ARC
  8
GEOMETRIE
 62
7
 10
950.9194150000001
 20
130.8576860000003
 30
0
 40
99.99999999999999
 50
199.227847
 51
249.7690039999999
  0
ARC
  8
HILFSLINIEN
 62
7
 10
1169.834223000002
 20
929.3028980000022
 30
0
 40
779.5818100000004
 50
299.9117139999999
 51
308.5599869999998
  0
ARC
  8
GEOMETRIE
 62
7
 10
716.2654279999999
 20
365.8658980000002
 30
0
 40
630.0000000000001
 50
69.14967699999995
 51
118.911714
  0
ARC
  8
GEOMETRIE
 62
7
 10
788.582453
 20
234.9271130000003
 30
0
 40
779.5818100000003
 50
118.911714
 51
130.732221
  0
ARC
  8
HILFSLINIEN
 62
7
 10
801.1657780000039
 20
232.385397000003
 30
0
 40
779.5818100000004
 50
119.9117140000003
 51
128.5599870000004
  0
ARC
  8
HILFSLINIEN
 62
7
 10
726.57457
 20
362.0421340000003
 30
0
 40
629.9999999999998
 50
70.14967700000004
 51
119.9117140000001
  0
ARC
  8
GEOMETRIE
 62
7
 10
1254.734572
 20
365.8658980000002
 30
0
 40
629.9999999999997
 50
61.08828600000003
 51
110.850323
  0
ARC
  8
GEOMETRIE
 62
7
 10
1182.417547
 20
234.9271130000003
 30
0
 40
779.58181
 50
49.26777900000003
 51
61.08828599999998
  0
ARC
  8
HILFSLINIEN
 62
7
 10
1169.834223
 20
232.3853970000002
 30
0
 40
779.5818099999999
 50
51.440013
 51
60.08828599999998
  0
ARC
  8
HILFSLINIEN
 62
7
 10
1244.42543
 20
362.0421340000003
 30
0
 40
629.9999999999999
 50
60.08828599999995
 51
109.850323
  0
ARC
  8
GEOMETRIE
 62
7
 10
1244.220909
 20
361.4608620000004
 30
0
 40
655.9034970000002
 50
42.31097100000002
 51
68.27951299999995
  0
ARC
  8
GEOMETRIE
 62
7
 10
985.5
 20
-287.9999999999997
 30
0
 40
1355
 50
90
 51
111.720487
  0
ARC
  8
GEOMETRIE
 62
7
 10
726.7790910000001
 20
361.4608620000004
 30
0
 40
655.9034969999995
 50
111.720487
 51
137.689029
  0
ARC
  8
GEOMETRIE
 62
7
 10
726.7790910000001
 20
800.2274320000001
 30
0
 40
655.9034970000001
 50
222.310971
 51
248.279513
  0
ARC
  8
GEOMETRIE
 62
7
 10
985.5
 20
1449.688295
 30
0
 40
1355
 50
270
 51
291.720487
  0
ARC
  8
GEOMETRIE
 62
7
 10
1244.220909
 20
800.2274320000001
 30
0
 40
655.903497
 50
291.7204870000001
 51
317.689029
  0
ARC
  8
GEOMETRIE
 62
7
 10
1485.327265
 20
580.8441470000003
 30
0
 40
330
 50
0
 51
42.31097100000002
  0
ARC
  8
HILFSLINIEN
 62
7
 10
1323.1
 20
580.8441470000003
 30
0
 40
280
 50
291.3395860000001
 51
68.66041399999996
  0
ARC
  8
HILFSLINIEN
 62
7
 10
1004.55
 20
1396.217646
 30
0
 40
1155.390224
 50
248.660414
 51
291.3395859999999
  0
ARC
  8
HILFSLINIEN
 62
7
 10
1004.55
 20
-234.5293509999997
 30
0
 40
1155.390224
 50
68.660414
 51
111.339586
  0
ARC
  8
HILFSLINIEN
 62
7
 10
686
 20
580.8441470000003
 30
0
 40
280
 50
111.339586
 51
248.660414
  0
ARC
  8
GEOMETRIE
 62
7
 10
485.682735
 20
580.8441470000003
 30
0
 40
330
 50
180
 51
222.310971
  0
ARC
  8
1
 62
7
 10
721.3895579120349
 20
802.8163518906713
 30
0
 40
751.0000000000006
 50
196.5566663120447
 51
225
  0
ARC
  8
1
 62
7
 10
721.3895579120349
 20
802.8163518906713
 30
0
 40
751.0000000000011
 50
225
 51
247.8000237172777
  0
ARC
  8
1
 62
7
 10
985.5
 20
1450
 30
0
 40
1450.000000000001
 50
247.8000237172776
 51
270
  0
ARC
  8
1
 62
7
 10
985.5
 20
1450
 30
0
 40
1450
 50
270
 51
292.1999762827224
  0
ARC
  8
1
 62
7
 10
1249.610442087965
 20
802.8163518906713
 30
0
 40
750.9999999999999
 50
292.1999762827223
 51
314.9999999999999
  0
CIRCLE
  8
GEOMETRIE
 62
7
 10
985.5
 20
581
 30
0
 40
45
  0
CIRCLE
  8
GEOMETRIE
 62
7
 10
985.5
 20
581
 30
0
 40
54.96428900000001
  0
CIRCLE
  8
GEOMETRIE
 62
7
 10
985.5
 20
581
 30
0
 40
68.39577899999995
  0
CIRCLE
  8
GEOMETRIE
 62
7
 10
985.5
 20
581
 30
0
 40
75.67802000000006
  0
ARC
  8
1
 62
7
 10
36.75352649134402
 20
599.281178074134
 30
0
 40
36.74999999999913
 50
135
 51
180.5037702971473
  0
ARC
  8
1
 62
7
 10
36.75352649134402
 20
599.281178074134
 30
0
 40
36.74999999999999
 50
180.5037702971473
 51
196.5566663120455
  0
ARC
  8
1
 62
7
 10
1934.246473508654
 20
599.281178074134
 30
0
 40
36.75000000000091
 50
343.4433336879566
 51
359.4962297028528
  0
ARC
  8
1
 62
7
 10
1934.246473508654
 20
599.281178074134
 30
0
 40
36.75000000000112
 50
359.4962297028528
 51
44.9999999999985
  0
ENDBLK
  8
0
  0
ENDSEC
  0
SECTION
  2
ENTITIES
  0
TEXT
  8
1
 62
3
 10
1060.5
 20
655.9719851165048
 30
0
 40
35
  1
Ö 90
 41
0.5993999999999999
  0
TEXT
  8
1
 62
2
 10
685.5
 20
435.9719851165046
 30
0
 40
35
  1
MALAGA Trend 441
 41
0.5993999999999999
  0
INSERT
  8
0
  2
DLX
 10
0
 20
0
 30
0
  0
INSERT
  8
0
  2
WANNE_MALAGA_441
 10
-0.3073580000001357
 20
-24.14213499999983
 30
0
  0
ENDSEC
  0
EOF
