  0
SECTION
  2
HEADER
  9
$ACADVER
  1
AC1009
  9
$INSBASE
 10
0
 20
0
  9
$EXTMIN
 10
0
 20
0
  9
$EXTMAX
 10
1971
 20
640
  9
$LIMMIN
 10
0
 20
0
  9
$LIMMAX
 10
1971
 20
640
  9
$VIEWCTR
 10
10
 20
10
  9
$VIEWSIZE
 40
10
  9
$SNAPMODE
 70
0
  9
$SNAPUNIT
 10
1
 20
1
  9
$SNAPBASE
 10
0
 20
0
  9
$SNAPANG
 50
0
  9
$SNAPSTYLE
 70
0
  9
$SNAPISOPAIR
 70
0
  9
$GRIDMODE
 70
0
  9
$GRIDUNIT
 10
0
 20
0
  9
$ORTHOMODE
 70
0
  9
$REGENMODE
 70
1
  9
$FILLMODE
 70
1
  9
$QTEXTMODE
 70
0
  9
$DRAGMODE
 70
2
  9
$LTSCALE
 40
1
  9
$OSMODE
 70
0
  9
$ATTMODE
 70
1
  9
$TEXTSIZE
 40
3.5
  9
$TRACEWID
 40
0.5
  9
$TEXTSTYLE
  7
STANDARD
  9
$CLAYER
  8
0
  9
$CELTYPE
  6
BYLAYER
  9
$CECOLOR
 62
256
  9
$DIMSCALE
 40
1
  9
$DIMASZ
 40
0.18
  9
$DIMEXO
 40
0.0625
  9
$DIMDLI
 40
0.38
  9
$DIMRND
 40
0
  9
$DIMDLE
 40
0
  9
$DIMEXE
 40
0.18
  9
$DIMTP
 40
0
  9
$DIMTM
 40
0
  9
$DIMTXT
 40
0.18
  9
$DIMCEN
 40
0.09
  9
$DIMTSZ
 40
0
  9
$DIMTOL
 70
0
  9
$DIMLIM
 70
0
  9
$DIMTIH
 70
1
  9
$DIMTOH
 70
1
  9
$DIMSE1
 70
0
  9
$DIMSE2
 70
0
  9
$DIMTAD
 70
0
  9
$DIMZIN
 70
0
  9
$DIMBLK
  1

  9
$DIMASO
 70
1
  9
$DIMSHO
 70
1
  9
$DIMPOST
  1

  9
$DIMAPOST
  1

  9
$DIMALT
 70
0
  9
$DIMALTD
 70
2
  9
$DIMALTF
 40
25.4
  9
$DIMLFAC
 40
1
  9
$DIMTOFL
 70
0
  9
$DIMTVP
 40
0
  9
$DIMTIX
 70
0
  9
$DIMSOXD
 70
0
  9
$DIMSAH
 70
0
  9
$DIMBLK1
  1

  9
$DIMBLK2
  1

  9
$DIMSTYLE
  2
*UNNAMED
  9
$DIMCLRD
 70
0
  9
$DIMCLRE
 70
0
  9
$DIMCLRT
 70
0
  9
$DIMTFAC
 40
1
  9
$DIMGAP
 40
0.09
  9
$LUNITS
 70
2
  9
$LUPREC
 70
4
  9
$AXISMODE
 70
0
  9
$AXISUNIT
 10
0
 20
0
  9
$SKETCHINC
 40
0.1
  9
$FILLETRAD
 40
2
  9
$AUNITS
 70
0
  9
$AUPREC
 70
0
  9
$MENU
  1
ACAD
  9
$ELEVATION
 40
0
  9
$THICKNESS
 40
0
  9
$VIEWDIR
 10
0
 20
0
 30
1
  9
$LIMCHECK
 70
0
  9
$BLIPMODE
 70
1
  9
$CHAMFERA
 40
0
  9
$CHAMFERB
 40
0
  9
$FASTZOOM
 70
1
  9
$SKPOLY
 70
0
  9
$ANGBASE
 50
0
  9
$ANGDIR
 70
0
  9
$PDMODE
 70
0
  9
$PDSIZE
 40
0
  9
$PLINEWID
 40
0
  9
$COORDS
 70
2
  0
ENDSEC
  0
SECTION
  2
TABLES
  0
TABLE
  2
DIMSTYLE
 70
0
  0
ENDTAB
  0
TABLE
  2
LTYPE
 70
9
  0
LTYPE
  2
CONTINUOUS
 70
64
  3
Solid line
 72
65
 73
0
 40
0
  0
LTYPE
  2
BORDER
 70
64
  3
__ __ . __ __ .
 72
65
 73
6
 40
90.76973684210527
 49
25.93421052631579
 49
-12.9671052631579
 49
25.93421052631579
 49
-12.9671052631579
 49
0
 49
-12.9671052631579
  0
LTYPE
  2
CENTER
 70
64
  3
____ _ ____ _
 72
65
 73
4
 40
103.7368421052632
 49
64.83552631578948
 49
-12.9671052631579
 49
12.9671052631579
 49
-12.9671052631579
  0
LTYPE
  2
DASHDOT
 70
64
  3
__ . __ . __ .
 72
65
 73
4
 40
51.86842105263158
 49
25.93421052631579
 49
-12.9671052631579
 49
0
 49
-12.9671052631579
  0
LTYPE
  2
DASHED
 70
64
  3
__ __ __ __ __
 72
65
 73
2
 40
38.90131578947369
 49
25.93421052631579
 49
-12.9671052631579
  0
LTYPE
  2
DIVIDE
 70
64
  3
__ . . __ . . 
 72
65
 73
6
 40
64.83552631578948
 49
25.93421052631579
 49
-12.9671052631579
 49
0
 49
-12.9671052631579
 49
0
 49
-12.9671052631579
  0
LTYPE
  2
DOT
 70
64
  3
..............
 72
65
 73
4
 40
25.93421052631579
 49
0
 49
-12.9671052631579
 49
0
 49
-12.9671052631579
  0
LTYPE
  2
HIDDEN
 70
64
  3
_ _ _ _ _ _ _
 72
65
 73
2
 40
19.45065789473684
 49
12.9671052631579
 49
-6.483552631578948
  0
LTYPE
  2
PHANTOM
 70
64
  3
_____ _ _ _____ _ _ 
 72
65
 73
6
 40
129.671052631579
 49
64.83552631578948
 49
-12.9671052631579
 49
12.9671052631579
 49
-12.9671052631579
 49
12.9671052631579
 49
-12.9671052631579
  0
ENDTAB
  0
TABLE
  2
LAYER
 70
4
  0
LAYER
  2
1
 70
0
 62
7
  6
CONTINUOUS
  0
LAYER
  2
GEOMETRIE
 70
0
 62
7
  6
CONTINUOUS
  0
LAYER
  2
0
 70
0
 62
7
  6
CONTINUOUS
  0
ENDTAB
  0
TABLE
  2
STYLE
 70
4
  0
STYLE
  2
STANDARD
 70
0
 40
0
 41
1
 50
0
 71
0
 42
3.5
  3
txt
  4

  0
STYLE
  2
SIMPLEX
 70
0
 40
0
 41
1
 50
0
 71
0
 42
3.5
  3
simplex
  4

  0
STYLE
  2
COMPLEX
 70
0
 40
0
 41
1
 50
0
 71
0
 42
3.5
  3
complex
  4

  0
STYLE
  2
ITALIC
 70
0
 40
0
 41
1
 50
0
 71
0
 42
3.5
  3
italic
  4

  0
ENDTAB
  0
TABLE
  2
VIEW
 70
0
  0
ENDTAB
  0
ENDSEC
  0
SECTION
  2
BLOCKS
  0
BLOCK
  8
0
  2
DLX
 70
0
 10
400
 20
465
 30
0
  0
LINE
  8
1
 62
3
 10
465.3282234693179
 20
511.979895810782
 30
0
 11
465.0328203819372
 21
512.9784478723632
 31
0
  0
LINE
  8
1
 62
3
 10
465.7649031508845
 20
513.7622048583319
 30
0
 11
465.0328203819372
 21
512.9784478723632
 31
0
  0
LINE
  8
1
 62
3
 10
500.7959271195539
 20
483.2377087845271
 30
0
 11
504.1803346104349
 21
497.051175145079
 31
0
  0
LINE
  8
1
 62
3
 10
496.6077729643149
 20
483.2377087845271
 30
0
 11
499.992180455331
 21
497.051175145079
 31
0
  0
LINE
  8
1
 62
3
 10
496.6077729643149
 20
483.2377087845271
 30
0
 11
500.7959271195539
 21
483.2377087845271
 31
0
  0
LINE
  8
1
 62
3
 10
495.5237989051459
 20
478.813466360341
 30
0
 11
499.7119530603338
 21
478.813466360341
 31
0
  0
LINE
  8
1
 62
3
 10
496.3275455694388
 20
465
 30
0
 11
502.6097768023359
 21
465
 31
0
  0
LINE
  8
1
 62
3
 10
499.992180455331
 20
497.051175145079
 30
0
 11
493.7099492224659
 21
497.051175145079
 31
0
  0
LINE
  8
1
 62
3
 10
531.4033366192889
 20
497.051175145079
 30
0
 11
523.55054757827
 21
465
 31
0
  0
LINE
  8
1
 62
3
 10
524.037131327292
 20
492.626932720839
 30
0
 11
518.3522904045678
 21
469.424242424182
 31
0
  0
LINE
  8
1
 62
3
 10
519.8489771720419
 20
492.626932720839
 30
0
 11
524.037131327292
 21
492.626932720839
 31
0
  0
LINE
  8
1
 62
3
 10
531.4033366192889
 20
497.051175145079
 30
0
 11
514.650719998459
 21
497.051175145079
 31
0
  0
LINE
  8
1
 62
3
 10
514.164136249467
 20
469.424242424182
 30
0
 11
519.8489771720419
 21
492.626932720839
 31
0
  0
LINE
  8
1
 62
3
 10
514.650719998459
 20
497.051175145079
 30
0
 11
506.7979309574619
 21
465
 31
0
  0
LINE
  8
1
 62
3
 10
518.3522904045678
 20
469.424242424182
 30
0
 11
514.164136249467
 21
469.424242424182
 31
0
  0
LINE
  8
1
 62
3
 10
506.7979309574619
 20
465
 30
0
 11
523.55054757827
 21
465
 31
0
  0
LINE
  8
1
 62
3
 10
510.4625658433508
 20
497.051175145079
 30
0
 11
504.1803346104349
 21
497.051175145079
 31
0
  0
LINE
  8
1
 62
3
 10
493.7099492224659
 20
497.051175145079
 30
0
 11
485.8571601814729
 21
465
 31
0
  0
LINE
  8
1
 62
3
 10
492.1393914142609
 20
465
 30
0
 11
495.5237989051459
 21
478.813466360341
 31
0
  0
LINE
  8
1
 62
3
 10
496.3275455694388
 20
465
 30
0
 11
499.7119530603338
 21
478.813466360341
 31
0
  0
LINE
  8
1
 62
3
 10
502.6097768023359
 20
465
 30
0
 11
510.4625658433508
 21
497.051175145079
 31
0
  0
LINE
  8
1
 62
3
 10
485.8571601814729
 20
465
 30
0
 11
492.1393914142609
 21
465
 31
0
  0
LINE
  8
1
 62
3
 10
480.5296286865159
 20
485.990569084413
 30
0
 11
486.8118599193219
 21
485.990569084413
 31
0
  0
LINE
  8
1
 62
3
 10
482.1555897753099
 20
492.626932720839
 30
0
 11
480.5296286865159
 21
485.990569084413
 31
0
  0
LINE
  8
1
 62
3
 10
477.9674356201178
 20
492.626932720839
 30
0
 11
482.1555897753099
 21
492.626932720839
 31
0
  0
LINE
  8
1
 62
3
 10
472.2825946974881
 20
469.424242424182
 30
0
 11
477.9674356201178
 21
492.626932720839
 31
0
  0
LINE
  8
1
 62
3
 10
476.4707488526909
 20
469.424242424182
 30
0
 11
472.2825946974881
 21
469.424242424182
 31
0
  0
LINE
  8
1
 62
3
 10
478.0967099414779
 20
476.0606060606083
 30
0
 11
476.4707488526909
 21
469.424242424182
 31
0
  0
LINE
  8
1
 62
3
 10
484.378941174266
 20
476.0606060606083
 30
0
 11
478.0967099414779
 21
476.0606060606083
 31
0
  0
LINE
  8
1
 62
3
 10
481.669006026292
 20
465
 30
0
 11
484.378941174266
 21
476.0606060606083
 31
0
  0
LINE
  8
1
 62
3
 10
464.9163894055382
 20
465
 30
0
 11
481.669006026292
 21
465
 31
0
  0
LINE
  8
1
 62
3
 10
472.7691784465314
 20
497.051175145079
 30
0
 11
464.9163894055382
 21
465
 31
0
  0
LINE
  8
1
 62
3
 10
489.5217950672519
 20
497.051175145079
 30
0
 11
472.7691784465314
 21
497.051175145079
 31
0
  0
LINE
  8
1
 62
3
 10
486.8118599193219
 20
485.990569084413
 30
0
 11
489.5217950672519
 21
497.051175145079
 31
0
  0
LINE
  8
1
 62
3
 10
467.4970502321557
 20
492.626932720839
 30
0
 11
468.581024291314
 21
497.051175145079
 31
0
  0
LINE
  8
1
 62
3
 10
457.0266648441757
 20
492.626932720839
 30
0
 11
467.4970502321557
 21
492.626932720839
 31
0
  0
LINE
  8
1
 62
3
 10
454.5937460991627
 20
482.6969696969529
 30
0
 11
457.0266648441757
 21
492.626932720839
 31
0
  0
LINE
  8
1
 62
3
 10
465.0641314872264
 20
482.6969696969529
 30
0
 11
454.5937460991627
 21
482.6969696969529
 31
0
  0
LINE
  8
1
 62
3
 10
460.7282352503025
 20
465
 30
0
 11
465.0641314872264
 21
482.6969696969529
 31
0
  0
LINE
  8
1
 62
3
 10
443.97561862948
 20
465
 30
0
 11
460.7282352503025
 21
465
 31
0
  0
LINE
  8
1
 62
3
 10
445.0595926887872
 20
469.424242424182
 30
0
 11
443.97561862948
 21
465
 31
0
  0
LINE
  8
1
 62
3
 10
455.5299780766982
 20
469.424242424182
 30
0
 11
445.0595926887872
 21
469.424242424182
 31
0
  0
LINE
  8
1
 62
3
 10
457.6979261951165
 20
478.2727272727971
 30
0
 11
455.5299780766982
 21
469.424242424182
 31
0
  0
LINE
  8
1
 62
3
 10
447.2275408071509
 20
478.2727272727971
 30
0
 11
457.6979261951165
 21
478.2727272727971
 31
0
  0
LINE
  8
1
 62
3
 10
451.8284076705422
 20
497.051175145079
 30
0
 11
447.2275408071509
 21
478.2727272727971
 31
0
  0
LINE
  8
1
 62
3
 10
468.581024291314
 20
497.051175145079
 30
0
 11
451.8284076705422
 21
497.051175145079
 31
0
  0
LINE
  8
1
 62
3
 10
447.6402535153793
 20
497.051175145079
 30
0
 11
439.7874644743642
 21
465
 31
0
  0
LINE
  8
1
 62
3
 10
441.3580222825731
 20
497.051175145079
 30
0
 11
447.6402535153793
 21
497.051175145079
 31
0
  0
LINE
  8
1
 62
3
 10
439.7874644743642
 20
465
 30
0
 11
421.9878093147745
 21
465
 31
0
  0
LINE
  8
1
 62
3
 10
434.5892073007672
 20
469.424242424182
 30
0
 11
441.3580222825731
 21
497.051175145079
 31
0
  0
LINE
  8
1
 62
3
 10
429.3540146067826
 20
469.424242424182
 30
0
 11
434.5892073007672
 21
469.424242424182
 31
0
  0
LINE
  8
1
 62
3
 10
436.1228295885776
 20
497.051175145079
 30
0
 11
429.3540146067826
 21
469.424242424182
 31
0
  0
LINE
  8
1
 62
3
 10
429.8405983557677
 20
497.051175145079
 30
0
 11
436.1228295885776
 21
497.051175145079
 31
0
  0
LINE
  8
1
 62
3
 10
421.9878093147745
 20
465
 30
0
 11
429.8405983557677
 21
497.051175145079
 31
0
  0
LINE
  8
1
 62
3
 10
417.799655159648
 20
465
 30
0
 11
400
 21
465
 31
0
  0
LINE
  8
1
 62
3
 10
428.3623793485675
 20
508.1117812056621
 30
0
 11
417.799655159648
 21
465
 31
0
  0
LINE
  8
1
 62
3
 10
404.3890522712754
 20
508.1117812056621
 30
0
 11
428.3623793485675
 21
508.1117812056621
 31
0
  0
LINE
  8
1
 62
3
 10
403.0340846972904
 20
502.581478175405
 30
0
 11
404.3890522712754
 21
508.1117812056621
 31
0
  0
LINE
  8
1
 62
3
 10
420.7251805418237
 20
502.581478175405
 30
0
 11
403.0340846972904
 21
502.581478175405
 31
0
  0
LINE
  8
1
 62
3
 10
412.6013979859416
 20
469.424242424182
 30
0
 11
420.7251805418237
 21
502.581478175405
 31
0
  0
LINE
  8
1
 62
3
 10
407.3662052920627
 20
469.424242424182
 30
0
 11
412.6013979859416
 21
469.424242424182
 31
0
  0
LINE
  8
1
 62
3
 10
414.1350202737523
 20
497.051175145079
 30
0
 11
407.3662052920627
 21
469.424242424182
 31
0
  0
LINE
  8
1
 62
3
 10
407.8527890410551
 20
497.051175145079
 30
0
 11
414.1350202737523
 21
497.051175145079
 31
0
  0
LINE
  8
1
 62
3
 10
400
 20
465
 30
0
 11
407.8527890410551
 21
497.051175145079
 31
0
  0
LINE
  8
1
 62
3
 10
535.1196812335149
 20
471.1939393939099
 30
0
 11
544.1648417396059
 21
508.1117812056621
 31
0
  0
LINE
  8
1
 62
3
 10
544.1648417396059
 20
508.1117812056621
 30
0
 11
538.301425922338
 21
508.1117812056621
 31
0
  0
LINE
  8
1
 62
3
 10
538.301425922338
 20
508.1117812056621
 30
0
 11
527.738701733397
 21
465
 31
0
  0
LINE
  8
1
 62
3
 10
545.643060746967
 20
497.051175145079
 30
0
 11
539.958219824279
 21
473.848484848477
 31
0
  0
LINE
  8
1
 62
3
 10
539.958219824279
 20
473.848484848477
 30
0
 11
555.6637979062
 21
473.848484848477
 31
0
  0
LINE
  8
1
 62
3
 10
555.6637979062
 20
473.848484848477
 30
0
 11
561.3486388288079
 21
497.051175145079
 31
0
  0
LINE
  8
1
 62
3
 10
561.3486388288079
 20
497.051175145079
 30
0
 11
556.113446134885
 21
497.051175145079
 31
0
  0
LINE
  8
1
 62
3
 10
556.113446134885
 20
497.051175145079
 30
0
 11
551.5125792714898
 21
478.2727272727971
 31
0
  0
LINE
  8
1
 62
3
 10
551.5125792714898
 20
478.2727272727971
 30
0
 11
546.277386577538
 21
478.2727272727971
 31
0
  0
LINE
  8
1
 62
3
 10
546.277386577538
 20
478.2727272727971
 30
0
 11
550.878253440889
 21
497.051175145079
 31
0
  0
LINE
  8
1
 62
3
 10
550.878253440889
 20
497.051175145079
 30
0
 11
545.643060746967
 21
497.051175145079
 31
0
  0
LINE
  8
1
 62
3
 10
567.9069775849489
 20
497.051175145079
 30
0
 11
563.8615313219339
 21
497.051175145079
 31
0
  0
LINE
  8
1
 62
3
 10
563.8615313219339
 20
497.051175145079
 30
0
 11
567.9838268441308
 21
486.4153012186609
 31
0
  0
LINE
  8
1
 62
3
 10
567.9838268441308
 20
486.4153012186609
 30
0
 11
558.1766903993409
 21
473.848484848477
 31
0
  0
LINE
  8
1
 62
3
 10
558.1766903993409
 20
473.848484848477
 30
0
 11
562.222136662338
 21
473.848484848477
 31
0
  0
LINE
  8
1
 62
3
 10
562.222136662338
 20
473.848484848477
 30
0
 11
569.3262692424398
 21
482.951685370502
 31
0
  0
LINE
  8
1
 62
3
 10
569.3262692424398
 20
482.951685370502
 30
0
 11
572.8545249371239
 21
473.848484848477
 31
0
  0
LINE
  8
1
 62
3
 10
572.8545249371239
 20
473.848484848477
 30
0
 11
576.8999712001719
 21
473.848484848477
 31
0
  0
LINE
  8
1
 62
3
 10
576.8999712001719
 20
473.848484848477
 30
0
 11
572.0292731071679
 21
486.415301218603
 31
0
  0
LINE
  8
1
 62
3
 10
572.0292731071679
 20
486.415301218603
 30
0
 11
580.32950315225
 21
497.051175145079
 31
0
  0
LINE
  8
1
 62
3
 10
580.32950315225
 20
497.051175145079
 30
0
 11
576.284056889192
 21
497.051175145079
 31
0
  0
LINE
  8
1
 62
3
 10
576.284056889192
 20
497.051175145079
 30
0
 11
570.686830708906
 21
489.878917066824
 31
0
  0
LINE
  8
1
 62
3
 10
570.686830708906
 20
489.878917066824
 30
0
 11
567.9069775849489
 21
497.051175145079
 31
0
  0
LINE
  8
1
 62
3
 10
577.928830785688
 20
471.1939393939099
 30
0
 11
580.3295031522068
 21
465
 31
0
  0
LINE
  8
1
 62
3
 10
577.928830785688
 20
471.1939393939099
 30
0
 11
535.1196812335149
 21
471.1939393939099
 31
0
  0
LINE
  8
1
 62
3
 10
580.3295031522068
 20
465
 30
0
 11
527.738701733397
 21
465
 31
0
  0
LINE
  8
1
 62
3
 10
436.7386876589662
 20
508.1117812056621
 30
0
 11
439.9906098364481
 21
521.3845084783202
 31
0
  0
LINE
  8
1
 62
3
 10
439.9906098364481
 20
521.3845084783202
 30
0
 11
452.5550723021661
 21
521.3845084783202
 31
0
  0
LINE
  8
1
 62
3
 10
452.5550723021661
 20
521.3845084783202
 30
0
 11
449.3031501244914
 21
508.1117812056621
 31
0
  0
LINE
  8
1
 62
3
 10
449.3031501244914
 20
508.1117812056621
 30
0
 11
436.7386876589662
 21
508.1117812056621
 31
0
  0
LINE
  8
1
 62
3
 10
447.7510600764872
 20
510.3239024177931
 30
0
 11
439.3747517661324
 21
510.3239024177931
 31
0
  0
LINE
  8
1
 62
3
 10
449.9190081949637
 20
519.172387266269
 30
0
 11
447.7510600764872
 21
510.3239024177931
 31
0
  0
LINE
  8
1
 62
3
 10
441.5426998844741
 20
519.172387266269
 30
0
 11
449.9190081949637
 21
519.172387266269
 31
0
  0
LINE
  8
1
 62
3
 10
439.3747517661324
 20
510.3239024177931
 30
0
 11
441.5426998844741
 21
519.172387266269
 31
0
  0
LINE
  8
1
 62
3
 10
455.0679647951583
 20
521.3845084783202
 30
0
 11
451.8160426176219
 21
508.1117812056621
 31
0
  0
LINE
  8
1
 62
3
 10
455.0679647951583
 20
521.3845084783202
 30
0
 11
467.632427260738
 21
521.3845084783202
 31
0
  0
LINE
  8
1
 62
3
 10
467.632427260738
 20
521.3845084783202
 30
0
 11
465.7649031508845
 21
513.7622048583319
 31
0
  0
LINE
  8
1
 62
3
 10
464.3805050832052
 20
508.1117812056621
 30
0
 11
462.2864280055655
 21
508.1117812056621
 31
0
  0
LINE
  8
1
 62
3
 10
462.2864280055655
 20
508.1117812056621
 30
0
 11
463.3704020649384
 21
512.5360236298441
 31
0
  0
LINE
  8
1
 62
3
 10
463.3704020649384
 20
512.5360236298441
 30
0
 11
454.9940937544088
 21
512.5360236298441
 31
0
  0
LINE
  8
1
 62
3
 10
455.5360807840007
 20
514.7481448420331
 30
0
 11
463.9123890943812
 21
514.7481448420331
 31
0
  0
LINE
  8
1
 62
3
 10
463.9123890943812
 20
514.7481448420331
 30
0
 11
464.996363153703
 21
519.172387266269
 31
0
  0
LINE
  8
1
 62
3
 10
464.996363153703
 20
519.172387266269
 30
0
 11
456.6200548431843
 21
519.172387266269
 31
0
  0
LINE
  8
1
 62
3
 10
456.6200548431843
 20
519.172387266269
 30
0
 11
455.5360807840007
 21
514.7481448420331
 31
0
  0
LINE
  8
1
 62
3
 10
465.3282234693179
 20
511.979895810782
 30
0
 11
464.3805050832052
 21
508.1117812056621
 31
0
  0
LINE
  8
1
 62
3
 10
451.8160426176219
 20
508.1117812056621
 30
0
 11
453.9101196952979
 21
508.1117812056621
 31
0
  0
LINE
  8
1
 62
3
 10
453.9101196952979
 20
508.1117812056621
 30
0
 11
454.9940937544088
 21
512.5360236298441
 31
0
  0
LINE
  8
1
 62
3
 10
472.2393968314646
 20
521.3845084783202
 30
0
 11
470.1453197539013
 21
521.3845084783202
 31
0
  0
LINE
  8
1
 62
3
 10
470.1453197539013
 20
521.3845084783202
 30
0
 11
466.8933975763357
 21
508.1117812056621
 31
0
  0
LINE
  8
1
 62
3
 10
466.8933975763357
 20
508.1117812056621
 30
0
 11
468.9874746540554
 21
508.1117812056621
 31
0
  0
LINE
  8
1
 62
3
 10
468.9874746540554
 20
508.1117812056621
 30
0
 11
472.2393968314646
 21
521.3845084783202
 31
0
  0
LINE
  8
1
 62
3
 10
471.5003671470404
 20
508.1117812056621
 30
0
 11
474.7522893245841
 21
521.3845084783202
 31
0
  0
LINE
  8
1
 62
3
 10
474.7522893245841
 20
521.3845084783202
 30
0
 11
487.316751790175
 21
521.3845084783202
 31
0
  0
LINE
  8
1
 62
3
 10
487.316751790175
 20
521.3845084783202
 30
0
 11
486.1785790280479
 21
516.739053932891
 31
0
  0
LINE
  8
1
 62
3
 10
484.0648296126528
 20
508.1117812056621
 30
0
 11
471.5003671470404
 21
508.1117812056621
 31
0
  0
LINE
  8
1
 62
3
 10
482.5127395646049
 20
510.3239024177931
 30
0
 11
474.1364312542755
 21
510.3239024177931
 31
0
  0
LINE
  8
1
 62
3
 10
484.6806876828998
 20
519.172387266269
 30
0
 11
484.0845019505218
 21
516.739053932891
 31
0
  0
LINE
  8
1
 62
3
 10
476.3043793726031
 20
519.172387266269
 30
0
 11
484.6806876828998
 21
519.172387266269
 31
0
  0
LINE
  8
1
 62
3
 10
474.1364312542755
 20
510.3239024177931
 30
0
 11
476.3043793726031
 21
519.172387266269
 31
0
  0
LINE
  8
1
 62
3
 10
485.6907907014249
 20
514.7481448420331
 30
0
 11
479.4085594686189
 21
514.7481448420331
 31
0
  0
LINE
  8
1
 62
3
 10
485.6907907014249
 20
514.7481448420331
 30
0
 11
484.0648296126528
 21
508.1117812056621
 31
0
  0
LINE
  8
1
 62
3
 10
479.4085594686189
 20
514.7481448420331
 30
0
 11
478.8665724389718
 21
512.5360236298441
 31
0
  0
LINE
  8
1
 62
3
 10
478.8665724389718
 20
512.5360236298441
 30
0
 11
483.0547265943719
 21
512.5360236298441
 31
0
  0
LINE
  8
1
 62
3
 10
483.0547265943719
 20
512.5360236298441
 30
0
 11
482.5127395646049
 21
510.3239024177931
 31
0
  0
LINE
  8
1
 62
3
 10
484.0845019505218
 20
516.739053932891
 30
0
 11
486.1785790280479
 21
516.739053932891
 31
0
  0
LINE
  8
1
 62
3
 10
486.5777221057689
 20
508.1117812056621
 30
0
 11
488.671799183329
 21
508.1117812056621
 31
0
  0
LINE
  8
1
 62
3
 10
488.671799183329
 20
508.1117812056621
 30
0
 11
491.9237213608981
 21
521.3845084783202
 31
0
  0
LINE
  8
1
 62
3
 10
489.8296442833339
 20
521.3845084783202
 30
0
 11
486.5777221057689
 21
508.1117812056621
 31
0
  0
LINE
  8
1
 62
3
 10
491.9237213608981
 20
521.3845084783202
 30
0
 11
489.8296442833339
 21
521.3845084783202
 31
0
  0
LINE
  8
1
 62
3
 10
491.1846916764989
 20
508.1117812056621
 30
0
 11
494.4366138540139
 21
521.3845084783202
 31
0
  0
LINE
  8
1
 62
3
 10
494.4366138540139
 20
521.3845084783202
 30
0
 11
497.5777294703548
 21
521.3845084783202
 31
0
  0
LINE
  8
1
 62
3
 10
497.5777294703548
 20
521.3845084783202
 30
0
 11
502.0615673366299
 21
509.770872114746
 31
0
  0
LINE
  8
1
 62
3
 10
502.0615673366299
 20
509.770872114746
 30
0
 11
504.9069992419829
 21
521.3845084783202
 31
0
  0
LINE
  8
1
 62
3
 10
504.9069992419829
 20
521.3845084783202
 30
0
 11
507.0010763195969
 21
521.3845084783202
 31
0
  0
LINE
  8
1
 62
3
 10
507.0010763195969
 20
521.3845084783202
 30
0
 11
503.7491541419769
 21
508.1117812056621
 31
0
  0
LINE
  8
1
 62
3
 10
503.7491541419769
 20
508.1117812056621
 30
0
 11
500.5064756532079
 21
508.1117812056621
 31
0
  0
LINE
  8
1
 62
3
 10
500.5064756532079
 20
508.1117812056621
 30
0
 11
496.7253193174979
 21
517.9053946295351
 31
0
  0
LINE
  8
1
 62
3
 10
496.7253193174979
 20
517.9053946295351
 30
0
 11
496.0847710509879
 21
519.5644855385979
 31
0
  0
LINE
  8
1
 62
3
 10
496.0847710509879
 20
519.5644855385979
 30
0
 11
493.2787687540589
 21
508.1117812056621
 31
0
  0
LINE
  8
1
 62
3
 10
493.2787687540589
 20
508.1117812056621
 30
0
 11
491.1846916764989
 21
508.1117812056621
 31
0
  0
LINE
  8
1
 62
3
 10
506.2620466350929
 20
508.1117812056621
 30
0
 11
513.77347691399
 21
521.3845084783202
 31
0
  0
LINE
  8
1
 62
3
 10
513.77347691399
 20
521.3845084783202
 30
0
 11
517.818923176965
 21
521.3845084783202
 31
0
  0
LINE
  8
1
 62
3
 10
517.818923176965
 20
521.3845084783202
 30
0
 11
518.826509100727
 21
508.1117812056621
 31
0
  0
LINE
  8
1
 62
3
 10
518.826509100727
 20
508.1117812056621
 30
0
 11
516.7968269376579
 21
508.1117812056621
 31
0
  0
LINE
  8
1
 62
3
 10
516.7968269376579
 20
508.1117812056621
 30
0
 11
516.6288959503909
 21
510.3239024177931
 31
0
  0
LINE
  8
1
 62
3
 10
516.6288959503909
 20
510.3239024177931
 30
0
 11
509.892748670027
 21
510.3239024177931
 31
0
  0
LINE
  8
1
 62
3
 10
509.892748670027
 20
510.3239024177931
 30
0
 11
508.6408436236638
 21
508.1117812056621
 31
0
  0
LINE
  8
1
 62
3
 10
508.6408436236638
 20
508.1117812056621
 30
0
 11
506.2620466350929
 21
508.1117812056621
 31
0
  0
LINE
  8
1
 62
3
 10
511.144653716558
 20
512.5360236298441
 30
0
 11
516.4609649630688
 21
512.5360236298441
 31
0
  0
LINE
  8
1
 62
3
 10
516.4609649630688
 20
512.5360236298441
 30
0
 11
515.9571720012139
 21
519.172387266269
 31
0
  0
LINE
  8
1
 62
3
 10
515.9571720012139
 20
519.172387266269
 30
0
 11
514.9003688559239
 21
519.172387266269
 31
0
  0
LINE
  8
1
 62
3
 10
511.144653716558
 20
512.5360236298441
 30
0
 11
514.9003688559239
 21
519.172387266269
 31
0
  0
LINE
  8
1
 62
3
 10
524.591323771416
 20
521.3845084783202
 30
0
 11
521.339401593847
 21
508.1117812056621
 31
0
  0
LINE
  8
1
 62
3
 10
521.339401593847
 20
508.1117812056621
 30
0
 11
533.9038640594258
 21
508.1117812056621
 31
0
  0
LINE
  8
1
 62
3
 10
533.9038640594258
 20
508.1117812056621
 30
0
 11
534.445851089087
 21
510.3239024177931
 31
0
  0
LINE
  8
1
 62
3
 10
534.445851089087
 20
510.3239024177931
 30
0
 11
523.9754657010669
 21
510.3239024177931
 31
0
  0
LINE
  8
1
 62
3
 10
523.9754657010669
 20
510.3239024177931
 30
0
 11
526.68540084903
 21
521.3845084783202
 31
0
  0
LINE
  8
1
 62
3
 10
526.68540084903
 20
521.3845084783202
 30
0
 11
524.591323771416
 21
521.3845084783202
 31
0
  0
LINE
  8
1
 62
3
 10
571.206636135699
 20
515.2001112138419
 30
0
 11
571.206636135699
 21
512.4510557882823
 31
0
  0
LINE
  8
1
 62
3
 10
570.3341884365839
 20
512.4510557882823
 30
0
 11
570.3341884365839
 21
519.3095239634563
 31
0
  0
LINE
  8
1
 62
3
 10
570.3341884365839
 20
519.3095239634563
 30
0
 11
572.7761082958239
 21
519.3095239634563
 31
0
  0
LINE
  8
1
 62
3
 10
572.7761082958239
 20
519.3095239634563
 30
0
 11
573.0724648781759
 21
519.3095239634563
 31
0
  0
LINE
  8
1
 62
3
 10
574.9060993927419
 20
514.3306895546259
 30
0
 11
574.9060993927419
 21
512.4510557882823
 31
0
  0
LINE
  8
1
 62
3
 10
574.9060993927419
 20
512.4510557882823
 30
0
 11
573.9449125772369
 21
512.4510557882823
 31
0
  0
LINE
  8
1
 62
3
 10
573.9449125772369
 20
512.4510557882823
 30
0
 11
573.9449125772369
 21
514.0729110559
 31
0
  0
LINE
  8
1
 62
3
 10
572.931697837317
 20
515.2001112138419
 30
0
 11
571.206636135699
 21
515.2001112138419
 31
0
  0
LINE
  8
1
 62
3
 10
571.206636135699
 20
512.4510557882823
 30
0
 11
570.3341884365839
 21
512.4510557882823
 31
0
  0
LINE
  8
1
 62
3
 10
571.206636135699
 20
516.050334541276
 30
0
 11
573.194119363641
 21
516.050334541276
 31
0
  0
LINE
  8
1
 62
3
 10
573.062609127785
 20
518.505992531278
 30
0
 11
571.206636135699
 21
518.505992531278
 31
0
  0
LINE
  8
1
 62
3
 10
571.206636135699
 20
518.505992531278
 30
0
 11
571.206636135699
 21
516.050334541276
 31
0
  0
ARC
  8
1
 62
3
 10
572.9426940693159
 20
517.3039199213811
 30
0
 40
2.00979800886174
 50
304.0700115354277
 51
86.29788871825902
  0
ARC
  8
1
 62
3
 10
572.8643762433019
 20
517.264025930551
 30
0
 40
1.257687287767243
 50
285.1995809529428
 51
80.9313952387881
  0
ARC
  8
1
 62
3
 10
572.789193605106
 20
514.0530393898221
 30
0
 40
1.155889798231655
 50
0.9850581704851609
 51
82.91825463293205
  0
ARC
  8
1
 62
3
 10
573.514586791596
 20
514.3622336822259
 30
0
 40
1.39187009132817
 50
358.7013873342734
 51
66.54486649404552
  0
CIRCLE
  8
1
 62
3
 10
572.7358752379369
 20
515.878787878755
 30
0
 40
5.972862778753957
  0
CIRCLE
  8
1
 62
3
 10
572.7358752379369
 20
515.878787878755
 30
0
 40
5.530127989695984
  0
ENDBLK
  8
0
  0
BLOCK
  8
0
  2
WANNENF_SSE
 70
0
 10
524.5347689999999
 20
0
 30
0
  0
LINE
  8
1
 62
2
 10
1406.474033798567
 20
145.0756530861713
 30
0
 11
1446.456428201434
 21
146.2623029138572
 31
0
  0
LINE
  8
1
 62
2
 10
1406.465231
 20
25
 30
0
 11
1446.465231
 21
25
 31
0
  0
LINE
  8
1
 62
2
 10
1411.465231
 20
55
 30
0
 11
1441.465231
 21
55
 31
0
  0
LINE
  8
1
 62
2
 10
1416.465231
 20
85
 30
0
 11
1436.465231
 21
85
 31
0
  0
LINE
  8
1
 62
2
 10
1446.308096972975
 20
151.2601022142153
 30
0
 11
1451.305896273331
 21
151.4084334426761
 31
0
  0
LINE
  8
1
 62
2
 10
1411.323501870464
 20
150.2217836149903
 30
0
 11
1441.310297672614
 21
151.1117709857549
 31
0
  0
LINE
  8
1
 62
2
 10
1401.327903269748
 20
149.925121158069
 30
0
 11
1406.325702570106
 21
150.0734523865299
 31
0
  0
LINE
  8
1
 62
2
 10
1451.009233816411
 20
161.4040320433933
 30
0
 11
1466.002631717485
 21
161.8490257287749
 31
0
  0
LINE
  8
1
 62
2
 10
1386.03784291175
 20
159.4757260734023
 30
0
 11
1401.031240812826
 21
159.9207197587853
 31
0
  0
LINE
  8
1
 62
2
 10
1441.161966444155
 20
156.109570286113
 30
0
 11
1446.159765744513
 21
156.2579015145743
 31
0
  0
LINE
  8
1
 62
2
 10
1406.177371341645
 20
155.071251686888
 30
0
 11
1411.175170642003
 21
155.2195829153488
 31
0
  0
LINE
  8
1
 62
2
 10
1406.465231
 20
0
 30
0
 11
1406.465231
 21
25
 31
0
  0
LINE
  8
1
 62
2
 10
1446.465231
 20
0
 30
0
 11
1446.465231
 21
25
 31
0
  0
LINE
  8
1
 62
2
 10
1441.465231
 20
25
 30
0
 11
1441.465231
 21
55
 31
0
  0
LINE
  8
1
 62
2
 10
1411.465231
 20
25
 30
0
 11
1411.465231
 21
55
 31
0
  0
LINE
  8
1
 62
2
 10
1411.465231
 20
55
 30
0
 11
1416.465231
 21
85
 31
0
  0
LINE
  8
1
 62
2
 10
1441.465231
 20
55
 30
0
 11
1436.465231
 21
85
 31
0
  0
LINE
  8
1
 62
2
 10
1421.465231
 20
85
 30
0
 11
1421.465231
 21
145.5205814563096
 31
0
  0
LINE
  8
1
 62
2
 10
1431.465231
 20
85
 30
0
 11
1431.465231
 21
145.8173745437189
 31
0
  0
LINE
  8
1
 62
2
 10
1465.854300489024
 20
166.8468250291339
 30
0
 11
1466.002631717485
 21
161.8490257287749
 31
0
  0
LINE
  8
1
 62
2
 10
1445.863103287592
 20
166.2535001152896
 30
0
 11
1465.854300489024
 21
166.8468250291339
 31
0
  0
LINE
  8
1
 62
2
 10
1446.159765744513
 20
156.2579015145743
 30
0
 11
1445.863103287592
 21
166.2535001152896
 31
0
  0
LINE
  8
1
 62
2
 10
1451.305896273331
 20
151.4084334426761
 30
0
 11
1451.009233816411
 21
161.4040320433933
 31
0
  0
LINE
  8
1
 62
2
 10
1441.310297672614
 20
151.1117709857549
 30
0
 11
1441.161966444155
 21
156.109570286113
 31
0
  0
LINE
  8
1
 62
2
 10
1446.456428201434
 20
146.2623029138572
 30
0
 11
1446.308096972975
 21
151.2601022142153
 31
0
  0
LINE
  8
1
 62
2
 10
1411.175170642003
 20
155.2195829153488
 30
0
 11
1411.323501870464
 21
150.2217836149903
 31
0
  0
LINE
  8
1
 62
2
 10
1405.880708884725
 20
165.0668502876042
 30
0
 11
1406.177371341645
 21
155.071251686888
 31
0
  0
LINE
  8
1
 62
2
 10
1385.88951168329
 20
164.4735253737608
 30
0
 11
1405.880708884725
 21
165.0668502876042
 31
0
  0
LINE
  8
1
 62
2
 10
1385.88951168329
 20
164.4735253737608
 30
0
 11
1386.03784291175
 21
159.4757260734023
 31
0
  0
LINE
  8
1
 62
2
 10
1401.327903269748
 20
149.925121158069
 30
0
 11
1401.031240812826
 21
159.9207197587853
 31
0
  0
LINE
  8
1
 62
2
 10
1406.474033798567
 20
145.0756530861713
 30
0
 11
1406.325702570106
 21
150.0734523865299
 31
0
  0
LINE
  8
1
 62
2
 10
524.5435717985662
 20
146.2623029138572
 30
0
 11
564.5259662014332
 21
145.0756530861713
 31
0
  0
LINE
  8
1
 62
2
 10
524.5347689999999
 20
25
 30
0
 11
564.5347689999999
 21
25
 31
0
  0
LINE
  8
1
 62
2
 10
529.5347689999999
 20
55
 30
0
 11
559.5347689999999
 21
55
 31
0
  0
LINE
  8
1
 62
2
 10
534.5347689999999
 20
85
 30
0
 11
554.5347689999999
 21
85
 31
0
  0
LINE
  8
1
 62
2
 10
519.6941037266686
 20
151.4084334426761
 30
0
 11
524.6919030270257
 21
151.2601022142153
 31
0
  0
LINE
  8
1
 62
2
 10
529.689702327386
 20
151.1117709857549
 30
0
 11
559.6764981295362
 21
150.2217836149903
 31
0
  0
LINE
  8
1
 62
2
 10
564.6742974298945
 20
150.0734523865299
 30
0
 11
569.672096730252
 21
149.925121158069
 31
0
  0
LINE
  8
1
 62
2
 10
504.9973682825149
 20
161.8490257287749
 30
0
 11
519.9907661835888
 21
161.4040320433933
 31
0
  0
LINE
  8
1
 62
2
 10
569.9687591871744
 20
159.9207197587853
 30
0
 11
584.9621570882495
 21
159.4757260734023
 31
0
  0
LINE
  8
1
 62
2
 10
524.840234255487
 20
156.2579015145743
 30
0
 11
529.8380335558453
 21
156.109570286113
 31
0
  0
LINE
  8
1
 62
2
 10
559.8248293579975
 20
155.2195829153488
 30
0
 11
564.8226286583549
 21
155.071251686888
 31
0
  0
LINE
  8
1
 62
2
 10
564.5347689999999
 20
25
 30
0
 11
564.5347689999999
 21
0
 31
0
  0
LINE
  8
1
 62
2
 10
524.5347689999999
 20
25
 30
0
 11
524.5347689999999
 21
0
 31
0
  0
LINE
  8
1
 62
2
 10
529.5347689999999
 20
55
 30
0
 11
529.5347689999999
 21
25
 31
0
  0
LINE
  8
1
 62
2
 10
559.5347689999999
 20
55
 30
0
 11
559.5347689999999
 21
25
 31
0
  0
LINE
  8
1
 62
2
 10
554.5347689999999
 20
85
 30
0
 11
559.5347689999999
 21
55
 31
0
  0
LINE
  8
1
 62
2
 10
534.5347689999999
 20
85
 30
0
 11
529.5347689999999
 21
55
 31
0
  0
LINE
  8
1
 62
2
 10
549.5347689999999
 20
145.5205814563096
 30
0
 11
549.5347689999999
 21
85
 31
0
  0
LINE
  8
1
 62
2
 10
539.5347689999999
 20
145.8173745437189
 30
0
 11
539.5347689999999
 21
85
 31
0
  0
LINE
  8
1
 62
2
 10
504.9973682825149
 20
161.8490257287749
 30
0
 11
505.1456995109762
 21
166.8468250291339
 31
0
  0
LINE
  8
1
 62
2
 10
505.1456995109762
 20
166.8468250291339
 30
0
 11
525.1368967124085
 21
166.2535001152896
 31
0
  0
LINE
  8
1
 62
2
 10
525.1368967124085
 20
166.2535001152896
 30
0
 11
524.840234255487
 21
156.2579015145743
 31
0
  0
LINE
  8
1
 62
2
 10
519.9907661835888
 20
161.4040320433933
 30
0
 11
519.6941037266686
 21
151.4084334426761
 31
0
  0
LINE
  8
1
 62
2
 10
529.8380335558453
 20
156.109570286113
 30
0
 11
529.689702327386
 21
151.1117709857549
 31
0
  0
LINE
  8
1
 62
2
 10
524.6919030270257
 20
151.2601022142153
 30
0
 11
524.5435717985662
 21
146.2623029138572
 31
0
  0
LINE
  8
1
 62
2
 10
559.6764981295362
 20
150.2217836149903
 30
0
 11
559.8248293579975
 21
155.2195829153488
 31
0
  0
LINE
  8
1
 62
2
 10
564.8226286583549
 20
155.071251686888
 30
0
 11
565.1192911152755
 21
165.0668502876042
 31
0
  0
LINE
  8
1
 62
2
 10
565.1192911152755
 20
165.0668502876042
 30
0
 11
585.1104883167099
 21
164.4735253737608
 31
0
  0
LINE
  8
1
 62
2
 10
584.9621570882495
 20
159.4757260734023
 30
0
 11
585.1104883167099
 21
164.4735253737608
 31
0
  0
LINE
  8
1
 62
2
 10
569.9687591871744
 20
159.9207197587853
 30
0
 11
569.672096730252
 21
149.925121158069
 31
0
  0
LINE
  8
1
 62
2
 10
564.6742974298945
 20
150.0734523865299
 30
0
 11
564.5259662014332
 21
145.0756530861713
 31
0
  0
ENDBLK
  8
0
  0
BLOCK
  8
0
  2
WANNE_MALAGA_TREND_441
 70
0
 10
985.5
 20
410
 30
0
  0
LINE
  8
1
 62
7
 10
907.795573035844
 20
175
 30
0
 11
445.5417545128496
 21
189.5504504430169
 31
0
  0
LINE
  8
1
 62
7
 10
882.17577616773
 20
175.8064391677299
 30
0
 11
863.0902149999999
 21
156.7208769999998
 31
0
  0
LINE
  8
1
 62
7
 10
445.2315667173668
 20
189.5602142826333
 30
0
 11
466.2942749999997
 21
168.4975060000002
 31
0
  0
LINE
  8
1
 62
7
 10
466.2942749999997
 20
168.4975060000002
 30
0
 11
863.0902149999999
 21
156.7208769999998
 31
0
  0
LINE
  8
1
 62
7
 10
1107.909785
 20
156.7208769999998
 30
0
 11
1088.82422383227
 21
175.8064391677299
 31
0
  0
LINE
  8
1
 62
7
 10
1504.705725
 20
168.4975060000002
 30
0
 11
1525.768433282633
 21
189.5602142826333
 31
0
  0
LINE
  8
1
 62
7
 10
1107.909785
 20
156.7208769999998
 30
0
 11
1504.705725
 21
168.4975060000002
 31
0
  0
LINE
  8
1
 62
7
 10
1560.748143888022
 20
190.6612772166313
 30
0
 11
1063.204426964156
 21
175
 31
0
  0
LINE
  8
1
 62
7
 10
1971
 20
640
 30
0
 11
1971
 21
605
 31
0
  0
LINE
  8
1
 62
7
 10
0
 20
640
 30
0
 11
0
 21
605
 31
0
  0
LINE
  8
1
 62
7
 10
1971
 20
605
 30
0
 11
0
 21
605
 31
0
  0
LINE
  8
1
 62
7
 10
0
 20
640
 30
0
 11
1971
 21
640
 31
0
  0
LINE
  8
1
 62
7
 10
1115.499999697074
 20
590
 30
0
 11
1115.499999697074
 21
640
 31
0
  0
LINE
  8
1
 62
7
 10
855.5000003029261
 20
590
 30
0
 11
1115.499999697074
 21
590
 31
0
  0
LINE
  8
1
 62
7
 10
855.5000003029261
 20
640
 30
0
 11
855.5000003029261
 21
590
 31
0
  0
LINE
  8
1
 62
3
  6
DASHDOT
 10
985.5
 20
200
 30
0
 11
985.5
 21
127
 31
0
  0
LINE
  8
1
 62
7
 10
908.4742187071261
 20
175
 30
0
 11
912.512392827528
 21
169.4481246876312
 31
0
  0
LINE
  8
1
 62
7
 10
926.3801739656169
 20
165.1311731948554
 30
0
 11
919.0063373152709
 21
165.7763007171752
 31
0
  0
LINE
  8
1
 62
7
 10
935.9999999674351
 20
160.0092798085443
 30
0
 11
928.0302644477999
 21
164.6106083566001
 31
0
  0
LINE
  8
1
 62
7
 10
936.5
 20
152
 30
0
 11
936.5
 21
159.1432543859592
 31
0
  0
LINE
  8
1
 62
7
 10
1034.5
 20
159.1432543859592
 30
0
 11
1034.5
 21
152
 31
0
  0
LINE
  8
1
 62
7
 10
1042.9697355522
 20
164.6106083566001
 30
0
 11
1035.000000032565
 21
160.0092798085443
 31
0
  0
LINE
  8
1
 62
7
 10
1051.993662684728
 20
165.7763007171752
 30
0
 11
1044.619826034383
 21
165.1311731948554
 31
0
  0
LINE
  8
1
 62
7
 10
1058.487607172472
 20
169.4481246876312
 30
0
 11
1062.525781292874
 21
175
 31
0
  0
LINE
  8
1
 62
7
 10
907.795573035844
 20
175
 30
0
 11
1063.204426964156
 21
175
 31
0
  0
LINE
  8
1
 62
7
 10
936.5
 20
152
 30
0
 11
1034.5
 21
152
 31
0
  0
LINE
  8
GEOMETRIE
 62
7
 10
1030.5
 20
430
 30
0
 11
1614.915246
 21
430
 31
0
  0
LINE
  8
GEOMETRIE
 62
7
 10
366.5382649999999
 20
430
 30
0
 11
940.5
 21
430
 31
0
  0
ARC
  8
1
 62
7
 10
-1091.238732000071
 20
-373.4561560000416
 30
0
 40
1600.000000000081
 50
22.0420703232301
 51
37.70058346585169
  0
ARC
  8
1
 62
7
 10
3133.164890000087
 20
-275.8335450000377
 30
0
 40
1600.000000000094
 50
146.5972392691101
 51
161.5094849837068
  0
ARC
  8
1
 62
7
 10
919.79073827396
 20
174.7420523368428
 30
0
 40
8.999999021817894
 50
216.0303876696746
 51
265.0000020802066
  0
ARC
  8
1
 62
7
 10
926.0302619553099
 20
161.1465021235226
 30
0
 40
4.000005245498143
 50
60.00000215446466
 51
84.98147167698886
  0
ARC
  8
1
 62
7
 10
1044.969738044691
 20
161.1465021235226
 30
0
 40
4.000005245205833
 50
95.01852832302413
 51
119.9999978455466
  0
ARC
  8
1
 62
7
 10
1051.209261726041
 20
174.7420523368428
 30
0
 40
8.999999021815896
 50
274.9999979197818
 51
323.9696120918895
  0
ARC
  8
1
 62
7
 10
447.4294508591412
 20
249.5207481119815
 30
0
 40
60.00000000000004
 50
202.0420703232302
 51
268.1970852584871
  0
ARC
  8
1
 62
7
 10
1558.86044754173
 20
250.6315748855959
 30
0
 40
60.00000000000021
 50
271.8029147415132
 51
341.5094849837068
  0
ARC
  8
1
 62
7
 10
935.5
 20
159.1432543859592
 30
0
 40
1
 50
0
 51
60.00000215445712
  0
ARC
  8
1
 62
7
 10
1035.5
 20
159.1432543859592
 30
0
 40
0.9999999999993916
 50
119.9999978455429
 51
180
  0
INSERT
  8
0
  2
WANNENF_SSE
 10
524.5347689999999
 20
0
 30
0
  0
ENDBLK
  8
0
  0
ENDSEC
  0
SECTION
  2
ENTITIES
  0
TEXT
  8
1
 62
2
 10
400
 20
365
 30
0
 40
35
  1
MALAGA Trend 441
 41
0.5993999999999999
  0
TEXT
  8
1
 62
3
 10
943.542
 20
67
 30
0
 40
35
  1
Ö 90
 41
0.5993999999999999
 72
1
 73
3
 11
985.5
 21
102
 31
0
  0
INSERT
  8
0
  2
DLX
 10
400
 20
465
 30
0
  0
INSERT
  8
0
  2
WANNE_MALAGA_TREND_441
 10
985.5
 20
410
 30
0
  0
ENDSEC
  0
EOF
