  0
SECTION
  2
HEADER
  9
$ACADVER
  1
AC1009
  9
$INSBASE
 10
0
 20
0
  9
$EXTMIN
 10
0
 20
0
  9
$EXTMAX
 10
1551.344893000001
 20
1050.000006132184
  9
$LIMMIN
 10
0
 20
0
  9
$LIMMAX
 10
1551.344893000001
 20
1050.000006132184
  9
$VIEWCTR
 10
10
 20
10
  9
$VIEWSIZE
 40
10
  9
$SNAPMODE
 70
0
  9
$SNAPUNIT
 10
1
 20
1
  9
$SNAPBASE
 10
0
 20
0
  9
$SNAPANG
 50
0
  9
$SNAPSTYLE
 70
0
  9
$SNAPISOPAIR
 70
0
  9
$GRIDMODE
 70
0
  9
$GRIDUNIT
 10
0
 20
0
  9
$ORTHOMODE
 70
0
  9
$REGENMODE
 70
1
  9
$FILLMODE
 70
1
  9
$QTEXTMODE
 70
0
  9
$DRAGMODE
 70
2
  9
$LTSCALE
 40
1
  9
$OSMODE
 70
0
  9
$ATTMODE
 70
1
  9
$TEXTSIZE
 40
3.5
  9
$TRACEWID
 40
0.5
  9
$TEXTSTYLE
  7
STANDARD
  9
$CLAYER
  8
0
  9
$CELTYPE
  6
BYLAYER
  9
$CECOLOR
 62
256
  9
$DIMSCALE
 40
1
  9
$DIMASZ
 40
0.18
  9
$DIMEXO
 40
0.0625
  9
$DIMDLI
 40
0.38
  9
$DIMRND
 40
0
  9
$DIMDLE
 40
0
  9
$DIMEXE
 40
0.18
  9
$DIMTP
 40
0
  9
$DIMTM
 40
0
  9
$DIMTXT
 40
0.18
  9
$DIMCEN
 40
0.09
  9
$DIMTSZ
 40
0
  9
$DIMTOL
 70
0
  9
$DIMLIM
 70
0
  9
$DIMTIH
 70
1
  9
$DIMTOH
 70
1
  9
$DIMSE1
 70
0
  9
$DIMSE2
 70
0
  9
$DIMTAD
 70
0
  9
$DIMZIN
 70
0
  9
$DIMBLK
  1

  9
$DIMASO
 70
1
  9
$DIMSHO
 70
1
  9
$DIMPOST
  1

  9
$DIMAPOST
  1

  9
$DIMALT
 70
0
  9
$DIMALTD
 70
2
  9
$DIMALTF
 40
25.4
  9
$DIMLFAC
 40
1
  9
$DIMTOFL
 70
0
  9
$DIMTVP
 40
0
  9
$DIMTIX
 70
0
  9
$DIMSOXD
 70
0
  9
$DIMSAH
 70
0
  9
$DIMBLK1
  1

  9
$DIMBLK2
  1

  9
$DIMSTYLE
  2
*UNNAMED
  9
$DIMCLRD
 70
0
  9
$DIMCLRE
 70
0
  9
$DIMCLRT
 70
0
  9
$DIMTFAC
 40
1
  9
$DIMGAP
 40
0.09
  9
$LUNITS
 70
2
  9
$LUPREC
 70
4
  9
$AXISMODE
 70
0
  9
$AXISUNIT
 10
0
 20
0
  9
$SKETCHINC
 40
0.1
  9
$FILLETRAD
 40
2
  9
$AUNITS
 70
0
  9
$AUPREC
 70
0
  9
$MENU
  1
ACAD
  9
$ELEVATION
 40
0
  9
$THICKNESS
 40
0
  9
$VIEWDIR
 10
0
 20
0
 30
1
  9
$LIMCHECK
 70
0
  9
$BLIPMODE
 70
1
  9
$CHAMFERA
 40
0
  9
$CHAMFERB
 40
0
  9
$FASTZOOM
 70
1
  9
$SKPOLY
 70
0
  9
$ANGBASE
 50
0
  9
$ANGDIR
 70
0
  9
$PDMODE
 70
0
  9
$PDSIZE
 40
0
  9
$PLINEWID
 40
0
  9
$COORDS
 70
2
  0
ENDSEC
  0
SECTION
  2
TABLES
  0
TABLE
  2
DIMSTYLE
 70
0
  0
ENDTAB
  0
TABLE
  2
LTYPE
 70
9
  0
LTYPE
  2
CONTINUOUS
 70
64
  3
Solid line
 72
65
 73
0
 40
0
  0
LTYPE
  2
BORDER
 70
64
  3
__ __ . __ __ .
 72
65
 73
6
 40
71.44351480921057
 49
20.41243280263159
 49
-10.2062164013158
 49
20.41243280263159
 49
-10.2062164013158
 49
0
 49
-10.2062164013158
  0
LTYPE
  2
CENTER
 70
64
  3
____ _ ____ _
 72
65
 73
4
 40
81.64973121052637
 49
51.03108200657898
 49
-10.2062164013158
 49
10.2062164013158
 49
-10.2062164013158
  0
LTYPE
  2
DASHDOT
 70
64
  3
__ . __ . __ .
 72
65
 73
4
 40
40.82486560526318
 49
20.41243280263159
 49
-10.2062164013158
 49
0
 49
-10.2062164013158
  0
LTYPE
  2
DASHED
 70
64
  3
__ __ __ __ __
 72
65
 73
2
 40
30.61864920394739
 49
20.41243280263159
 49
-10.2062164013158
  0
LTYPE
  2
DIVIDE
 70
64
  3
__ . . __ . . 
 72
65
 73
6
 40
51.03108200657898
 49
20.41243280263159
 49
-10.2062164013158
 49
0
 49
-10.2062164013158
 49
0
 49
-10.2062164013158
  0
LTYPE
  2
DOT
 70
64
  3
..............
 72
65
 73
4
 40
20.41243280263159
 49
0
 49
-10.2062164013158
 49
0
 49
-10.2062164013158
  0
LTYPE
  2
HIDDEN
 70
64
  3
_ _ _ _ _ _ _
 72
65
 73
2
 40
15.30932460197369
 49
10.2062164013158
 49
-5.103108200657898
  0
LTYPE
  2
PHANTOM
 70
64
  3
_____ _ _ _____ _ _ 
 72
65
 73
6
 40
102.062164013158
 49
51.03108200657898
 49
-10.2062164013158
 49
10.2062164013158
 49
-10.2062164013158
 49
10.2062164013158
 49
-10.2062164013158
  0
ENDTAB
  0
TABLE
  2
LAYER
 70
6
  0
LAYER
  2
MITTELLINIEN
 70
0
 62
7
  6
CONTINUOUS
  0
LAYER
  2
BEMASS
 70
0
 62
7
  6
CONTINUOUS
  0
LAYER
  2
1
 70
0
 62
7
  6
CONTINUOUS
  0
LAYER
  2
WANNE
 70
0
 62
7
  6
CONTINUOUS
  0
LAYER
  2
0
 70
0
 62
7
  6
CONTINUOUS
  0
ENDTAB
  0
TABLE
  2
STYLE
 70
4
  0
STYLE
  2
STANDARD
 70
0
 40
0
 41
1
 50
0
 71
0
 42
3.5
  3
txt
  4

  0
STYLE
  2
SIMPLEX
 70
0
 40
0
 41
1
 50
0
 71
0
 42
3.5
  3
simplex
  4

  0
STYLE
  2
COMPLEX
 70
0
 40
0
 41
1
 50
0
 71
0
 42
3.5
  3
complex
  4

  0
STYLE
  2
ITALIC
 70
0
 40
0
 41
1
 50
0
 71
0
 42
3.5
  3
italic
  4

  0
ENDTAB
  0
TABLE
  2
VIEW
 70
0
  0
ENDTAB
  0
ENDSEC
  0
SECTION
  2
BLOCKS
  0
BLOCK
  8
0
  2
DLX
 70
0
 10
0
 20
0
 30
0
  0
LINE
  8
1
 62
3
 10
515.3282234693179
 20
596.979895810782
 30
0
 11
515.0328203819372
 21
597.978447872363
 31
0
  0
LINE
  8
1
 62
3
 10
515.7649031508845
 20
598.7622048583319
 30
0
 11
515.0328203819372
 21
597.978447872363
 31
0
  0
LINE
  8
1
 62
3
 10
550.7959271195539
 20
568.2377087845271
 30
0
 11
554.1803346104349
 21
582.051175145079
 31
0
  0
LINE
  8
1
 62
3
 10
546.6077729643149
 20
568.2377087845271
 30
0
 11
549.992180455331
 21
582.051175145079
 31
0
  0
LINE
  8
1
 62
3
 10
546.6077729643149
 20
568.2377087845271
 30
0
 11
550.7959271195539
 21
568.2377087845271
 31
0
  0
LINE
  8
1
 62
3
 10
545.5237989051459
 20
563.813466360341
 30
0
 11
549.7119530603338
 21
563.813466360341
 31
0
  0
LINE
  8
1
 62
3
 10
546.3275455694388
 20
550
 30
0
 11
552.6097768023359
 21
550
 31
0
  0
LINE
  8
1
 62
3
 10
549.992180455331
 20
582.051175145079
 30
0
 11
543.7099492224659
 21
582.051175145079
 31
0
  0
LINE
  8
1
 62
3
 10
581.4033366192889
 20
582.051175145079
 30
0
 11
573.55054757827
 21
550
 31
0
  0
LINE
  8
1
 62
3
 10
574.037131327292
 20
577.626932720839
 30
0
 11
568.3522904045678
 21
554.424242424182
 31
0
  0
LINE
  8
1
 62
3
 10
569.8489771720419
 20
577.626932720839
 30
0
 11
574.037131327292
 21
577.626932720839
 31
0
  0
LINE
  8
1
 62
3
 10
581.4033366192889
 20
582.051175145079
 30
0
 11
564.650719998459
 21
582.051175145079
 31
0
  0
LINE
  8
1
 62
3
 10
564.164136249467
 20
554.424242424182
 30
0
 11
569.8489771720419
 21
577.626932720839
 31
0
  0
LINE
  8
1
 62
3
 10
564.650719998459
 20
582.051175145079
 30
0
 11
556.7979309574619
 21
550
 31
0
  0
LINE
  8
1
 62
3
 10
568.3522904045678
 20
554.424242424182
 30
0
 11
564.164136249467
 21
554.424242424182
 31
0
  0
LINE
  8
1
 62
3
 10
556.7979309574619
 20
550
 30
0
 11
573.55054757827
 21
550
 31
0
  0
LINE
  8
1
 62
3
 10
560.4625658433508
 20
582.051175145079
 30
0
 11
554.1803346104349
 21
582.051175145079
 31
0
  0
LINE
  8
1
 62
3
 10
543.7099492224659
 20
582.051175145079
 30
0
 11
535.8571601814729
 21
550
 31
0
  0
LINE
  8
1
 62
3
 10
542.1393914142609
 20
550
 30
0
 11
545.5237989051459
 21
563.813466360341
 31
0
  0
LINE
  8
1
 62
3
 10
546.3275455694388
 20
550
 30
0
 11
549.7119530603338
 21
563.813466360341
 31
0
  0
LINE
  8
1
 62
3
 10
552.6097768023359
 20
550
 30
0
 11
560.4625658433508
 21
582.051175145079
 31
0
  0
LINE
  8
1
 62
3
 10
535.8571601814729
 20
550
 30
0
 11
542.1393914142609
 21
550
 31
0
  0
LINE
  8
1
 62
3
 10
530.5296286865159
 20
570.990569084413
 30
0
 11
536.8118599193219
 21
570.990569084413
 31
0
  0
LINE
  8
1
 62
3
 10
532.1555897753099
 20
577.626932720839
 30
0
 11
530.5296286865159
 21
570.990569084413
 31
0
  0
LINE
  8
1
 62
3
 10
527.9674356201178
 20
577.626932720839
 30
0
 11
532.1555897753099
 21
577.626932720839
 31
0
  0
LINE
  8
1
 62
3
 10
522.2825946974881
 20
554.424242424182
 30
0
 11
527.9674356201178
 21
577.626932720839
 31
0
  0
LINE
  8
1
 62
3
 10
526.4707488526909
 20
554.424242424182
 30
0
 11
522.2825946974881
 21
554.424242424182
 31
0
  0
LINE
  8
1
 62
3
 10
528.0967099414779
 20
561.0606060606081
 30
0
 11
526.4707488526909
 21
554.424242424182
 31
0
  0
LINE
  8
1
 62
3
 10
534.378941174266
 20
561.0606060606081
 30
0
 11
528.0967099414779
 21
561.0606060606081
 31
0
  0
LINE
  8
1
 62
3
 10
531.669006026292
 20
550
 30
0
 11
534.378941174266
 21
561.0606060606081
 31
0
  0
LINE
  8
1
 62
3
 10
514.9163894055382
 20
550
 30
0
 11
531.669006026292
 21
550
 31
0
  0
LINE
  8
1
 62
3
 10
522.7691784465314
 20
582.051175145079
 30
0
 11
514.9163894055382
 21
550
 31
0
  0
LINE
  8
1
 62
3
 10
539.5217950672519
 20
582.051175145079
 30
0
 11
522.7691784465314
 21
582.051175145079
 31
0
  0
LINE
  8
1
 62
3
 10
536.8118599193219
 20
570.990569084413
 30
0
 11
539.5217950672519
 21
582.051175145079
 31
0
  0
LINE
  8
1
 62
3
 10
517.4970502321557
 20
577.626932720839
 30
0
 11
518.581024291314
 21
582.051175145079
 31
0
  0
LINE
  8
1
 62
3
 10
507.0266648441757
 20
577.626932720839
 30
0
 11
517.4970502321557
 21
577.626932720839
 31
0
  0
LINE
  8
1
 62
3
 10
504.5937460991627
 20
567.6969696969529
 30
0
 11
507.0266648441757
 21
577.626932720839
 31
0
  0
LINE
  8
1
 62
3
 10
515.0641314872264
 20
567.6969696969529
 30
0
 11
504.5937460991627
 21
567.6969696969529
 31
0
  0
LINE
  8
1
 62
3
 10
510.7282352503025
 20
550
 30
0
 11
515.0641314872264
 21
567.6969696969529
 31
0
  0
LINE
  8
1
 62
3
 10
493.97561862948
 20
550
 30
0
 11
510.7282352503025
 21
550
 31
0
  0
LINE
  8
1
 62
3
 10
495.0595926887872
 20
554.424242424182
 30
0
 11
493.97561862948
 21
550
 31
0
  0
LINE
  8
1
 62
3
 10
505.5299780766982
 20
554.424242424182
 30
0
 11
495.0595926887872
 21
554.424242424182
 31
0
  0
LINE
  8
1
 62
3
 10
507.6979261951165
 20
563.2727272727971
 30
0
 11
505.5299780766982
 21
554.424242424182
 31
0
  0
LINE
  8
1
 62
3
 10
497.2275408071509
 20
563.2727272727971
 30
0
 11
507.6979261951165
 21
563.2727272727971
 31
0
  0
LINE
  8
1
 62
3
 10
501.8284076705422
 20
582.051175145079
 30
0
 11
497.2275408071509
 21
563.2727272727971
 31
0
  0
LINE
  8
1
 62
3
 10
518.581024291314
 20
582.051175145079
 30
0
 11
501.8284076705422
 21
582.051175145079
 31
0
  0
LINE
  8
1
 62
3
 10
497.6402535153793
 20
582.051175145079
 30
0
 11
489.7874644743642
 21
550
 31
0
  0
LINE
  8
1
 62
3
 10
491.3580222825731
 20
582.051175145079
 30
0
 11
497.6402535153793
 21
582.051175145079
 31
0
  0
LINE
  8
1
 62
3
 10
489.7874644743642
 20
550
 30
0
 11
471.9878093147745
 21
550
 31
0
  0
LINE
  8
1
 62
3
 10
484.5892073007672
 20
554.424242424182
 30
0
 11
491.3580222825731
 21
582.051175145079
 31
0
  0
LINE
  8
1
 62
3
 10
479.3540146067826
 20
554.424242424182
 30
0
 11
484.5892073007672
 21
554.424242424182
 31
0
  0
LINE
  8
1
 62
3
 10
486.1228295885776
 20
582.051175145079
 30
0
 11
479.3540146067826
 21
554.424242424182
 31
0
  0
LINE
  8
1
 62
3
 10
479.8405983557677
 20
582.051175145079
 30
0
 11
486.1228295885776
 21
582.051175145079
 31
0
  0
LINE
  8
1
 62
3
 10
471.9878093147745
 20
550
 30
0
 11
479.8405983557677
 21
582.051175145079
 31
0
  0
LINE
  8
1
 62
3
 10
467.799655159648
 20
550
 30
0
 11
450
 21
550
 31
0
  0
LINE
  8
1
 62
3
 10
478.3623793485675
 20
593.1117812056621
 30
0
 11
467.799655159648
 21
550
 31
0
  0
LINE
  8
1
 62
3
 10
454.3890522712754
 20
593.1117812056621
 30
0
 11
478.3623793485675
 21
593.1117812056621
 31
0
  0
LINE
  8
1
 62
3
 10
453.0340846972904
 20
587.581478175405
 30
0
 11
454.3890522712754
 21
593.1117812056621
 31
0
  0
LINE
  8
1
 62
3
 10
470.7251805418237
 20
587.581478175405
 30
0
 11
453.0340846972904
 21
587.581478175405
 31
0
  0
LINE
  8
1
 62
3
 10
462.6013979859416
 20
554.424242424182
 30
0
 11
470.7251805418237
 21
587.581478175405
 31
0
  0
LINE
  8
1
 62
3
 10
457.3662052920627
 20
554.424242424182
 30
0
 11
462.6013979859416
 21
554.424242424182
 31
0
  0
LINE
  8
1
 62
3
 10
464.1350202737523
 20
582.051175145079
 30
0
 11
457.3662052920627
 21
554.424242424182
 31
0
  0
LINE
  8
1
 62
3
 10
457.8527890410551
 20
582.051175145079
 30
0
 11
464.1350202737523
 21
582.051175145079
 31
0
  0
LINE
  8
1
 62
3
 10
450
 20
550
 30
0
 11
457.8527890410551
 21
582.051175145079
 31
0
  0
LINE
  8
1
 62
3
 10
585.1196812335149
 20
556.1939393939099
 30
0
 11
594.1648417396059
 21
593.1117812056621
 31
0
  0
LINE
  8
1
 62
3
 10
594.1648417396059
 20
593.1117812056621
 30
0
 11
588.301425922338
 21
593.1117812056621
 31
0
  0
LINE
  8
1
 62
3
 10
588.301425922338
 20
593.1117812056621
 30
0
 11
577.738701733397
 21
550
 31
0
  0
LINE
  8
1
 62
3
 10
595.643060746967
 20
582.051175145079
 30
0
 11
589.958219824279
 21
558.848484848477
 31
0
  0
LINE
  8
1
 62
3
 10
589.958219824279
 20
558.848484848477
 30
0
 11
605.6637979062
 21
558.848484848477
 31
0
  0
LINE
  8
1
 62
3
 10
605.6637979062
 20
558.848484848477
 30
0
 11
611.3486388288079
 21
582.051175145079
 31
0
  0
LINE
  8
1
 62
3
 10
611.3486388288079
 20
582.051175145079
 30
0
 11
606.113446134885
 21
582.051175145079
 31
0
  0
LINE
  8
1
 62
3
 10
606.113446134885
 20
582.051175145079
 30
0
 11
601.5125792714898
 21
563.2727272727971
 31
0
  0
LINE
  8
1
 62
3
 10
601.5125792714898
 20
563.2727272727971
 30
0
 11
596.277386577538
 21
563.2727272727971
 31
0
  0
LINE
  8
1
 62
3
 10
596.277386577538
 20
563.2727272727971
 30
0
 11
600.878253440889
 21
582.051175145079
 31
0
  0
LINE
  8
1
 62
3
 10
600.878253440889
 20
582.051175145079
 30
0
 11
595.643060746967
 21
582.051175145079
 31
0
  0
LINE
  8
1
 62
3
 10
617.9069775849489
 20
582.051175145079
 30
0
 11
613.8615313219339
 21
582.051175145079
 31
0
  0
LINE
  8
1
 62
3
 10
613.8615313219339
 20
582.051175145079
 30
0
 11
617.9838268441308
 21
571.4153012186609
 31
0
  0
LINE
  8
1
 62
3
 10
617.9838268441308
 20
571.4153012186609
 30
0
 11
608.1766903993409
 21
558.848484848477
 31
0
  0
LINE
  8
1
 62
3
 10
608.1766903993409
 20
558.848484848477
 30
0
 11
612.222136662338
 21
558.848484848477
 31
0
  0
LINE
  8
1
 62
3
 10
612.222136662338
 20
558.848484848477
 30
0
 11
619.3262692424398
 21
567.951685370502
 31
0
  0
LINE
  8
1
 62
3
 10
619.3262692424398
 20
567.951685370502
 30
0
 11
622.8545249371239
 21
558.848484848477
 31
0
  0
LINE
  8
1
 62
3
 10
622.8545249371239
 20
558.848484848477
 30
0
 11
626.8999712001719
 21
558.848484848477
 31
0
  0
LINE
  8
1
 62
3
 10
626.8999712001719
 20
558.848484848477
 30
0
 11
622.0292731071679
 21
571.415301218603
 31
0
  0
LINE
  8
1
 62
3
 10
622.0292731071679
 20
571.415301218603
 30
0
 11
630.32950315225
 21
582.051175145079
 31
0
  0
LINE
  8
1
 62
3
 10
630.32950315225
 20
582.051175145079
 30
0
 11
626.284056889192
 21
582.051175145079
 31
0
  0
LINE
  8
1
 62
3
 10
626.284056889192
 20
582.051175145079
 30
0
 11
620.686830708906
 21
574.878917066824
 31
0
  0
LINE
  8
1
 62
3
 10
620.686830708906
 20
574.878917066824
 30
0
 11
617.9069775849489
 21
582.051175145079
 31
0
  0
LINE
  8
1
 62
3
 10
627.928830785688
 20
556.1939393939099
 30
0
 11
630.3295031522068
 21
550
 31
0
  0
LINE
  8
1
 62
3
 10
627.928830785688
 20
556.1939393939099
 30
0
 11
585.1196812335149
 21
556.1939393939099
 31
0
  0
LINE
  8
1
 62
3
 10
630.3295031522068
 20
550
 30
0
 11
577.738701733397
 21
550
 31
0
  0
LINE
  8
1
 62
3
 10
486.7386876589662
 20
593.1117812056621
 30
0
 11
489.9906098364481
 21
606.38450847832
 31
0
  0
LINE
  8
1
 62
3
 10
489.9906098364481
 20
606.38450847832
 30
0
 11
502.5550723021661
 21
606.38450847832
 31
0
  0
LINE
  8
1
 62
3
 10
502.5550723021661
 20
606.38450847832
 30
0
 11
499.3031501244914
 21
593.1117812056621
 31
0
  0
LINE
  8
1
 62
3
 10
499.3031501244914
 20
593.1117812056621
 30
0
 11
486.7386876589662
 21
593.1117812056621
 31
0
  0
LINE
  8
1
 62
3
 10
497.7510600764872
 20
595.3239024177931
 30
0
 11
489.3747517661324
 21
595.3239024177931
 31
0
  0
LINE
  8
1
 62
3
 10
499.9190081949637
 20
604.172387266269
 30
0
 11
497.7510600764872
 21
595.3239024177931
 31
0
  0
LINE
  8
1
 62
3
 10
491.5426998844741
 20
604.172387266269
 30
0
 11
499.9190081949637
 21
604.172387266269
 31
0
  0
LINE
  8
1
 62
3
 10
489.3747517661324
 20
595.3239024177931
 30
0
 11
491.5426998844741
 21
604.172387266269
 31
0
  0
LINE
  8
1
 62
3
 10
505.0679647951583
 20
606.38450847832
 30
0
 11
501.8160426176219
 21
593.1117812056621
 31
0
  0
LINE
  8
1
 62
3
 10
505.0679647951583
 20
606.38450847832
 30
0
 11
517.632427260738
 21
606.38450847832
 31
0
  0
LINE
  8
1
 62
3
 10
517.632427260738
 20
606.38450847832
 30
0
 11
515.7649031508845
 21
598.7622048583319
 31
0
  0
LINE
  8
1
 62
3
 10
514.3805050832052
 20
593.1117812056621
 30
0
 11
512.2864280055655
 21
593.1117812056621
 31
0
  0
LINE
  8
1
 62
3
 10
512.2864280055655
 20
593.1117812056621
 30
0
 11
513.3704020649384
 21
597.5360236298441
 31
0
  0
LINE
  8
1
 62
3
 10
513.3704020649384
 20
597.5360236298441
 30
0
 11
504.9940937544088
 21
597.5360236298441
 31
0
  0
LINE
  8
1
 62
3
 10
505.5360807840007
 20
599.7481448420331
 30
0
 11
513.9123890943812
 21
599.7481448420331
 31
0
  0
LINE
  8
1
 62
3
 10
513.9123890943812
 20
599.7481448420331
 30
0
 11
514.996363153703
 21
604.172387266269
 31
0
  0
LINE
  8
1
 62
3
 10
514.996363153703
 20
604.172387266269
 30
0
 11
506.6200548431843
 21
604.172387266269
 31
0
  0
LINE
  8
1
 62
3
 10
506.6200548431843
 20
604.172387266269
 30
0
 11
505.5360807840007
 21
599.7481448420331
 31
0
  0
LINE
  8
1
 62
3
 10
515.3282234693179
 20
596.979895810782
 30
0
 11
514.3805050832052
 21
593.1117812056621
 31
0
  0
LINE
  8
1
 62
3
 10
501.8160426176219
 20
593.1117812056621
 30
0
 11
503.9101196952979
 21
593.1117812056621
 31
0
  0
LINE
  8
1
 62
3
 10
503.9101196952979
 20
593.1117812056621
 30
0
 11
504.9940937544088
 21
597.5360236298441
 31
0
  0
LINE
  8
1
 62
3
 10
522.2393968314646
 20
606.38450847832
 30
0
 11
520.1453197539013
 21
606.38450847832
 31
0
  0
LINE
  8
1
 62
3
 10
520.1453197539013
 20
606.38450847832
 30
0
 11
516.8933975763357
 21
593.1117812056621
 31
0
  0
LINE
  8
1
 62
3
 10
516.8933975763357
 20
593.1117812056621
 30
0
 11
518.9874746540554
 21
593.1117812056621
 31
0
  0
LINE
  8
1
 62
3
 10
518.9874746540554
 20
593.1117812056621
 30
0
 11
522.2393968314646
 21
606.38450847832
 31
0
  0
LINE
  8
1
 62
3
 10
521.5003671470404
 20
593.1117812056621
 30
0
 11
524.7522893245841
 21
606.38450847832
 31
0
  0
LINE
  8
1
 62
3
 10
524.7522893245841
 20
606.38450847832
 30
0
 11
537.316751790175
 21
606.38450847832
 31
0
  0
LINE
  8
1
 62
3
 10
537.316751790175
 20
606.38450847832
 30
0
 11
536.1785790280479
 21
601.739053932891
 31
0
  0
LINE
  8
1
 62
3
 10
534.0648296126528
 20
593.1117812056621
 30
0
 11
521.5003671470404
 21
593.1117812056621
 31
0
  0
LINE
  8
1
 62
3
 10
532.5127395646049
 20
595.3239024177931
 30
0
 11
524.1364312542755
 21
595.3239024177931
 31
0
  0
LINE
  8
1
 62
3
 10
534.6806876828998
 20
604.172387266269
 30
0
 11
534.0845019505218
 21
601.739053932891
 31
0
  0
LINE
  8
1
 62
3
 10
526.3043793726031
 20
604.172387266269
 30
0
 11
534.6806876828998
 21
604.172387266269
 31
0
  0
LINE
  8
1
 62
3
 10
524.1364312542755
 20
595.3239024177931
 30
0
 11
526.3043793726031
 21
604.172387266269
 31
0
  0
LINE
  8
1
 62
3
 10
535.6907907014249
 20
599.7481448420331
 30
0
 11
529.4085594686189
 21
599.7481448420331
 31
0
  0
LINE
  8
1
 62
3
 10
535.6907907014249
 20
599.7481448420331
 30
0
 11
534.0648296126528
 21
593.1117812056621
 31
0
  0
LINE
  8
1
 62
3
 10
529.4085594686189
 20
599.7481448420331
 30
0
 11
528.8665724389718
 21
597.5360236298441
 31
0
  0
LINE
  8
1
 62
3
 10
528.8665724389718
 20
597.5360236298441
 30
0
 11
533.0547265943719
 21
597.5360236298441
 31
0
  0
LINE
  8
1
 62
3
 10
533.0547265943719
 20
597.5360236298441
 30
0
 11
532.5127395646049
 21
595.3239024177931
 31
0
  0
LINE
  8
1
 62
3
 10
534.0845019505218
 20
601.739053932891
 30
0
 11
536.1785790280479
 21
601.739053932891
 31
0
  0
LINE
  8
1
 62
3
 10
536.5777221057689
 20
593.1117812056621
 30
0
 11
538.671799183329
 21
593.1117812056621
 31
0
  0
LINE
  8
1
 62
3
 10
538.671799183329
 20
593.1117812056621
 30
0
 11
541.9237213608981
 21
606.38450847832
 31
0
  0
LINE
  8
1
 62
3
 10
539.8296442833339
 20
606.38450847832
 30
0
 11
536.5777221057689
 21
593.1117812056621
 31
0
  0
LINE
  8
1
 62
3
 10
541.9237213608981
 20
606.38450847832
 30
0
 11
539.8296442833339
 21
606.38450847832
 31
0
  0
LINE
  8
1
 62
3
 10
541.1846916764989
 20
593.1117812056621
 30
0
 11
544.4366138540139
 21
606.38450847832
 31
0
  0
LINE
  8
1
 62
3
 10
544.4366138540139
 20
606.38450847832
 30
0
 11
547.5777294703548
 21
606.38450847832
 31
0
  0
LINE
  8
1
 62
3
 10
547.5777294703548
 20
606.38450847832
 30
0
 11
552.0615673366299
 21
594.770872114746
 31
0
  0
LINE
  8
1
 62
3
 10
552.0615673366299
 20
594.770872114746
 30
0
 11
554.9069992419829
 21
606.38450847832
 31
0
  0
LINE
  8
1
 62
3
 10
554.9069992419829
 20
606.38450847832
 30
0
 11
557.0010763195969
 21
606.38450847832
 31
0
  0
LINE
  8
1
 62
3
 10
557.0010763195969
 20
606.38450847832
 30
0
 11
553.7491541419769
 21
593.1117812056621
 31
0
  0
LINE
  8
1
 62
3
 10
553.7491541419769
 20
593.1117812056621
 30
0
 11
550.5064756532079
 21
593.1117812056621
 31
0
  0
LINE
  8
1
 62
3
 10
550.5064756532079
 20
593.1117812056621
 30
0
 11
546.7253193174979
 21
602.9053946295351
 31
0
  0
LINE
  8
1
 62
3
 10
546.7253193174979
 20
602.9053946295351
 30
0
 11
546.0847710509879
 21
604.5644855385979
 31
0
  0
LINE
  8
1
 62
3
 10
546.0847710509879
 20
604.5644855385979
 30
0
 11
543.2787687540589
 21
593.1117812056621
 31
0
  0
LINE
  8
1
 62
3
 10
543.2787687540589
 20
593.1117812056621
 30
0
 11
541.1846916764989
 21
593.1117812056621
 31
0
  0
LINE
  8
1
 62
3
 10
556.2620466350929
 20
593.1117812056621
 30
0
 11
563.77347691399
 21
606.38450847832
 31
0
  0
LINE
  8
1
 62
3
 10
563.77347691399
 20
606.38450847832
 30
0
 11
567.818923176965
 21
606.38450847832
 31
0
  0
LINE
  8
1
 62
3
 10
567.818923176965
 20
606.38450847832
 30
0
 11
568.826509100727
 21
593.1117812056621
 31
0
  0
LINE
  8
1
 62
3
 10
568.826509100727
 20
593.1117812056621
 30
0
 11
566.7968269376579
 21
593.1117812056621
 31
0
  0
LINE
  8
1
 62
3
 10
566.7968269376579
 20
593.1117812056621
 30
0
 11
566.6288959503909
 21
595.3239024177931
 31
0
  0
LINE
  8
1
 62
3
 10
566.6288959503909
 20
595.3239024177931
 30
0
 11
559.892748670027
 21
595.3239024177931
 31
0
  0
LINE
  8
1
 62
3
 10
559.892748670027
 20
595.3239024177931
 30
0
 11
558.6408436236638
 21
593.1117812056621
 31
0
  0
LINE
  8
1
 62
3
 10
558.6408436236638
 20
593.1117812056621
 30
0
 11
556.2620466350929
 21
593.1117812056621
 31
0
  0
LINE
  8
1
 62
3
 10
561.144653716558
 20
597.5360236298441
 30
0
 11
566.4609649630688
 21
597.5360236298441
 31
0
  0
LINE
  8
1
 62
3
 10
566.4609649630688
 20
597.5360236298441
 30
0
 11
565.9571720012139
 21
604.172387266269
 31
0
  0
LINE
  8
1
 62
3
 10
565.9571720012139
 20
604.172387266269
 30
0
 11
564.9003688559239
 21
604.172387266269
 31
0
  0
LINE
  8
1
 62
3
 10
561.144653716558
 20
597.5360236298441
 30
0
 11
564.9003688559239
 21
604.172387266269
 31
0
  0
LINE
  8
1
 62
3
 10
574.591323771416
 20
606.38450847832
 30
0
 11
571.339401593847
 21
593.1117812056621
 31
0
  0
LINE
  8
1
 62
3
 10
571.339401593847
 20
593.1117812056621
 30
0
 11
583.9038640594258
 21
593.1117812056621
 31
0
  0
LINE
  8
1
 62
3
 10
583.9038640594258
 20
593.1117812056621
 30
0
 11
584.445851089087
 21
595.3239024177931
 31
0
  0
LINE
  8
1
 62
3
 10
584.445851089087
 20
595.3239024177931
 30
0
 11
573.9754657010669
 21
595.3239024177931
 31
0
  0
LINE
  8
1
 62
3
 10
573.9754657010669
 20
595.3239024177931
 30
0
 11
576.68540084903
 21
606.38450847832
 31
0
  0
LINE
  8
1
 62
3
 10
576.68540084903
 20
606.38450847832
 30
0
 11
574.591323771416
 21
606.38450847832
 31
0
  0
LINE
  8
1
 62
3
 10
621.206636135699
 20
600.2001112138419
 30
0
 11
621.206636135699
 21
597.451055788282
 31
0
  0
LINE
  8
1
 62
3
 10
620.3341884365839
 20
597.451055788282
 30
0
 11
620.3341884365839
 21
604.3095239634561
 31
0
  0
LINE
  8
1
 62
3
 10
620.3341884365839
 20
604.3095239634561
 30
0
 11
622.7761082958239
 21
604.3095239634561
 31
0
  0
LINE
  8
1
 62
3
 10
622.7761082958239
 20
604.3095239634561
 30
0
 11
623.0724648781759
 21
604.3095239634561
 31
0
  0
LINE
  8
1
 62
3
 10
624.9060993927419
 20
599.3306895546259
 30
0
 11
624.9060993927419
 21
597.451055788282
 31
0
  0
LINE
  8
1
 62
3
 10
624.9060993927419
 20
597.451055788282
 30
0
 11
623.9449125772369
 21
597.451055788282
 31
0
  0
LINE
  8
1
 62
3
 10
623.9449125772369
 20
597.451055788282
 30
0
 11
623.9449125772369
 21
599.0729110559
 31
0
  0
LINE
  8
1
 62
3
 10
622.931697837317
 20
600.2001112138419
 30
0
 11
621.206636135699
 21
600.2001112138419
 31
0
  0
LINE
  8
1
 62
3
 10
621.206636135699
 20
597.451055788282
 30
0
 11
620.3341884365839
 21
597.451055788282
 31
0
  0
LINE
  8
1
 62
3
 10
621.206636135699
 20
601.050334541276
 30
0
 11
623.194119363641
 21
601.050334541276
 31
0
  0
LINE
  8
1
 62
3
 10
623.062609127785
 20
603.505992531278
 30
0
 11
621.206636135699
 21
603.505992531278
 31
0
  0
LINE
  8
1
 62
3
 10
621.206636135699
 20
603.505992531278
 30
0
 11
621.206636135699
 21
601.050334541276
 31
0
  0
ARC
  8
1
 62
3
 10
622.9426940693159
 20
602.3039199213811
 30
0
 40
2.00979800886174
 50
304.0700115354277
 51
86.29788871825861
  0
ARC
  8
1
 62
3
 10
622.8643762433019
 20
602.264025930551
 30
0
 40
1.257687287767243
 50
285.1995809529428
 51
80.9313952387881
  0
ARC
  8
1
 62
3
 10
622.789193605106
 20
599.0530393898221
 30
0
 40
1.155889798231655
 50
0.9850581704851609
 51
82.91825463293205
  0
ARC
  8
1
 62
3
 10
623.514586791596
 20
599.3622336822259
 30
0
 40
1.39187009132817
 50
358.7013873342734
 51
66.54486649404552
  0
CIRCLE
  8
1
 62
3
 10
622.7358752379369
 20
600.878787878755
 30
0
 40
5.972862778753957
  0
CIRCLE
  8
1
 62
3
 10
622.7358752379369
 20
600.878787878755
 30
0
 40
5.530127989695984
  0
ENDBLK
  8
0
  0
BLOCK
  8
0
  2
WANNE_MALAGA_460
 70
0
 10
651.3288259999999
 20
94.24209900000005
 30
0
  0
LINE
  8
WANNE
 62
7
 10
535.2699740000001
 20
136.1767749999999
 30
0
 11
615.297742
 21
156.3116190000001
 31
0
  0
LINE
  8
WANNE
 62
7
 10
615.297742
 20
156.3116190000001
 30
0
 11
693.140523
 21
179.3263880000004
 31
0
  0
LINE
  8
WANNE
 62
7
 10
772.0143049999999
 20
206.416604
 30
0
 11
847.607814
 21
236.3162069999999
 31
0
  0
LINE
  8
WANNE
 62
7
 10
919.527394
 20
268.7963790000003
 30
0
 11
987.447678
 21
303.5922860000001
 31
0
  0
LINE
  8
WANNE
 62
7
 10
693.140523
 20
179.3263880000004
 30
0
 11
772.0143049999999
 21
206.416604
 31
0
  0
LINE
  8
WANNE
 62
7
 10
847.607814
 20
236.3162069999999
 30
0
 11
919.527394
 21
268.7963790000003
 31
0
  0
LINE
  8
WANNE
 62
7
 10
987.447678
 20
303.5922860000001
 30
0
 11
1051.082715
 21
340.4238610000002
 31
0
  0
LINE
  8
WANNE
 62
7
 10
1051.082715
 20
340.4238610000002
 30
0
 11
1081.22376
 21
359.5101059999997
 31
0
  0
LINE
  8
WANNE
 62
7
 10
1113.9432
 20
381.581666
 30
0
 11
1133.043179
 21
395.1785669999999
 31
0
  0
LINE
  8
WANNE
 62
7
 10
1133.043179
 20
395.1785669999999
 30
0
 11
1151.745038
 21
409.0459510000001
 31
0
  0
LINE
  8
WANNE
 62
7
 10
1081.22376
 20
359.5101059999997
 30
0
 11
1113.9432
 21
381.581666
 31
0
  0
LINE
  8
WANNE
 62
7
 10
1151.745038
 20
409.0459510000001
 30
0
 11
1170.032858
 21
423.1763339999998
 31
0
  0
LINE
  8
WANNE
 62
7
 10
1187.891122
 20
437.5617430000002
 30
0
 11
1222.259243
 21
467.06339
 31
0
  0
LINE
  8
WANNE
 62
7
 10
1170.032858
 20
423.1763339999998
 30
0
 11
1187.891122
 21
437.5617430000002
 31
0
  0
LINE
  8
WANNE
 62
7
 10
1222.259243
 20
467.06339
 30
0
 11
1254.735285
 21
497.4779660000011
 31
0
  0
LINE
  8
WANNE
 62
7
 10
1254.735285
 20
497.4779660000011
 30
0
 11
1313.604482
 21
560.7227460000011
 31
0
  0
LINE
  8
WANNE
 62
7
 10
1313.604482
 20
560.7227460000011
 30
0
 11
1363.804568999999
 21
626.6029349999999
 31
0
  0
LINE
  8
WANNE
 62
7
 10
1363.804568999999
 20
626.6029349999999
 30
0
 11
1404.855234
 21
694.3837110000011
 31
0
  0
LINE
  8
WANNE
 62
7
 10
1404.855234
 20
694.3837110000011
 30
0
 11
1427.363936
 21
741.092448000001
 31
0
  0
LINE
  8
WANNE
 62
7
 10
1214.119111
 20
990.727883
 30
0
 11
1287.06663
 21
983.1524460000001
 31
0
  0
LINE
  8
WANNE
 62
7
 10
1042.872922999999
 20
982.968714000001
 30
0
 11
1128.694411
 21
991.2324420000009
 31
0
  0
LINE
  8
WANNE
 62
7
 10
1128.694411
 20
991.2324420000009
 30
0
 11
1214.119111
 21
990.727883
 31
0
  0
LINE
  8
WANNE
 62
7
 10
910.338049
 20
955.010823000001
 30
0
 11
932.625794
 21
960.9309760000001
 31
0
  0
LINE
  8
WANNE
 62
7
 10
932.625794
 20
960.9309760000001
 30
0
 11
954.8552259999999
 21
966.3553099999999
 31
0
  0
LINE
  8
WANNE
 62
7
 10
954.8552259999999
 20
966.3553099999999
 30
0
 11
999.075822
 21
975.689984000001
 31
0
  0
LINE
  8
WANNE
 62
7
 10
999.075822
 20
975.689984000001
 30
0
 11
1042.872922999999
 21
982.968714000001
 31
0
  0
LINE
  8
WANNE
 62
7
 10
865.6503640000001
 20
941.7134910000011
 30
0
 11
888.007713
 21
948.6023029999999
 31
0
  0
LINE
  8
WANNE
 62
7
 10
888.007713
 20
948.6023029999999
 30
0
 11
910.338049
 21
955.010823000001
 31
0
  0
LINE
  8
WANNE
 62
7
 10
828.282643
 20
929.157798
 30
0
 11
865.6503640000001
 21
941.7134910000011
 31
0
  0
LINE
  8
WANNE
 62
7
 10
794.87355
 20
916.842087
 30
0
 11
828.282643
 21
929.157798
 31
0
  0
LINE
  8
WANNE
 62
7
 10
727.085032
 20
888.7337789999999
 30
0
 11
794.87355
 21
916.842087
 31
0
  0
LINE
  8
WANNE
 62
7
 10
658.311676
 20
855.985925
 30
0
 11
727.085032
 21
888.7337789999999
 31
0
  0
LINE
  8
WANNE
 62
7
 10
588.9490860000001
 20
818.6550450000011
 30
0
 11
658.311676
 21
855.985925
 31
0
  0
LINE
  8
WANNE
 62
7
 10
519.4047069999999
 20
776.8382349999999
 30
0
 11
588.9490860000001
 21
818.6550450000011
 31
0
  0
LINE
  8
WANNE
 62
7
 10
450.0988620000001
 20
730.708747000001
 30
0
 11
519.4047069999999
 21
776.8382349999999
 31
0
  0
LINE
  8
WANNE
 62
7
 10
381.4538549999998
 20
680.4770510000001
 30
0
 11
450.0988620000001
 21
730.708747000001
 31
0
  0
LINE
  8
WANNE
 62
7
 10
313.8836529999999
 20
626.421781
 30
0
 11
381.4538549999998
 21
680.4770510000001
 31
0
  0
LINE
  8
BEMASS
 62
7
 10
1214.309733
 20
960.053501000001
 30
0
 11
1295.752189
 21
949.8922700000001
 31
0
  0
LINE
  8
BEMASS
 62
7
 10
1171.620424
 20
961.6879930000009
 30
0
 11
1214.309733
 21
960.053501000001
 31
0
  0
LINE
  8
BEMASS
 62
7
 10
1082.955339
 20
957.925416
 30
0
 11
1127.789569999999
 21
960.982667
 31
0
  0
LINE
  8
BEMASS
 62
7
 10
1127.789569999999
 20
960.982667
 30
0
 11
1171.620424
 21
961.6879930000009
 31
0
  0
LINE
  8
BEMASS
 62
7
 10
991.0908240000001
 20
944.8317280000001
 30
0
 11
1014.24392
 21
948.961012
 31
0
  0
LINE
  8
BEMASS
 62
7
 10
1060.207163
 20
955.5153680000001
 30
0
 11
1082.955339
 21
957.925416
 31
0
  0
LINE
  8
BEMASS
 62
7
 10
1037.223797
 20
952.5140100000001
 30
0
 11
1060.207163
 21
955.5153680000001
 31
0
  0
LINE
  8
BEMASS
 62
7
 10
1014.24392
 20
948.961012
 30
0
 11
1037.223797
 21
952.5140100000001
 31
0
  0
LINE
  8
BEMASS
 62
7
 10
967.398095999999
 20
940.0480829999999
 30
0
 11
991.0908240000001
 21
944.8317280000001
 31
0
  0
LINE
  8
BEMASS
 62
7
 10
955.78961
 20
937.502152
 30
0
 11
967.398095999999
 21
940.0480829999999
 31
0
  0
LINE
  8
BEMASS
 62
7
 10
920.441253
 20
928.9477020000011
 30
0
 11
932.1491920000001
 21
931.914012
 31
0
  0
LINE
  8
BEMASS
 62
7
 10
932.1491920000001
 20
931.914012
 30
0
 11
944.079686999999
 21
934.8015109999999
 31
0
  0
LINE
  8
BEMASS
 62
7
 10
944.079686999999
 20
934.8015109999999
 30
0
 11
955.78961
 21
937.502152
 31
0
  0
LINE
  8
BEMASS
 62
7
 10
896.3938390000001
 20
922.445867000001
 30
0
 11
908.3483550000001
 21
925.7445260000011
 31
0
  0
LINE
  8
BEMASS
 62
7
 10
908.3483550000001
 20
925.7445260000011
 30
0
 11
920.441253
 21
928.9477020000011
 31
0
  0
LINE
  8
BEMASS
 62
7
 10
875.6675809999999
 20
916.4094230000001
 30
0
 11
885.8278350000001
 21
919.4189260000001
 31
0
  0
LINE
  8
BEMASS
 62
7
 10
885.8278350000001
 20
919.4189260000001
 30
0
 11
896.3938390000001
 21
922.445867000001
 31
0
  0
LINE
  8
BEMASS
 62
7
 10
856.394806
 20
910.4397570000001
 30
0
 11
865.8449310000001
 21
913.409533
 31
0
  0
LINE
  8
BEMASS
 62
7
 10
865.8449310000001
 20
913.409533
 30
0
 11
875.6675809999999
 21
916.4094230000001
 31
0
  0
LINE
  8
BEMASS
 62
7
 10
820.838215
 20
898.53532
 30
0
 11
838.478321999999
 21
904.587577
 31
0
  0
LINE
  8
BEMASS
 62
7
 10
847.3100360000001
 20
907.5091660000001
 30
0
 11
856.394806
 21
910.4397570000001
 31
0
  0
LINE
  8
BEMASS
 62
7
 10
838.478321999999
 20
904.587577
 30
0
 11
847.3100360000001
 21
907.5091660000001
 31
0
  0
LINE
  8
BEMASS
 62
7
 10
802.907197
 20
892.09817
 30
0
 11
820.838215
 21
898.53532
 31
0
  0
LINE
  8
BEMASS
 62
7
 10
784.845055
 20
885.323121000001
 30
0
 11
802.907197
 21
892.09817
 31
0
  0
LINE
  8
BEMASS
 62
7
 10
748.427631
 20
870.781964
 30
0
 11
784.845055
 21
885.323121000001
 31
0
  0
LINE
  8
BEMASS
 62
7
 10
711.682849
 20
854.9214760000009
 30
0
 11
748.427631
 21
870.781964
 31
0
  0
LINE
  8
BEMASS
 62
7
 10
637.419433
 20
819.255083
 30
0
 11
711.682849
 21
854.9214760000009
 31
0
  0
LINE
  8
BEMASS
 62
7
 10
562.5606459999999
 20
778.4021570000009
 30
0
 11
637.419433
 21
819.255083
 31
0
  0
LINE
  8
BEMASS
 62
7
 10
487.6351629999999
 20
732.5308789999999
 30
0
 11
562.5606459999999
 21
778.4021570000009
 31
0
  0
LINE
  8
BEMASS
 62
7
 10
425.078751
 20
690.313539
 30
0
 11
487.6351629999999
 21
732.5308789999999
 31
0
  0
LINE
  8
WANNE
 62
7
 10
311.2889689999997
 20
624.251218000001
 30
0
 11
313.8836529999999
 21
626.421781
 31
0
  0
LINE
  8
BEMASS
 62
7
 10
591.190384
 20
273.464148
 30
0
 11
635.005218
 21
281.9710910000003
 31
0
  0
LINE
  8
BEMASS
 62
7
 10
635.005218
 20
281.9710910000003
 30
0
 11
763.6836209999999
 21
313.5544600000003
 31
0
  0
LINE
  8
BEMASS
 62
7
 10
763.6836209999999
 20
313.5544600000003
 30
0
 11
824.7906760000001
 21
332.3474980000001
 31
0
  0
LINE
  8
BEMASS
 62
7
 10
824.7906760000001
 20
332.3474980000001
 30
0
 11
883.470634
 21
352.9848320000001
 31
0
  0
LINE
  8
BEMASS
 62
7
 10
883.470634
 20
352.9848320000001
 30
0
 11
939.542183999999
 21
375.333216
 31
0
  0
LINE
  8
BEMASS
 62
7
 10
939.542183999999
 20
375.333216
 30
0
 11
966.5588210000001
 21
387.1083850000014
 31
0
  0
LINE
  8
BEMASS
 62
7
 10
966.5588210000001
 20
387.1083850000014
 30
0
 11
979.784009
 21
393.1280180000013
 31
0
  0
LINE
  8
BEMASS
 62
7
 10
979.784009
 20
393.1280180000013
 30
0
 11
992.7740369999999
 21
399.2104010000003
 31
0
  0
LINE
  8
BEMASS
 62
7
 10
992.7740369999999
 20
399.2104010000003
 30
0
 11
1018.434052
 21
411.7482419999997
 31
0
  0
LINE
  8
BEMASS
 62
7
 10
1018.434052
 20
411.7482419999997
 30
0
 11
1032.02402
 21
418.6801750000013
 31
0
  0
LINE
  8
BEMASS
 62
7
 10
1032.02402
 20
418.6801750000013
 30
0
 11
1046.227292
 21
426.1512830000002
 31
0
  0
LINE
  8
BEMASS
 62
7
 10
1053.549547
 20
430.0969139999997
 30
0
 11
1061.625767
 21
434.5270330000003
 31
0
  0
LINE
  8
BEMASS
 62
7
 10
1046.227292
 20
426.1512830000002
 30
0
 11
1053.549547
 21
430.0969139999997
 31
0
  0
LINE
  8
BEMASS
 62
7
 10
1061.625767
 20
434.5270330000003
 30
0
 11
1070.077223
 21
439.2453740000001
 31
0
  0
LINE
  8
BEMASS
 62
7
 10
1070.077223
 20
439.2453740000001
 30
0
 11
1078.246965
 21
443.8948049999999
 31
0
  0
LINE
  8
BEMASS
 62
7
 10
1078.246965
 20
443.8948049999999
 30
0
 11
1094.24796
 21
453.262264
 31
0
  0
LINE
  8
BEMASS
 62
7
 10
1094.24796
 20
453.262264
 30
0
 11
1109.934205
 21
462.790356000001
 31
0
  0
LINE
  8
BEMASS
 62
7
 10
1109.934205
 20
462.790356000001
 30
0
 11
1125.305222
 21
472.477529
 31
0
  0
LINE
  8
BEMASS
 62
7
 10
1125.305222
 20
472.477529
 30
0
 11
1140.747784
 21
482.578405
 31
0
  0
LINE
  8
BEMASS
 62
7
 10
1140.747784
 20
482.578405
 30
0
 11
1155.559532
 21
492.638627
 31
0
  0
LINE
  8
BEMASS
 62
7
 10
1155.559532
 20
492.638627
 30
0
 11
1162.820701
 21
497.711449000001
 31
0
  0
LINE
  8
BEMASS
 62
7
 10
1162.820701
 20
497.711449000001
 30
0
 11
1170.03487
 21
502.8446879999999
 31
0
  0
LINE
  8
BEMASS
 62
7
 10
1170.03487
 20
502.8446879999999
 30
0
 11
1225.354553
 21
545.7004159999999
 31
0
  0
LINE
  8
BEMASS
 62
7
 10
1225.354553
 20
545.7004159999999
 30
0
 11
1275.361321
 21
590.9642240000001
 31
0
  0
LINE
  8
BEMASS
 62
7
 10
1275.361321
 20
590.9642240000001
 30
0
 11
1319.725001
 21
638.2838939999999
 31
0
  0
LINE
  8
BEMASS
 62
7
 10
1319.725001
 20
638.2838939999999
 30
0
 11
1358.197575
 21
687.2721260000001
 31
0
  0
LINE
  8
BEMASS
 62
7
 10
1358.197575
 20
687.2721260000001
 30
0
 11
1390.644141
 21
737.548509
 31
0
  0
LINE
  8
WANNE
 62
7
 10
1332.298107
 20
462.096575
 30
0
 11
1407.787205
 21
550.625624
 31
0
  0
LINE
  8
WANNE
 62
7
 10
1242.701432
 20
379.074678
 30
0
 11
1332.298107
 21
462.096575
 31
0
  0
LINE
  8
WANNE
 62
7
 10
1139.955465
 20
302.4479010000014
 30
0
 11
1242.701432
 21
379.074678
 31
0
  0
LINE
  8
WANNE
 62
7
 10
1025.159135
 20
233.0358100000003
 30
0
 11
1139.955465
 21
302.4479010000014
 31
0
  0
LINE
  8
WANNE
 62
7
 10
899.540250999999
 20
171.5808049999996
 30
0
 11
1025.159135
 21
233.0358100000003
 31
0
  0
LINE
  8
WANNE
 62
7
 10
764.4423790000001
 20
118.7401840000002
 30
0
 11
899.540250999999
 21
171.5808049999996
 31
0
  0
LINE
  8
WANNE
 62
7
 10
621.3104659999999
 20
75.07910699999957
 30
0
 11
764.4423790000001
 21
118.7401840000002
 31
0
  0
LINE
  8
WANNE
 62
7
 10
471.675389
 20
41.06455199999982
 30
0
 11
621.3104659999999
 21
75.07910699999957
 31
0
  0
LINE
  8
WANNE
 62
7
 10
317.1375799999996
 20
17.0603259999998
 30
0
 11
471.675389
 21
41.06455199999982
 31
0
  0
LINE
  8
WANNE
 62
7
 10
159.3499080000001
 20
3.323166000000128
 30
0
 11
317.1375799999996
 21
17.0603259999998
 31
0
  0
LINE
  8
WANNE
 62
7
 10
0
 20
0
 30
0
 11
159.3499080000001
 21
3.323166000000128
 31
0
  0
LINE
  8
WANNE
 62
7
 10
1549.963775
 20
1050
 30
0
 11
0
 21
1050
 31
0
  0
LINE
  8
WANNE
 62
7
 10
0
 20
0
 30
0
 11
0
 21
1050
 31
0
  0
LINE
  8
MITTELLINIEN
 62
3
  6
DASHDOT
 10
1301.907508999998
 20
731.984138
 30
0
 11
1172.239534999987
 21
731.984138
 31
0
  0
LINE
  8
MITTELLINIEN
 62
3
  6
DASHDOT
 10
1237.917554
 20
795.974092999998
 30
0
 11
1237.917554
 21
666.3061189999989
 31
0
  0
ARC
  8
WANNE
 62
7
 10
452.731785
 20
523.4886550000001
 30
0
 40
400.0000000000004
 50
105.921927
 51
180
  0
ARC
  8
WANNE
 62
7
 10
1006.326841000003
 20
-1457.356259
 30
0
 40
2456.743592000001
 50
84.97012000000008
 51
90
  0
ARC
  8
BEMASS
 62
7
 10
750.078301
 20
166.1927139999998
 30
0
 40
800.0000000000001
 50
85.10548200000001
 51
128.3
  0
ARC
  8
WANNE
 62
7
 10
1006.326841000003
 20
-1457.356259
 30
0
 40
2456.743592
 50
90
 51
105.6643930000001
  0
ARC
  8
WANNE
 62
7
 10
452.731785
 20
523.4886550000001
 30
0
 40
400.0000000000003
 50
180
 51
263.311682
  0
ARC
  8
WANNE
 62
7
 10
441.752577
 20
506.3520120000001
 30
0
 40
381.8051989999996
 50
264.648678
 51
284.177983
  0
ARC
  8
WANNE
 62
7
 10
1266.235773
 20
809.3966539999999
 30
0
 40
174.9999999999996
 50
336.4759520000001
 51
83.16367500000015
  0
ARC
  8
BEMASS
 62
7
 10
1266.279035999999
 20
809.3418730000001
 30
0
 40
143.600000000001
 50
329.9892970000002
 51
78.40289199999954
  0
ARC
  8
BEMASS
 62
7
 10
592.271198000002
 20
456.164242000003
 30
0
 40
287.7137599999986
 50
124.6261980000007
 51
136.1461650000006
  0
ARC
  8
BEMASS
 62
7
 10
545.6546229999999
 20
495.6320499999999
 30
0
 40
226.7864240000004
 50
135.1769010000001
 51
281.582983
  0
ARC
  8
WANNE
 62
7
 10
765.4608350000001
 20
1003.428658
 30
0
 40
785.8840580000004
 50
324.818371
 51
3.397328000000075
  0
CIRCLE
  8
WANNE
 62
7
 10
1237.917554
 20
731.984138
 30
0
 40
45
  0
CIRCLE
  8
WANNE
 62
7
 10
1237.917553999994
 20
731.984138
 30
0
 40
26
  0
POLYLINE
  8
1
 62
7
 66
1
 70
1
  0
VERTEX
  8
1
 10
1349.421935112939
 20
631.2709623616711
 30
0
 42
0.007947244762025808
  0
VERTEX
  8
1
 10
1350.335031694266
 20
631.1145362748416
 30
0
 42
0.08322995328969798
  0
VERTEX
  8
1
 10
1352.232977080317
 20
631.3434981117042
 30
0
 42
0.06642873214924204
  0
VERTEX
  8
1
 10
1353.38466544569
 20
631.737909580731
 30
0
 42
0.004103491961227834
  0
VERTEX
  8
1
 10
1354.596299893838
 20
632.3186796714549
 30
0
 42
0.03828215115847395
  0
VERTEX
  8
1
 10
1356.95394544421
 20
633.8423400746448
 30
0
 42
0.03166914880626934
  0
VERTEX
  8
1
 10
1358.289072836088
 20
634.9047132783455
 30
0
 42
0.001414207636771859
  0
VERTEX
  8
1
 10
1359.638506967518
 20
636.1135753791792
 30
0
 42
0.0224029058606601
  0
VERTEX
  8
1
 10
1362.230506159942
 20
638.7914423809679
 30
0
 42
0.0200739878782202
  0
VERTEX
  8
1
 10
1363.585138930115
 20
640.3745705816668
 30
0
 42
0.0004753313248453695
  0
VERTEX
  8
1
 10
1364.913989136508
 20
642.0541813248011
 30
0
 42
0.0169932378521134
  0
VERTEX
  8
1
 10
1367.42622813145
 20
645.5938702515595
 30
0
 42
0.01622196390291814
  0
VERTEX
  8
1
 10
1368.641822221641
 20
647.497755649227
 30
0
 42
0.01580634567972799
  0
VERTEX
  8
1
 10
1370.887088940814
 20
651.4174304077186
 30
0
 42
0.0002157732675558336
  0
VERTEX
  8
1
 10
1371.914430608284
 20
653.429150492084
 30
0
 42
0.01654476302542909
  0
VERTEX
  8
1
 10
1373.696863909606
 20
657.3868864600674
 30
0
 42
0.01707434250237457
  0
VERTEX
  8
1
 10
1374.473451487382
 20
659.382844088256
 30
0
 42
0.000840098376289577
  0
VERTEX
  8
1
 10
1375.153770132922
 20
661.3522326691124
 30
0
 42
0.02117240179431067
  0
VERTEX
  8
1
 10
1376.152445703721
 20
664.9427867485109
 30
0
 42
0.02296333001690489
  0
VERTEX
  8
1
 10
1376.512552056601
 20
666.7183552401534
 30
0
 42
0.002396832401681234
  0
VERTEX
  8
1
 10
1376.753534551134
 20
668.407476139856
 30
0
 42
0.03500818914297261
  0
VERTEX
  8
1
 10
1376.875146752867
 20
671.2119803808639
 30
0
 42
0.04004818492444734
  0
VERTEX
  8
1
 10
1376.763171326508
 20
672.5509402152545
 30
0
 42
0.00678458478268564
  0
VERTEX
  8
1
 10
1376.520768664073
 20
673.7439144174394
 30
0
 42
0.07685708243858373
  0
VERTEX
  8
1
 10
1375.758128529924
 20
675.496911917996
 30
0
 42
0.09426566661935024
  0
VERTEX
  8
1
 10
1375.161273084167
 20
676.205416021259
 30
0
 42
0.1262285841211032
  0
VERTEX
  8
1
 10
1373.698631887061
 20
677.0432456383305
 30
0
 42
0.007947244762158377
  0
VERTEX
  8
1
 10
1372.785535305734
 20
677.1996717251595
 30
0
 42
0.08322995328974221
  0
VERTEX
  8
1
 10
1370.887589919683
 20
676.9707098882966
 30
0
 42
0.06642873215012188
  0
VERTEX
  8
1
 10
1369.73590155431
 20
676.57629841927
 30
0
 42
0.004103491961249441
  0
VERTEX
  8
1
 10
1368.524267106161
 20
675.9955283285461
 30
0
 42
0.03828215115848751
  0
VERTEX
  8
1
 10
1366.166621555789
 20
674.4718679253563
 30
0
 42
0.03166914880648508
  0
VERTEX
  8
1
 10
1364.831494163911
 20
673.4094947216559
 30
0
 42
0.00141420763671808
  0
VERTEX
  8
1
 10
1363.482060032482
 20
672.2006326208224
 30
0
 42
0.02240290586066995
  0
VERTEX
  8
1
 10
1360.890060840058
 20
669.5227656190325
 30
0
 42
0.02007398787908797
  0
VERTEX
  8
1
 10
1359.535428069884
 20
667.9396374183336
 30
0
 42
0.0004753313248455978
  0
VERTEX
  8
1
 10
1358.206577863492
 20
666.2600266751999
 30
0
 42
0.01699323785215603
  0
VERTEX
  8
1
 10
1355.69433886855
 20
662.7203377484416
 30
0
 42
0.0162219639133628
  0
VERTEX
  8
1
 10
1354.478744778359
 20
660.8164523507739
 30
0
 42
0.01580634567990237
  0
VERTEX
  8
1
 10
1352.233478059185
 20
656.8967775922828
 30
0
 42
0.0002157732677589199
  0
VERTEX
  8
1
 10
1351.206136391716
 20
654.8850575079176
 30
0
 42
0.01654476302542237
  0
VERTEX
  8
1
 10
1349.423703090393
 20
650.9273215399337
 30
0
 42
0.0170743424996265
  0
VERTEX
  8
1
 10
1348.647115512618
 20
648.9313639117449
 30
0
 42
0.0008400983761964632
  0
VERTEX
  8
1
 10
1347.966796867078
 20
646.9619753308886
 30
0
 42
0.02117240179414464
  0
VERTEX
  8
1
 10
1346.968121296279
 20
643.3714212514907
 30
0
 42
0.0229633300174081
  0
VERTEX
  8
1
 10
1346.608014943399
 20
641.595852759848
 30
0
 42
0.002396832401538514
  0
VERTEX
  8
1
 10
1346.367032448866
 20
639.9067318601452
 30
0
 42
0.03500818914298936
  0
VERTEX
  8
1
 10
1346.245420247134
 20
637.1022276191379
 30
0
 42
0.04004818492563339
  0
VERTEX
  8
1
 10
1346.357395673491
 20
635.7632677847467
 30
0
 42
0.006784584782503795
  0
VERTEX
  8
1
 10
1346.599798335926
 20
634.5702935825617
 30
0
 42
0.07685708243839495
  0
VERTEX
  8
1
 10
1347.362438470076
 20
632.8172960820059
 30
0
 42
0.0942656666218102
  0
VERTEX
  8
1
 10
1347.959293915834
 20
632.1087919787431
 30
0
 42
0.1262285841212672
  0
VERTEX
  8
1
 10
1349.421935112939
 20
631.2709623616711
 30
0
  0
SEQEND
  8
1
  0
ENDBLK
  8
0
  0
ENDSEC
  0
SECTION
  2
ENTITIES
  0
TEXT
  8
1
 62
2
 10
450
 20
415
 30
0
 40
35
  1
MALAGA 460
 41
0.5993999999999999
  0
TEXT
  8
1
 62
3
 10
1195.959554
 20
806.984138
 30
0
 40
35
  1
Ö 52
 41
0.5993999999999999
 72
1
 11
1237.917554
 21
806.984138
 31
0
  0
INSERT
  8
0
  2
DLX
 10
0
 20
0
 30
0
  0
INSERT
  8
0
  2
WANNE_MALAGA_460
 10
651.3288259999999
 20
94.24209900000005
 30
0
  0
ENDSEC
  0
EOF
