  0
SECTION
  2
HEADER
  9
$ACADVER
  1
AC1009
  9
$INSBASE
 10
0
 20
0
  9
$EXTMIN
 10
-1.381118456942318
 20
0
  9
$EXTMAX
 10
1549.963774543058
 20
1050.000006132184
  9
$LIMMIN
 10
-1.381118456942318
 20
0
  9
$LIMMAX
 10
1549.963774543058
 20
1050.000006132184
  9
$VIEWCTR
 10
10
 20
10
  9
$VIEWSIZE
 40
10
  9
$SNAPMODE
 70
0
  9
$SNAPUNIT
 10
1
 20
1
  9
$SNAPBASE
 10
0
 20
0
  9
$SNAPANG
 50
0
  9
$SNAPSTYLE
 70
0
  9
$SNAPISOPAIR
 70
0
  9
$GRIDMODE
 70
0
  9
$GRIDUNIT
 10
0
 20
0
  9
$ORTHOMODE
 70
0
  9
$REGENMODE
 70
1
  9
$FILLMODE
 70
1
  9
$QTEXTMODE
 70
0
  9
$DRAGMODE
 70
2
  9
$LTSCALE
 40
1
  9
$OSMODE
 70
0
  9
$ATTMODE
 70
1
  9
$TEXTSIZE
 40
3.5
  9
$TRACEWID
 40
0.5
  9
$TEXTSTYLE
  7
STANDARD
  9
$CLAYER
  8
0
  9
$CELTYPE
  6
BYLAYER
  9
$CECOLOR
 62
256
  9
$DIMSCALE
 40
1
  9
$DIMASZ
 40
0.18
  9
$DIMEXO
 40
0.0625
  9
$DIMDLI
 40
0.38
  9
$DIMRND
 40
0
  9
$DIMDLE
 40
0
  9
$DIMEXE
 40
0.18
  9
$DIMTP
 40
0
  9
$DIMTM
 40
0
  9
$DIMTXT
 40
0.18
  9
$DIMCEN
 40
0.09
  9
$DIMTSZ
 40
0
  9
$DIMTOL
 70
0
  9
$DIMLIM
 70
0
  9
$DIMTIH
 70
1
  9
$DIMTOH
 70
1
  9
$DIMSE1
 70
0
  9
$DIMSE2
 70
0
  9
$DIMTAD
 70
0
  9
$DIMZIN
 70
0
  9
$DIMBLK
  1

  9
$DIMASO
 70
1
  9
$DIMSHO
 70
1
  9
$DIMPOST
  1

  9
$DIMAPOST
  1

  9
$DIMALT
 70
0
  9
$DIMALTD
 70
2
  9
$DIMALTF
 40
25.4
  9
$DIMLFAC
 40
1
  9
$DIMTOFL
 70
0
  9
$DIMTVP
 40
0
  9
$DIMTIX
 70
0
  9
$DIMSOXD
 70
0
  9
$DIMSAH
 70
0
  9
$DIMBLK1
  1

  9
$DIMBLK2
  1

  9
$DIMSTYLE
  2
*UNNAMED
  9
$DIMCLRD
 70
0
  9
$DIMCLRE
 70
0
  9
$DIMCLRT
 70
0
  9
$DIMTFAC
 40
1
  9
$DIMGAP
 40
0.09
  9
$LUNITS
 70
2
  9
$LUPREC
 70
4
  9
$AXISMODE
 70
0
  9
$AXISUNIT
 10
0
 20
0
  9
$SKETCHINC
 40
0.1
  9
$FILLETRAD
 40
2
  9
$AUNITS
 70
0
  9
$AUPREC
 70
0
  9
$MENU
  1
ACAD
  9
$ELEVATION
 40
0
  9
$THICKNESS
 40
0
  9
$VIEWDIR
 10
0
 20
0
 30
1
  9
$LIMCHECK
 70
0
  9
$BLIPMODE
 70
1
  9
$CHAMFERA
 40
0
  9
$CHAMFERB
 40
0
  9
$FASTZOOM
 70
1
  9
$SKPOLY
 70
0
  9
$ANGBASE
 50
0
  9
$ANGDIR
 70
0
  9
$PDMODE
 70
0
  9
$PDSIZE
 40
0
  9
$PLINEWID
 40
0
  9
$COORDS
 70
2
  0
ENDSEC
  0
SECTION
  2
TABLES
  0
TABLE
  2
DIMSTYLE
 70
0
  0
ENDTAB
  0
TABLE
  2
LTYPE
 70
9
  0
LTYPE
  2
CONTINUOUS
 70
64
  3
Solid line
 72
65
 73
0
 40
0
  0
LTYPE
  2
BORDER
 70
64
  3
__ __ . __ __ .
 72
65
 73
6
 40
71.44351480921054
 49
20.41243280263159
 49
-10.20621640131579
 49
20.41243280263159
 49
-10.20621640131579
 49
0
 49
-10.20621640131579
  0
LTYPE
  2
CENTER
 70
64
  3
____ _ ____ _
 72
65
 73
4
 40
81.64973121052634
 49
51.03108200657896
 49
-10.20621640131579
 49
10.20621640131579
 49
-10.20621640131579
  0
LTYPE
  2
DASHDOT
 70
64
  3
__ . __ . __ .
 72
65
 73
4
 40
40.82486560526317
 49
20.41243280263159
 49
-10.20621640131579
 49
0
 49
-10.20621640131579
  0
LTYPE
  2
DASHED
 70
64
  3
__ __ __ __ __
 72
65
 73
2
 40
30.61864920394738
 49
20.41243280263159
 49
-10.20621640131579
  0
LTYPE
  2
DIVIDE
 70
64
  3
__ . . __ . . 
 72
65
 73
6
 40
51.03108200657896
 49
20.41243280263159
 49
-10.20621640131579
 49
0
 49
-10.20621640131579
 49
0
 49
-10.20621640131579
  0
LTYPE
  2
DOT
 70
64
  3
..............
 72
65
 73
4
 40
20.41243280263159
 49
0
 49
-10.20621640131579
 49
0
 49
-10.20621640131579
  0
LTYPE
  2
HIDDEN
 70
64
  3
_ _ _ _ _ _ _
 72
65
 73
2
 40
15.30932460197369
 49
10.20621640131579
 49
-5.103108200657896
  0
LTYPE
  2
PHANTOM
 70
64
  3
_____ _ _ _____ _ _ 
 72
65
 73
6
 40
102.0621640131579
 49
51.03108200657896
 49
-10.20621640131579
 49
10.20621640131579
 49
-10.20621640131579
 49
10.20621640131579
 49
-10.20621640131579
  0
ENDTAB
  0
TABLE
  2
LAYER
 70
6
  0
LAYER
  2
MITTELLINIEN
 70
0
 62
7
  6
CONTINUOUS
  0
LAYER
  2
BEMASS
 70
0
 62
7
  6
CONTINUOUS
  0
LAYER
  2
1
 70
0
 62
7
  6
CONTINUOUS
  0
LAYER
  2
WANNE
 70
0
 62
7
  6
CONTINUOUS
  0
LAYER
  2
0
 70
0
 62
7
  6
CONTINUOUS
  0
ENDTAB
  0
TABLE
  2
STYLE
 70
4
  0
STYLE
  2
STANDARD
 70
0
 40
0
 41
1
 50
0
 71
0
 42
3.5
  3
txt
  4

  0
STYLE
  2
SIMPLEX
 70
0
 40
0
 41
1
 50
0
 71
0
 42
3.5
  3
simplex
  4

  0
STYLE
  2
COMPLEX
 70
0
 40
0
 41
1
 50
0
 71
0
 42
3.5
  3
complex
  4

  0
STYLE
  2
ITALIC
 70
0
 40
0
 41
1
 50
0
 71
0
 42
3.5
  3
italic
  4

  0
ENDTAB
  0
TABLE
  2
VIEW
 70
0
  0
ENDTAB
  0
ENDSEC
  0
SECTION
  2
BLOCKS
  0
BLOCK
  8
0
  2
DLX
 70
0
 10
0
 20
0
 30
0
  0
LINE
  8
1
 62
3
 10
984.9624948601686
 20
596.979895810782
 30
0
 11
984.6670917727879
 21
597.978447872363
 31
0
  0
LINE
  8
1
 62
3
 10
985.3991745417352
 20
598.7622048583319
 30
0
 11
984.6670917727879
 21
597.978447872363
 31
0
  0
LINE
  8
1
 62
3
 10
1020.430198510404
 20
568.2377087845271
 30
0
 11
1023.814606001286
 21
582.051175145079
 31
0
  0
LINE
  8
1
 62
3
 10
1016.242044355166
 20
568.2377087845271
 30
0
 11
1019.626451846182
 21
582.051175145079
 31
0
  0
LINE
  8
1
 62
3
 10
1016.242044355166
 20
568.2377087845271
 30
0
 11
1020.430198510404
 21
568.2377087845271
 31
0
  0
LINE
  8
1
 62
3
 10
1015.158070295997
 20
563.813466360341
 30
0
 11
1019.346224451184
 21
563.813466360341
 31
0
  0
LINE
  8
1
 62
3
 10
1015.96181696029
 20
550
 30
0
 11
1022.244048193187
 21
550
 31
0
  0
LINE
  8
1
 62
3
 10
1019.626451846182
 20
582.051175145079
 30
0
 11
1013.344220613316
 21
582.051175145079
 31
0
  0
LINE
  8
1
 62
3
 10
1051.03760801014
 20
582.051175145079
 30
0
 11
1043.18481896912
 21
550
 31
0
  0
LINE
  8
1
 62
3
 10
1043.671402718143
 20
577.626932720839
 30
0
 11
1037.986561795419
 21
554.424242424182
 31
0
  0
LINE
  8
1
 62
3
 10
1039.483248562893
 20
577.626932720839
 30
0
 11
1043.671402718143
 21
577.626932720839
 31
0
  0
LINE
  8
1
 62
3
 10
1051.03760801014
 20
582.051175145079
 30
0
 11
1034.28499138931
 21
582.051175145079
 31
0
  0
LINE
  8
1
 62
3
 10
1033.798407640318
 20
554.424242424182
 30
0
 11
1039.483248562893
 21
577.626932720839
 31
0
  0
LINE
  8
1
 62
3
 10
1034.28499138931
 20
582.051175145079
 30
0
 11
1026.432202348312
 21
550
 31
0
  0
LINE
  8
1
 62
3
 10
1037.986561795419
 20
554.424242424182
 30
0
 11
1033.798407640318
 21
554.424242424182
 31
0
  0
LINE
  8
1
 62
3
 10
1026.432202348312
 20
550
 30
0
 11
1043.18481896912
 21
550
 31
0
  0
LINE
  8
1
 62
3
 10
1030.096837234202
 20
582.051175145079
 30
0
 11
1023.814606001286
 21
582.051175145079
 31
0
  0
LINE
  8
1
 62
3
 10
1013.344220613316
 20
582.051175145079
 30
0
 11
1005.491431572324
 21
550
 31
0
  0
LINE
  8
1
 62
3
 10
1011.773662805112
 20
550
 30
0
 11
1015.158070295997
 21
563.813466360341
 31
0
  0
LINE
  8
1
 62
3
 10
1015.96181696029
 20
550
 30
0
 11
1019.346224451184
 21
563.813466360341
 31
0
  0
LINE
  8
1
 62
3
 10
1022.244048193187
 20
550
 30
0
 11
1030.096837234202
 21
582.051175145079
 31
0
  0
LINE
  8
1
 62
3
 10
1005.491431572324
 20
550
 30
0
 11
1011.773662805112
 21
550
 31
0
  0
LINE
  8
1
 62
3
 10
1000.163900077367
 20
570.990569084413
 30
0
 11
1006.446131310172
 21
570.990569084413
 31
0
  0
LINE
  8
1
 62
3
 10
1001.789861166161
 20
577.626932720839
 30
0
 11
1000.163900077367
 21
570.990569084413
 31
0
  0
LINE
  8
1
 62
3
 10
997.6017070109688
 20
577.626932720839
 30
0
 11
1001.789861166161
 21
577.626932720839
 31
0
  0
LINE
  8
1
 62
3
 10
991.9168660883388
 20
554.424242424182
 30
0
 11
997.6017070109688
 21
577.626932720839
 31
0
  0
LINE
  8
1
 62
3
 10
996.1050202435417
 20
554.424242424182
 30
0
 11
991.9168660883388
 21
554.424242424182
 31
0
  0
LINE
  8
1
 62
3
 10
997.7309813323286
 20
561.0606060606081
 30
0
 11
996.1050202435417
 21
554.424242424182
 31
0
  0
LINE
  8
1
 62
3
 10
1004.013212565117
 20
561.0606060606081
 30
0
 11
997.7309813323286
 21
561.0606060606081
 31
0
  0
LINE
  8
1
 62
3
 10
1001.303277417143
 20
550
 30
0
 11
1004.013212565117
 21
561.0606060606081
 31
0
  0
LINE
  8
1
 62
3
 10
984.5506607963889
 20
550
 30
0
 11
1001.303277417143
 21
550
 31
0
  0
LINE
  8
1
 62
3
 10
992.4034498373821
 20
582.051175145079
 30
0
 11
984.5506607963889
 21
550
 31
0
  0
LINE
  8
1
 62
3
 10
1009.156066458103
 20
582.051175145079
 30
0
 11
992.4034498373821
 21
582.051175145079
 31
0
  0
LINE
  8
1
 62
3
 10
1006.446131310172
 20
570.990569084413
 30
0
 11
1009.156066458103
 21
582.051175145079
 31
0
  0
LINE
  8
1
 62
3
 10
987.1313216230064
 20
577.626932720839
 30
0
 11
988.2152956821647
 21
582.051175145079
 31
0
  0
LINE
  8
1
 62
3
 10
976.6609362350264
 20
577.626932720839
 30
0
 11
987.1313216230064
 21
577.626932720839
 31
0
  0
LINE
  8
1
 62
3
 10
974.2280174900134
 20
567.6969696969529
 30
0
 11
976.6609362350264
 21
577.626932720839
 31
0
  0
LINE
  8
1
 62
3
 10
984.6984028780771
 20
567.6969696969529
 30
0
 11
974.2280174900134
 21
567.6969696969529
 31
0
  0
LINE
  8
1
 62
3
 10
980.3625066411532
 20
550
 30
0
 11
984.6984028780771
 21
567.6969696969529
 31
0
  0
LINE
  8
1
 62
3
 10
963.6098900203306
 20
550
 30
0
 11
980.3625066411532
 21
550
 31
0
  0
LINE
  8
1
 62
3
 10
964.6938640796379
 20
554.424242424182
 30
0
 11
963.6098900203306
 21
550
 31
0
  0
LINE
  8
1
 62
3
 10
975.1642494675489
 20
554.424242424182
 30
0
 11
964.6938640796379
 21
554.424242424182
 31
0
  0
LINE
  8
1
 62
3
 10
977.3321975859672
 20
563.2727272727971
 30
0
 11
975.1642494675489
 21
554.424242424182
 31
0
  0
LINE
  8
1
 62
3
 10
966.8618121980016
 20
563.2727272727971
 30
0
 11
977.3321975859672
 21
563.2727272727971
 31
0
  0
LINE
  8
1
 62
3
 10
971.4626790613929
 20
582.051175145079
 30
0
 11
966.8618121980016
 21
563.2727272727971
 31
0
  0
LINE
  8
1
 62
3
 10
988.2152956821647
 20
582.051175145079
 30
0
 11
971.4626790613929
 21
582.051175145079
 31
0
  0
LINE
  8
1
 62
3
 10
967.27452490623
 20
582.051175145079
 30
0
 11
959.4217358652149
 21
550
 31
0
  0
LINE
  8
1
 62
3
 10
960.9922936734238
 20
582.051175145079
 30
0
 11
967.27452490623
 21
582.051175145079
 31
0
  0
LINE
  8
1
 62
3
 10
959.4217358652149
 20
550
 30
0
 11
941.6220807056252
 21
550
 31
0
  0
LINE
  8
1
 62
3
 10
954.2234786916179
 20
554.424242424182
 30
0
 11
960.9922936734238
 21
582.051175145079
 31
0
  0
LINE
  8
1
 62
3
 10
948.9882859976333
 20
554.424242424182
 30
0
 11
954.2234786916179
 21
554.424242424182
 31
0
  0
LINE
  8
1
 62
3
 10
955.7571009794283
 20
582.051175145079
 30
0
 11
948.9882859976333
 21
554.424242424182
 31
0
  0
LINE
  8
1
 62
3
 10
949.4748697466184
 20
582.051175145079
 30
0
 11
955.7571009794283
 21
582.051175145079
 31
0
  0
LINE
  8
1
 62
3
 10
941.6220807056252
 20
550
 30
0
 11
949.4748697466184
 21
582.051175145079
 31
0
  0
LINE
  8
1
 62
3
 10
937.4339265504987
 20
550
 30
0
 11
919.6342713908507
 21
550
 31
0
  0
LINE
  8
1
 62
3
 10
947.9966507394183
 20
593.1117812056621
 30
0
 11
937.4339265504987
 21
550
 31
0
  0
LINE
  8
1
 62
3
 10
924.0233236621261
 20
593.1117812056621
 30
0
 11
947.9966507394183
 21
593.1117812056621
 31
0
  0
LINE
  8
1
 62
3
 10
922.6683560881411
 20
587.581478175405
 30
0
 11
924.0233236621261
 21
593.1117812056621
 31
0
  0
LINE
  8
1
 62
3
 10
940.3594519326744
 20
587.581478175405
 30
0
 11
922.6683560881411
 21
587.581478175405
 31
0
  0
LINE
  8
1
 62
3
 10
932.2356693767924
 20
554.424242424182
 30
0
 11
940.3594519326744
 21
587.581478175405
 31
0
  0
LINE
  8
1
 62
3
 10
927.0004766829134
 20
554.424242424182
 30
0
 11
932.2356693767924
 21
554.424242424182
 31
0
  0
LINE
  8
1
 62
3
 10
933.7692916646029
 20
582.051175145079
 30
0
 11
927.0004766829134
 21
554.424242424182
 31
0
  0
LINE
  8
1
 62
3
 10
927.4870604319058
 20
582.051175145079
 30
0
 11
933.7692916646029
 21
582.051175145079
 31
0
  0
LINE
  8
1
 62
3
 10
919.6342713908507
 20
550
 30
0
 11
927.4870604319058
 21
582.051175145079
 31
0
  0
LINE
  8
1
 62
3
 10
1054.753952624366
 20
556.1939393939099
 30
0
 11
1063.799113130457
 21
593.1117812056621
 31
0
  0
LINE
  8
1
 62
3
 10
1063.799113130457
 20
593.1117812056621
 30
0
 11
1057.935697313189
 21
593.1117812056621
 31
0
  0
LINE
  8
1
 62
3
 10
1057.935697313189
 20
593.1117812056621
 30
0
 11
1047.372973124248
 21
550
 31
0
  0
LINE
  8
1
 62
3
 10
1065.277332137818
 20
582.051175145079
 30
0
 11
1059.59249121513
 21
558.848484848477
 31
0
  0
LINE
  8
1
 62
3
 10
1059.59249121513
 20
558.848484848477
 30
0
 11
1075.298069297051
 21
558.848484848477
 31
0
  0
LINE
  8
1
 62
3
 10
1075.298069297051
 20
558.848484848477
 30
0
 11
1080.982910219659
 21
582.051175145079
 31
0
  0
LINE
  8
1
 62
3
 10
1080.982910219659
 20
582.051175145079
 30
0
 11
1075.747717525736
 21
582.051175145079
 31
0
  0
LINE
  8
1
 62
3
 10
1075.747717525736
 20
582.051175145079
 30
0
 11
1071.146850662341
 21
563.2727272727971
 31
0
  0
LINE
  8
1
 62
3
 10
1071.146850662341
 20
563.2727272727971
 30
0
 11
1065.911657968389
 21
563.2727272727971
 31
0
  0
LINE
  8
1
 62
3
 10
1065.911657968389
 20
563.2727272727971
 30
0
 11
1070.51252483174
 21
582.051175145079
 31
0
  0
LINE
  8
1
 62
3
 10
1070.51252483174
 20
582.051175145079
 30
0
 11
1065.277332137818
 21
582.051175145079
 31
0
  0
LINE
  8
1
 62
3
 10
1087.5412489758
 20
582.051175145079
 30
0
 11
1083.495802712785
 21
582.051175145079
 31
0
  0
LINE
  8
1
 62
3
 10
1083.495802712785
 20
582.051175145079
 30
0
 11
1087.618098234982
 21
571.4153012186609
 31
0
  0
LINE
  8
1
 62
3
 10
1087.618098234982
 20
571.4153012186609
 30
0
 11
1077.810961790191
 21
558.848484848477
 31
0
  0
LINE
  8
1
 62
3
 10
1077.810961790191
 20
558.848484848477
 30
0
 11
1081.856408053189
 21
558.848484848477
 31
0
  0
LINE
  8
1
 62
3
 10
1081.856408053189
 20
558.848484848477
 30
0
 11
1088.960540633291
 21
567.951685370502
 31
0
  0
LINE
  8
1
 62
3
 10
1088.960540633291
 20
567.951685370502
 30
0
 11
1092.488796327975
 21
558.848484848477
 31
0
  0
LINE
  8
1
 62
3
 10
1092.488796327975
 20
558.848484848477
 30
0
 11
1096.534242591023
 21
558.848484848477
 31
0
  0
LINE
  8
1
 62
3
 10
1096.534242591023
 20
558.848484848477
 30
0
 11
1091.663544498019
 21
571.415301218603
 31
0
  0
LINE
  8
1
 62
3
 10
1091.663544498019
 20
571.415301218603
 30
0
 11
1099.963774543101
 21
582.051175145079
 31
0
  0
LINE
  8
1
 62
3
 10
1099.963774543101
 20
582.051175145079
 30
0
 11
1095.918328280043
 21
582.051175145079
 31
0
  0
LINE
  8
1
 62
3
 10
1095.918328280043
 20
582.051175145079
 30
0
 11
1090.321102099756
 21
574.878917066824
 31
0
  0
LINE
  8
1
 62
3
 10
1090.321102099756
 20
574.878917066824
 30
0
 11
1087.5412489758
 21
582.051175145079
 31
0
  0
LINE
  8
1
 62
3
 10
1097.563102176539
 20
556.1939393939099
 30
0
 11
1099.963774543058
 21
550
 31
0
  0
LINE
  8
1
 62
3
 10
1097.563102176539
 20
556.1939393939099
 30
0
 11
1054.753952624366
 21
556.1939393939099
 31
0
  0
LINE
  8
1
 62
3
 10
1099.963774543058
 20
550
 30
0
 11
1047.372973124248
 21
550
 31
0
  0
LINE
  8
1
 62
3
 10
956.3729590498169
 20
593.1117812056621
 30
0
 11
959.6248812272988
 21
606.38450847832
 31
0
  0
LINE
  8
1
 62
3
 10
959.6248812272988
 20
606.38450847832
 30
0
 11
972.1893436930168
 21
606.38450847832
 31
0
  0
LINE
  8
1
 62
3
 10
972.1893436930168
 20
606.38450847832
 30
0
 11
968.9374215153421
 21
593.1117812056621
 31
0
  0
LINE
  8
1
 62
3
 10
968.9374215153421
 20
593.1117812056621
 30
0
 11
956.3729590498169
 21
593.1117812056621
 31
0
  0
LINE
  8
1
 62
3
 10
967.3853314673379
 20
595.3239024177931
 30
0
 11
959.0090231569832
 21
595.3239024177931
 31
0
  0
LINE
  8
1
 62
3
 10
969.5532795858144
 20
604.172387266269
 30
0
 11
967.3853314673379
 21
595.3239024177931
 31
0
  0
LINE
  8
1
 62
3
 10
961.1769712753248
 20
604.172387266269
 30
0
 11
969.5532795858144
 21
604.172387266269
 31
0
  0
LINE
  8
1
 62
3
 10
959.0090231569832
 20
595.3239024177931
 30
0
 11
961.1769712753248
 21
604.172387266269
 31
0
  0
LINE
  8
1
 62
3
 10
974.702236186009
 20
606.38450847832
 30
0
 11
971.4503140084726
 21
593.1117812056621
 31
0
  0
LINE
  8
1
 62
3
 10
974.702236186009
 20
606.38450847832
 30
0
 11
987.2666986515887
 21
606.38450847832
 31
0
  0
LINE
  8
1
 62
3
 10
987.2666986515887
 20
606.38450847832
 30
0
 11
985.3991745417352
 21
598.7622048583319
 31
0
  0
LINE
  8
1
 62
3
 10
984.0147764740559
 20
593.1117812056621
 30
0
 11
981.9206993964162
 21
593.1117812056621
 31
0
  0
LINE
  8
1
 62
3
 10
981.9206993964162
 20
593.1117812056621
 30
0
 11
983.0046734557891
 21
597.5360236298441
 31
0
  0
LINE
  8
1
 62
3
 10
983.0046734557891
 20
597.5360236298441
 30
0
 11
974.6283651452595
 21
597.5360236298441
 31
0
  0
LINE
  8
1
 62
3
 10
975.1703521748514
 20
599.7481448420331
 30
0
 11
983.5466604852318
 21
599.7481448420331
 31
0
  0
LINE
  8
1
 62
3
 10
983.5466604852318
 20
599.7481448420331
 30
0
 11
984.6306345445537
 21
604.172387266269
 31
0
  0
LINE
  8
1
 62
3
 10
984.6306345445537
 20
604.172387266269
 30
0
 11
976.254326234035
 21
604.172387266269
 31
0
  0
LINE
  8
1
 62
3
 10
976.254326234035
 20
604.172387266269
 30
0
 11
975.1703521748514
 21
599.7481448420331
 31
0
  0
LINE
  8
1
 62
3
 10
984.9624948601686
 20
596.979895810782
 30
0
 11
984.0147764740559
 21
593.1117812056621
 31
0
  0
LINE
  8
1
 62
3
 10
971.4503140084726
 20
593.1117812056621
 30
0
 11
973.5443910861486
 21
593.1117812056621
 31
0
  0
LINE
  8
1
 62
3
 10
973.5443910861486
 20
593.1117812056621
 30
0
 11
974.6283651452595
 21
597.5360236298441
 31
0
  0
LINE
  8
1
 62
3
 10
991.8736682223153
 20
606.38450847832
 30
0
 11
989.779591144752
 21
606.38450847832
 31
0
  0
LINE
  8
1
 62
3
 10
989.779591144752
 20
606.38450847832
 30
0
 11
986.5276689671864
 21
593.1117812056621
 31
0
  0
LINE
  8
1
 62
3
 10
986.5276689671864
 20
593.1117812056621
 30
0
 11
988.6217460449061
 21
593.1117812056621
 31
0
  0
LINE
  8
1
 62
3
 10
988.6217460449061
 20
593.1117812056621
 30
0
 11
991.8736682223153
 21
606.38450847832
 31
0
  0
LINE
  8
1
 62
3
 10
991.1346385378911
 20
593.1117812056621
 30
0
 11
994.3865607154348
 21
606.38450847832
 31
0
  0
LINE
  8
1
 62
3
 10
994.3865607154348
 20
606.38450847832
 30
0
 11
1006.951023181026
 21
606.38450847832
 31
0
  0
LINE
  8
1
 62
3
 10
1006.951023181026
 20
606.38450847832
 30
0
 11
1005.812850418899
 21
601.739053932891
 31
0
  0
LINE
  8
1
 62
3
 10
1003.699101003504
 20
593.1117812056621
 30
0
 11
991.1346385378911
 21
593.1117812056621
 31
0
  0
LINE
  8
1
 62
3
 10
1002.147010955456
 20
595.3239024177931
 30
0
 11
993.7707026451262
 21
595.3239024177931
 31
0
  0
LINE
  8
1
 62
3
 10
1004.314959073751
 20
604.172387266269
 30
0
 11
1003.718773341373
 21
601.739053932891
 31
0
  0
LINE
  8
1
 62
3
 10
995.938650763454
 20
604.172387266269
 30
0
 11
1004.314959073751
 21
604.172387266269
 31
0
  0
LINE
  8
1
 62
3
 10
993.7707026451262
 20
595.3239024177931
 30
0
 11
995.938650763454
 21
604.172387266269
 31
0
  0
LINE
  8
1
 62
3
 10
1005.325062092276
 20
599.7481448420331
 30
0
 11
999.0428308594696
 21
599.7481448420331
 31
0
  0
LINE
  8
1
 62
3
 10
1005.325062092276
 20
599.7481448420331
 30
0
 11
1003.699101003504
 21
593.1117812056621
 31
0
  0
LINE
  8
1
 62
3
 10
999.0428308594696
 20
599.7481448420331
 30
0
 11
998.5008438298223
 21
597.5360236298441
 31
0
  0
LINE
  8
1
 62
3
 10
998.5008438298223
 20
597.5360236298441
 30
0
 11
1002.688997985223
 21
597.5360236298441
 31
0
  0
LINE
  8
1
 62
3
 10
1002.688997985223
 20
597.5360236298441
 30
0
 11
1002.147010955456
 21
595.3239024177931
 31
0
  0
LINE
  8
1
 62
3
 10
1003.718773341373
 20
601.739053932891
 30
0
 11
1005.812850418899
 21
601.739053932891
 31
0
  0
LINE
  8
1
 62
3
 10
1006.21199349662
 20
593.1117812056621
 30
0
 11
1008.30607057418
 21
593.1117812056621
 31
0
  0
LINE
  8
1
 62
3
 10
1008.30607057418
 20
593.1117812056621
 30
0
 11
1011.557992751749
 21
606.38450847832
 31
0
  0
LINE
  8
1
 62
3
 10
1009.463915674185
 20
606.38450847832
 30
0
 11
1006.21199349662
 21
593.1117812056621
 31
0
  0
LINE
  8
1
 62
3
 10
1011.557992751749
 20
606.38450847832
 30
0
 11
1009.463915674185
 21
606.38450847832
 31
0
  0
LINE
  8
1
 62
3
 10
1010.81896306735
 20
593.1117812056621
 30
0
 11
1014.070885244865
 21
606.38450847832
 31
0
  0
LINE
  8
1
 62
3
 10
1014.070885244865
 20
606.38450847832
 30
0
 11
1017.212000861206
 21
606.38450847832
 31
0
  0
LINE
  8
1
 62
3
 10
1017.212000861206
 20
606.38450847832
 30
0
 11
1021.69583872748
 21
594.770872114746
 31
0
  0
LINE
  8
1
 62
3
 10
1021.69583872748
 20
594.770872114746
 30
0
 11
1024.541270632834
 21
606.38450847832
 31
0
  0
LINE
  8
1
 62
3
 10
1024.541270632834
 20
606.38450847832
 30
0
 11
1026.635347710448
 21
606.38450847832
 31
0
  0
LINE
  8
1
 62
3
 10
1026.635347710448
 20
606.38450847832
 30
0
 11
1023.383425532828
 21
593.1117812056621
 31
0
  0
LINE
  8
1
 62
3
 10
1023.383425532828
 20
593.1117812056621
 30
0
 11
1020.140747044059
 21
593.1117812056621
 31
0
  0
LINE
  8
1
 62
3
 10
1020.140747044059
 20
593.1117812056621
 30
0
 11
1016.359590708349
 21
602.9053946295351
 31
0
  0
LINE
  8
1
 62
3
 10
1016.359590708349
 20
602.9053946295351
 30
0
 11
1015.719042441839
 21
604.5644855385979
 31
0
  0
LINE
  8
1
 62
3
 10
1015.719042441839
 20
604.5644855385979
 30
0
 11
1012.91304014491
 21
593.1117812056621
 31
0
  0
LINE
  8
1
 62
3
 10
1012.91304014491
 20
593.1117812056621
 30
0
 11
1010.81896306735
 21
593.1117812056621
 31
0
  0
LINE
  8
1
 62
3
 10
1025.896318025944
 20
593.1117812056621
 30
0
 11
1033.407748304841
 21
606.38450847832
 31
0
  0
LINE
  8
1
 62
3
 10
1033.407748304841
 20
606.38450847832
 30
0
 11
1037.453194567816
 21
606.38450847832
 31
0
  0
LINE
  8
1
 62
3
 10
1037.453194567816
 20
606.38450847832
 30
0
 11
1038.460780491578
 21
593.1117812056621
 31
0
  0
LINE
  8
1
 62
3
 10
1038.460780491578
 20
593.1117812056621
 30
0
 11
1036.431098328509
 21
593.1117812056621
 31
0
  0
LINE
  8
1
 62
3
 10
1036.431098328509
 20
593.1117812056621
 30
0
 11
1036.263167341242
 21
595.3239024177931
 31
0
  0
LINE
  8
1
 62
3
 10
1036.263167341242
 20
595.3239024177931
 30
0
 11
1029.527020060878
 21
595.3239024177931
 31
0
  0
LINE
  8
1
 62
3
 10
1029.527020060878
 20
595.3239024177931
 30
0
 11
1028.275115014515
 21
593.1117812056621
 31
0
  0
LINE
  8
1
 62
3
 10
1028.275115014515
 20
593.1117812056621
 30
0
 11
1025.896318025944
 21
593.1117812056621
 31
0
  0
LINE
  8
1
 62
3
 10
1030.778925107409
 20
597.5360236298441
 30
0
 11
1036.09523635392
 21
597.5360236298441
 31
0
  0
LINE
  8
1
 62
3
 10
1036.09523635392
 20
597.5360236298441
 30
0
 11
1035.591443392065
 21
604.172387266269
 31
0
  0
LINE
  8
1
 62
3
 10
1035.591443392065
 20
604.172387266269
 30
0
 11
1034.534640246774
 21
604.172387266269
 31
0
  0
LINE
  8
1
 62
3
 10
1030.778925107409
 20
597.5360236298441
 30
0
 11
1034.534640246774
 21
604.172387266269
 31
0
  0
LINE
  8
1
 62
3
 10
1044.225595162267
 20
606.38450847832
 30
0
 11
1040.973672984698
 21
593.1117812056621
 31
0
  0
LINE
  8
1
 62
3
 10
1040.973672984698
 20
593.1117812056621
 30
0
 11
1053.538135450277
 21
593.1117812056621
 31
0
  0
LINE
  8
1
 62
3
 10
1053.538135450277
 20
593.1117812056621
 30
0
 11
1054.080122479938
 21
595.3239024177931
 31
0
  0
LINE
  8
1
 62
3
 10
1054.080122479938
 20
595.3239024177931
 30
0
 11
1043.609737091917
 21
595.3239024177931
 31
0
  0
LINE
  8
1
 62
3
 10
1043.609737091917
 20
595.3239024177931
 30
0
 11
1046.319672239881
 21
606.38450847832
 31
0
  0
LINE
  8
1
 62
3
 10
1046.319672239881
 20
606.38450847832
 30
0
 11
1044.225595162267
 21
606.38450847832
 31
0
  0
LINE
  8
1
 62
3
 10
1090.84090752655
 20
600.2001112138419
 30
0
 11
1090.84090752655
 21
597.451055788282
 31
0
  0
LINE
  8
1
 62
3
 10
1089.968459827435
 20
597.451055788282
 30
0
 11
1089.968459827435
 21
604.3095239634561
 31
0
  0
LINE
  8
1
 62
3
 10
1089.968459827435
 20
604.3095239634561
 30
0
 11
1092.410379686674
 21
604.3095239634561
 31
0
  0
LINE
  8
1
 62
3
 10
1092.410379686674
 20
604.3095239634561
 30
0
 11
1092.706736269026
 21
604.3095239634561
 31
0
  0
LINE
  8
1
 62
3
 10
1094.540370783593
 20
599.3306895546259
 30
0
 11
1094.540370783593
 21
597.451055788282
 31
0
  0
LINE
  8
1
 62
3
 10
1094.540370783593
 20
597.451055788282
 30
0
 11
1093.579183968087
 21
597.451055788282
 31
0
  0
LINE
  8
1
 62
3
 10
1093.579183968087
 20
597.451055788282
 30
0
 11
1093.579183968087
 21
599.0729110559
 31
0
  0
LINE
  8
1
 62
3
 10
1092.565969228167
 20
600.2001112138419
 30
0
 11
1090.84090752655
 21
600.2001112138419
 31
0
  0
LINE
  8
1
 62
3
 10
1090.84090752655
 20
597.451055788282
 30
0
 11
1089.968459827435
 21
597.451055788282
 31
0
  0
LINE
  8
1
 62
3
 10
1090.84090752655
 20
601.050334541276
 30
0
 11
1092.828390754492
 21
601.050334541276
 31
0
  0
LINE
  8
1
 62
3
 10
1092.696880518636
 20
603.505992531278
 30
0
 11
1090.84090752655
 21
603.505992531278
 31
0
  0
LINE
  8
1
 62
3
 10
1090.84090752655
 20
603.505992531278
 30
0
 11
1090.84090752655
 21
601.050334541276
 31
0
  0
ARC
  8
1
 62
3
 10
1092.576965460167
 20
602.3039199213811
 30
0
 40
2.00979800886123
 50
304.0700115354063
 51
86.29788871829095
  0
ARC
  8
1
 62
3
 10
1092.498647634152
 20
602.264025930551
 30
0
 40
1.257687287767481
 50
285.1995809529828
 51
80.93139523874717
  0
ARC
  8
1
 62
3
 10
1092.423464995957
 20
599.0530393898221
 30
0
 40
1.155889798230745
 50
0.9850581704859359
 51
82.91825463297678
  0
ARC
  8
1
 62
3
 10
1093.148858182447
 20
599.3622336822259
 30
0
 40
1.391870091328397
 50
358.7013873342735
 51
66.54486649407129
  0
CIRCLE
  8
1
 62
3
 10
1092.370146628788
 20
600.878787878755
 30
0
 40
5.972862778753951
  0
CIRCLE
  8
1
 62
3
 10
1092.370146628788
 20
600.878787878755
 30
0
 40
5.530127989695984
  0
ENDBLK
  8
0
  0
BLOCK
  8
0
  2
WANNE_MALAGA_461
 70
0
 10
898.634948543058
 20
94.24209900000005
 30
0
  0
LINE
  8
MITTELLINIEN
 62
3
  6
DASHDOT
 10
312.0462205430581
 20
666.3061189999989
 30
0
 11
312.0462205430581
 21
795.974092999998
 31
0
  0
LINE
  8
MITTELLINIEN
 62
3
  6
DASHDOT
 10
377.7242395430712
 20
731.984138
 30
0
 11
248.0562655430601
 21
731.984138
 31
0
  0
LINE
  8
WANNE
 62
7
 10
1549.963774543058
 20
1050
 30
0
 11
1549.963774543058
 21
0
 31
0
  0
LINE
  8
WANNE
 62
7
 10
1549.963774543058
 20
1050
 30
0
 11
-4.569419616018422e-007
 21
1050
 31
0
  0
LINE
  8
WANNE
 62
7
 10
1390.613866543058
 20
3.323166000000128
 30
0
 11
1549.963774543058
 21
0
 31
0
  0
LINE
  8
WANNE
 62
7
 10
1232.826194543059
 20
17.0603259999998
 30
0
 11
1390.613866543058
 21
3.323166000000128
 31
0
  0
LINE
  8
WANNE
 62
7
 10
1078.288385543058
 20
41.06455199999982
 30
0
 11
1232.826194543059
 21
17.0603259999998
 31
0
  0
LINE
  8
WANNE
 62
7
 10
928.6533085430581
 20
75.07910699999957
 30
0
 11
1078.288385543058
 21
41.06455199999982
 31
0
  0
LINE
  8
WANNE
 62
7
 10
785.5213955430581
 20
118.7401840000002
 30
0
 11
928.6533085430581
 21
75.07910699999957
 31
0
  0
LINE
  8
WANNE
 62
7
 10
650.423523543059
 20
171.5808049999996
 30
0
 11
785.5213955430581
 21
118.7401840000002
 31
0
  0
LINE
  8
WANNE
 62
7
 10
524.8046395430581
 20
233.0358100000003
 30
0
 11
650.423523543059
 21
171.5808049999996
 31
0
  0
LINE
  8
WANNE
 62
7
 10
410.0083095430581
 20
302.4479010000014
 30
0
 11
524.8046395430581
 21
233.0358100000003
 31
0
  0
LINE
  8
WANNE
 62
7
 10
307.2623425430581
 20
379.074678
 30
0
 11
410.0083095430581
 21
302.4479010000014
 31
0
  0
LINE
  8
WANNE
 62
7
 10
217.6656675430581
 20
462.096575
 30
0
 11
307.2623425430581
 21
379.074678
 31
0
  0
LINE
  8
WANNE
 62
7
 10
142.1765695430581
 20
550.625624
 30
0
 11
217.6656675430581
 21
462.096575
 31
0
  0
LINE
  8
BEMASS
 62
7
 10
159.3196335430582
 20
737.548509
 30
0
 11
191.7661995430583
 21
687.2721260000001
 31
0
  0
LINE
  8
BEMASS
 62
7
 10
191.7661995430583
 20
687.2721260000001
 30
0
 11
230.2387735430582
 21
638.2838939999999
 31
0
  0
LINE
  8
BEMASS
 62
7
 10
230.2387735430582
 20
638.2838939999999
 30
0
 11
274.6024535430581
 21
590.9642240000001
 31
0
  0
LINE
  8
BEMASS
 62
7
 10
274.6024535430581
 20
590.9642240000001
 30
0
 11
324.6092215430583
 21
545.7004159999999
 31
0
  0
LINE
  8
BEMASS
 62
7
 10
324.6092215430583
 20
545.7004159999999
 30
0
 11
379.9289045430583
 21
502.8446879999999
 31
0
  0
LINE
  8
BEMASS
 62
7
 10
379.9289045430583
 20
502.8446879999999
 30
0
 11
387.1430735430581
 21
497.711449000001
 31
0
  0
LINE
  8
BEMASS
 62
7
 10
387.1430735430581
 20
497.711449000001
 30
0
 11
394.4042425430582
 21
492.638627
 31
0
  0
LINE
  8
BEMASS
 62
7
 10
394.4042425430582
 20
492.638627
 30
0
 11
409.2159905430581
 21
482.578405
 31
0
  0
LINE
  8
BEMASS
 62
7
 10
409.2159905430581
 20
482.578405
 30
0
 11
424.658552543058
 21
472.477529
 31
0
  0
LINE
  8
BEMASS
 62
7
 10
424.658552543058
 20
472.477529
 30
0
 11
440.029569543058
 21
462.790356000001
 31
0
  0
LINE
  8
BEMASS
 62
7
 10
440.029569543058
 20
462.790356000001
 30
0
 11
455.7158145430581
 21
453.262264
 31
0
  0
LINE
  8
BEMASS
 62
7
 10
455.7158145430581
 20
453.262264
 30
0
 11
471.7168095430579
 21
443.8948049999999
 31
0
  0
LINE
  8
BEMASS
 62
7
 10
471.7168095430579
 20
443.8948049999999
 30
0
 11
479.886551543058
 21
439.2453740000001
 31
0
  0
LINE
  8
BEMASS
 62
7
 10
479.886551543058
 20
439.2453740000001
 30
0
 11
488.338007543058
 21
434.5270330000003
 31
0
  0
LINE
  8
BEMASS
 62
7
 10
496.4142275430581
 20
430.0969139999997
 30
0
 11
503.736482543058
 21
426.1512830000002
 31
0
  0
LINE
  8
BEMASS
 62
7
 10
488.338007543058
 20
434.5270330000003
 30
0
 11
496.4142275430581
 21
430.0969139999997
 31
0
  0
LINE
  8
BEMASS
 62
7
 10
503.736482543058
 20
426.1512830000002
 30
0
 11
517.9397545430581
 21
418.6801750000013
 31
0
  0
LINE
  8
BEMASS
 62
7
 10
517.9397545430581
 20
418.6801750000013
 30
0
 11
531.5297225430581
 21
411.7482419999997
 31
0
  0
LINE
  8
BEMASS
 62
7
 10
531.5297225430581
 20
411.7482419999997
 30
0
 11
557.1897375430581
 21
399.2104010000003
 31
0
  0
LINE
  8
BEMASS
 62
7
 10
557.1897375430581
 20
399.2104010000003
 30
0
 11
570.179765543058
 21
393.1280180000013
 31
0
  0
LINE
  8
BEMASS
 62
7
 10
570.179765543058
 20
393.1280180000013
 30
0
 11
583.4049535430581
 21
387.1083850000014
 31
0
  0
LINE
  8
BEMASS
 62
7
 10
583.4049535430581
 20
387.1083850000014
 30
0
 11
610.421590543059
 21
375.333216
 31
0
  0
LINE
  8
BEMASS
 62
7
 10
610.421590543059
 20
375.333216
 30
0
 11
666.493140543058
 21
352.9848320000001
 31
0
  0
LINE
  8
BEMASS
 62
7
 10
666.493140543058
 20
352.9848320000001
 30
0
 11
725.1730985430581
 21
332.3474980000001
 31
0
  0
LINE
  8
BEMASS
 62
7
 10
725.1730985430581
 20
332.3474980000001
 30
0
 11
786.2801535430581
 21
313.5544600000003
 31
0
  0
LINE
  8
BEMASS
 62
7
 10
786.2801535430581
 20
313.5544600000003
 30
0
 11
914.958556543058
 21
281.9710910000003
 31
0
  0
LINE
  8
BEMASS
 62
7
 10
914.958556543058
 20
281.9710910000003
 30
0
 11
958.773390543058
 21
273.464148
 31
0
  0
LINE
  8
WANNE
 62
7
 10
1236.080121543058
 20
626.421781
 30
0
 11
1238.674805543058
 21
624.251218000001
 31
0
  0
LINE
  8
BEMASS
 62
7
 10
1062.328611543058
 20
732.5308789999999
 30
0
 11
1124.885023543058
 21
690.313539
 31
0
  0
LINE
  8
BEMASS
 62
7
 10
987.4031285430581
 20
778.4021570000009
 30
0
 11
1062.328611543058
 21
732.5308789999999
 31
0
  0
LINE
  8
BEMASS
 62
7
 10
912.544341543058
 20
819.255083
 30
0
 11
987.4031285430581
 21
778.4021570000009
 31
0
  0
LINE
  8
BEMASS
 62
7
 10
838.280925543058
 20
854.9214760000009
 30
0
 11
912.544341543058
 21
819.255083
 31
0
  0
LINE
  8
BEMASS
 62
7
 10
801.536143543058
 20
870.781964
 30
0
 11
838.280925543058
 21
854.9214760000009
 31
0
  0
LINE
  8
BEMASS
 62
7
 10
765.118719543058
 20
885.323121000001
 30
0
 11
801.536143543058
 21
870.781964
 31
0
  0
LINE
  8
BEMASS
 62
7
 10
747.056577543058
 20
892.09817
 30
0
 11
765.118719543058
 21
885.323121000001
 31
0
  0
LINE
  8
BEMASS
 62
7
 10
729.125559543058
 20
898.53532
 30
0
 11
747.056577543058
 21
892.09817
 31
0
  0
LINE
  8
BEMASS
 62
7
 10
702.6537385430581
 20
907.5091660000001
 30
0
 11
711.485452543059
 21
904.587577
 31
0
  0
LINE
  8
BEMASS
 62
7
 10
693.568968543058
 20
910.4397570000001
 30
0
 11
702.6537385430581
 21
907.5091660000001
 31
0
  0
LINE
  8
BEMASS
 62
7
 10
711.485452543059
 20
904.587577
 30
0
 11
729.125559543058
 21
898.53532
 31
0
  0
LINE
  8
BEMASS
 62
7
 10
674.2961935430581
 20
916.4094230000001
 30
0
 11
684.1188435430581
 21
913.409533
 31
0
  0
LINE
  8
BEMASS
 62
7
 10
684.1188435430581
 20
913.409533
 30
0
 11
693.568968543058
 21
910.4397570000001
 31
0
  0
LINE
  8
BEMASS
 62
7
 10
653.5699355430581
 20
922.445867000001
 30
0
 11
664.1359395430579
 21
919.4189260000001
 31
0
  0
LINE
  8
BEMASS
 62
7
 10
664.1359395430579
 20
919.4189260000001
 30
0
 11
674.2961935430581
 21
916.4094230000001
 31
0
  0
LINE
  8
BEMASS
 62
7
 10
629.522521543058
 20
928.9477020000011
 30
0
 11
641.6154195430581
 21
925.7445260000011
 31
0
  0
LINE
  8
BEMASS
 62
7
 10
641.6154195430581
 20
925.7445260000011
 30
0
 11
653.5699355430581
 21
922.445867000001
 31
0
  0
LINE
  8
BEMASS
 62
7
 10
594.1741645430579
 20
937.502152
 30
0
 11
605.884087543059
 21
934.8015109999999
 31
0
  0
LINE
  8
BEMASS
 62
7
 10
605.884087543059
 20
934.8015109999999
 30
0
 11
617.8145825430581
 21
931.914012
 31
0
  0
LINE
  8
BEMASS
 62
7
 10
617.8145825430581
 20
931.914012
 30
0
 11
629.522521543058
 21
928.9477020000011
 31
0
  0
LINE
  8
BEMASS
 62
7
 10
582.565678543059
 20
940.0480829999999
 30
0
 11
594.1741645430579
 21
937.502152
 31
0
  0
LINE
  8
BEMASS
 62
7
 10
558.8729505430581
 20
944.8317280000001
 30
0
 11
582.565678543059
 21
940.0480829999999
 31
0
  0
LINE
  8
BEMASS
 62
7
 10
512.7399775430581
 20
952.5140100000001
 30
0
 11
535.7198545430581
 21
948.961012
 31
0
  0
LINE
  8
BEMASS
 62
7
 10
489.7566115430579
 20
955.5153680000001
 30
0
 11
512.7399775430581
 21
952.5140100000001
 31
0
  0
LINE
  8
BEMASS
 62
7
 10
467.0084355430581
 20
957.925416
 30
0
 11
489.7566115430579
 21
955.5153680000001
 31
0
  0
LINE
  8
BEMASS
 62
7
 10
535.7198545430581
 20
948.961012
 30
0
 11
558.8729505430581
 21
944.8317280000001
 31
0
  0
LINE
  8
BEMASS
 62
7
 10
378.3433505430583
 20
961.6879930000009
 30
0
 11
422.1742045430591
 21
960.982667
 31
0
  0
LINE
  8
BEMASS
 62
7
 10
422.1742045430591
 20
960.982667
 30
0
 11
467.0084355430581
 21
957.925416
 31
0
  0
LINE
  8
BEMASS
 62
7
 10
335.6540415430582
 20
960.053501000001
 30
0
 11
378.3433505430583
 21
961.6879930000009
 31
0
  0
LINE
  8
BEMASS
 62
7
 10
254.2115855430582
 20
949.8922700000001
 30
0
 11
335.6540415430582
 21
960.053501000001
 31
0
  0
LINE
  8
WANNE
 62
7
 10
1168.509919543058
 20
680.4770510000001
 30
0
 11
1236.080121543058
 21
626.421781
 31
0
  0
LINE
  8
WANNE
 62
7
 10
1099.864912543058
 20
730.708747000001
 30
0
 11
1168.509919543058
 21
680.4770510000001
 31
0
  0
LINE
  8
WANNE
 62
7
 10
1030.559067543058
 20
776.8382349999999
 30
0
 11
1099.864912543058
 21
730.708747000001
 31
0
  0
LINE
  8
WANNE
 62
7
 10
961.0146885430581
 20
818.6550450000011
 30
0
 11
1030.559067543058
 21
776.8382349999999
 31
0
  0
LINE
  8
WANNE
 62
7
 10
891.652098543058
 20
855.985925
 30
0
 11
961.0146885430581
 21
818.6550450000011
 31
0
  0
LINE
  8
WANNE
 62
7
 10
822.878742543058
 20
888.7337789999999
 30
0
 11
891.652098543058
 21
855.985925
 31
0
  0
LINE
  8
WANNE
 62
7
 10
755.090224543058
 20
916.842087
 30
0
 11
822.878742543058
 21
888.7337789999999
 31
0
  0
LINE
  8
WANNE
 62
7
 10
721.681131543058
 20
929.157798
 30
0
 11
755.090224543058
 21
916.842087
 31
0
  0
LINE
  8
WANNE
 62
7
 10
684.3134105430581
 20
941.7134910000011
 30
0
 11
721.681131543058
 21
929.157798
 31
0
  0
LINE
  8
WANNE
 62
7
 10
639.625725543058
 20
955.010823000001
 30
0
 11
661.956061543058
 21
948.6023029999999
 31
0
  0
LINE
  8
WANNE
 62
7
 10
661.956061543058
 20
948.6023029999999
 30
0
 11
684.3134105430581
 21
941.7134910000011
 31
0
  0
LINE
  8
WANNE
 62
7
 10
507.090851543059
 20
982.968714000001
 30
0
 11
550.887952543058
 21
975.689984000001
 31
0
  0
LINE
  8
WANNE
 62
7
 10
550.887952543058
 20
975.689984000001
 30
0
 11
595.1085485430581
 21
966.3553099999999
 31
0
  0
LINE
  8
WANNE
 62
7
 10
595.1085485430581
 20
966.3553099999999
 30
0
 11
617.3379805430579
 21
960.9309760000001
 31
0
  0
LINE
  8
WANNE
 62
7
 10
617.3379805430579
 20
960.9309760000001
 30
0
 11
639.625725543058
 21
955.010823000001
 31
0
  0
LINE
  8
WANNE
 62
7
 10
335.8446635430582
 20
990.727883
 30
0
 11
421.269363543058
 21
991.2324420000009
 31
0
  0
LINE
  8
WANNE
 62
7
 10
421.269363543058
 20
991.2324420000009
 30
0
 11
507.090851543059
 21
982.968714000001
 31
0
  0
LINE
  8
WANNE
 62
7
 10
262.8971445430582
 20
983.1524460000001
 30
0
 11
335.8446635430582
 21
990.727883
 31
0
  0
LINE
  8
WANNE
 62
7
 10
122.5998385430582
 20
741.092448000001
 30
0
 11
145.1085405430581
 21
694.3837110000011
 31
0
  0
LINE
  8
WANNE
 62
7
 10
145.1085405430581
 20
694.3837110000011
 30
0
 11
186.1592055430592
 21
626.6029349999999
 31
0
  0
LINE
  8
WANNE
 62
7
 10
186.1592055430592
 20
626.6029349999999
 30
0
 11
236.3592925430583
 21
560.7227460000011
 31
0
  0
LINE
  8
WANNE
 62
7
 10
236.3592925430583
 20
560.7227460000011
 30
0
 11
295.2284895430582
 21
497.4779660000011
 31
0
  0
LINE
  8
WANNE
 62
7
 10
295.2284895430582
 20
497.4779660000011
 30
0
 11
327.7045315430582
 21
467.06339
 31
0
  0
LINE
  8
WANNE
 62
7
 10
362.0726525430582
 20
437.5617430000002
 30
0
 11
379.9309165430582
 21
423.1763339999998
 31
0
  0
LINE
  8
WANNE
 62
7
 10
327.7045315430582
 20
467.06339
 30
0
 11
362.0726525430582
 21
437.5617430000002
 31
0
  0
LINE
  8
WANNE
 62
7
 10
379.9309165430582
 20
423.1763339999998
 30
0
 11
398.2187365430582
 21
409.0459510000001
 31
0
  0
LINE
  8
WANNE
 62
7
 10
436.0205745430581
 20
381.581666
 30
0
 11
468.7400145430581
 21
359.5101059999997
 31
0
  0
LINE
  8
WANNE
 62
7
 10
398.2187365430582
 20
409.0459510000001
 30
0
 11
416.9205955430581
 21
395.1785669999999
 31
0
  0
LINE
  8
WANNE
 62
7
 10
416.9205955430581
 20
395.1785669999999
 30
0
 11
436.0205745430581
 21
381.581666
 31
0
  0
LINE
  8
WANNE
 62
7
 10
468.7400145430581
 20
359.5101059999997
 30
0
 11
498.881059543058
 21
340.4238610000002
 31
0
  0
LINE
  8
WANNE
 62
7
 10
498.881059543058
 20
340.4238610000002
 30
0
 11
562.516096543058
 21
303.5922860000001
 31
0
  0
LINE
  8
WANNE
 62
7
 10
630.436380543058
 20
268.7963790000003
 30
0
 11
702.355960543058
 21
236.3162069999999
 31
0
  0
LINE
  8
WANNE
 62
7
 10
777.9494695430581
 20
206.416604
 30
0
 11
856.823251543058
 21
179.3263880000004
 31
0
  0
LINE
  8
WANNE
 62
7
 10
562.516096543058
 20
303.5922860000001
 30
0
 11
630.436380543058
 21
268.7963790000003
 31
0
  0
LINE
  8
WANNE
 62
7
 10
702.355960543058
 20
236.3162069999999
 30
0
 11
777.9494695430581
 21
206.416604
 31
0
  0
LINE
  8
WANNE
 62
7
 10
856.823251543058
 20
179.3263880000004
 30
0
 11
934.666032543058
 21
156.3116190000001
 31
0
  0
LINE
  8
WANNE
 62
7
 10
934.666032543058
 20
156.3116190000001
 30
0
 11
1014.693800543058
 21
136.1767749999999
 31
0
  0
ARC
  8
WANNE
 62
7
 10
784.5029395430581
 20
1003.428658
 30
0
 40
785.8840580000006
 50
176.6026719999999
 51
215.1816289999999
  0
ARC
  8
BEMASS
 62
7
 10
1004.309151543058
 20
495.6320499999999
 30
0
 40
226.7864239999999
 50
258.4170170000001
 51
44.82309899999982
  0
ARC
  8
BEMASS
 62
7
 10
957.692576543056
 20
456.164242000003
 30
0
 40
287.7137599999992
 50
43.85383499999943
 51
55.37380199999927
  0
ARC
  8
BEMASS
 62
7
 10
283.6847385430592
 20
809.3418730000001
 30
0
 40
143.6000000000003
 50
101.5971080000005
 51
210.0107029999998
  0
ARC
  8
WANNE
 62
7
 10
283.7280015430581
 20
809.3966539999999
 30
0
 40
175.0000000000004
 50
96.83632499999986
 51
203.5240479999999
  0
ARC
  8
WANNE
 62
7
 10
1108.211197543058
 20
506.3520120000001
 30
0
 40
381.8051989999997
 50
255.822017
 51
275.351322
  0
ARC
  8
WANNE
 62
7
 10
1097.231989543058
 20
523.4886550000001
 30
0
 40
400.0000000000001
 50
276.688318
 51
0
  0
ARC
  8
WANNE
 62
7
 10
543.636933543055
 20
-1457.356259
 30
0
 40
2456.743592
 50
74.33560699999993
 51
90
  0
ARC
  8
BEMASS
 62
7
 10
799.885473543058
 20
166.1927139999998
 30
0
 40
800.0000000000005
 50
51.69999999999995
 51
94.89451800000001
  0
ARC
  8
WANNE
 62
7
 10
543.636933543055
 20
-1457.356259
 30
0
 40
2456.743592
 50
90
 51
95.02987999999994
  0
ARC
  8
WANNE
 62
7
 10
1097.231989543058
 20
523.4886550000001
 30
0
 40
400
 50
0
 51
74.07807300000002
  0
CIRCLE
  8
WANNE
 62
7
 10
312.0462205430642
 20
731.984138
 30
0
 40
26
  0
CIRCLE
  8
WANNE
 62
7
 10
312.0462205430581
 20
731.984138
 30
0
 40
45
  0
POLYLINE
  8
1
 62
7
 66
1
 70
1
  0
VERTEX
  8
1
 10
200.5418394301192
 20
631.2709623616711
 30
0
 42
-0.007947244762049598
  0
VERTEX
  8
1
 10
199.6287428487922
 20
631.1145362748416
 30
0
 42
-0.08322995328969322
  0
VERTEX
  8
1
 10
197.7307974627412
 20
631.3434981117042
 30
0
 42
-0.06642873214935233
  0
VERTEX
  8
1
 10
196.5791090973688
 20
631.737909580731
 30
0
 42
-0.004103491961216185
  0
VERTEX
  8
1
 10
195.3674746492203
 20
632.3186796714549
 30
0
 42
-0.03828215115848967
  0
VERTEX
  8
1
 10
193.0098290988478
 20
633.8423400746448
 30
0
 42
-0.03166914880666212
  0
VERTEX
  8
1
 10
191.6747017069698
 20
634.9047132783455
 30
0
 42
-0.001414207636760205
  0
VERTEX
  8
1
 10
190.3252675755402
 20
636.1135753791792
 30
0
 42
-0.02240290586061581
  0
VERTEX
  8
1
 10
187.7332683831167
 20
638.7914423809679
 30
0
 42
-0.02007398787765117
  0
VERTEX
  8
1
 10
186.378635612943
 20
640.3745705816668
 30
0
 42
-0.0004753313249176575
  0
VERTEX
  8
1
 10
185.0497854065508
 20
642.0541813248011
 30
0
 42
-0.01699323785224702
  0
VERTEX
  8
1
 10
182.537546411608
 20
645.5938702515595
 30
0
 42
-0.01622196391323326
  0
VERTEX
  8
1
 10
181.3219523214175
 20
647.497755649227
 30
0
 42
-0.0158063456797281
  0
VERTEX
  8
1
 10
179.076685602244
 20
651.4174304077186
 30
0
 42
-0.0002157732675446319
  0
VERTEX
  8
1
 10
178.0493439347738
 20
653.429150492084
 30
0
 42
-0.01654476302534701
  0
VERTEX
  8
1
 10
176.2669106334522
 20
657.3868864600674
 30
0
 42
-0.0170743424996915
  0
VERTEX
  8
1
 10
175.4903230556766
 20
659.382844088256
 30
0
 42
-0.0008400983761703341
  0
VERTEX
  8
1
 10
174.8100044101363
 20
661.3522326691124
 30
0
 42
-0.02117240179417562
  0
VERTEX
  8
1
 10
173.8113288393374
 20
664.9427867485109
 30
0
 42
-0.02296333001526213
  0
VERTEX
  8
1
 10
173.4512224864569
 20
666.7183552401534
 30
0
 42
-0.002396832401691533
  0
VERTEX
  8
1
 10
173.210239991924
 20
668.407476139856
 30
0
 42
-0.03500818914305337
  0
VERTEX
  8
1
 10
173.0886277901918
 20
671.2119803808639
 30
0
 42
-0.04004818492481706
  0
VERTEX
  8
1
 10
173.2006032165501
 20
672.5509402152545
 30
0
 42
-0.006784584782578328
  0
VERTEX
  8
1
 10
173.4430058789848
 20
673.7439144174394
 30
0
 42
-0.07685708243846376
  0
VERTEX
  8
1
 10
174.2056460131338
 20
675.496911917996
 30
0
 42
-0.09426566662331669
  0
VERTEX
  8
1
 10
174.8025014588916
 20
676.205416021259
 30
0
 42
-0.1262285841211968
  0
VERTEX
  8
1
 10
176.2651426559973
 20
677.0432456383305
 30
0
 42
-0.007947244762142163
  0
VERTEX
  8
1
 10
177.1782392373242
 20
677.1996717251595
 30
0
 42
-0.08322995328974656
  0
VERTEX
  8
1
 10
179.0761846233752
 20
676.9707098882966
 30
0
 42
-0.06642873215013453
  0
VERTEX
  8
1
 10
180.227872988748
 20
676.57629841927
 30
0
 42
-0.004103491961220318
  0
VERTEX
  8
1
 10
181.439507436897
 20
675.9955283285461
 30
0
 42
-0.03828215115844908
  0
VERTEX
  8
1
 10
183.7971529872695
 20
674.4718679253563
 30
0
 42
-0.03166914880559953
  0
VERTEX
  8
1
 10
185.1322803791472
 20
673.4094947216559
 30
0
 42
-0.001414207636722437
  0
VERTEX
  8
1
 10
186.4817145105766
 20
672.2006326208224
 30
0
 42
-0.02240290586058731
  0
VERTEX
  8
1
 10
189.0737137030004
 20
669.5227656190325
 30
0
 42
-0.02007398787911905
  0
VERTEX
  8
1
 10
190.4283464731739
 20
667.9396374183336
 30
0
 42
-0.0004753313249178857
  0
VERTEX
  8
1
 10
191.7571966795656
 20
666.2600266751999
 30
0
 42
-0.01699323785217221
  0
VERTEX
  8
1
 10
194.2694356745087
 20
662.7203377484416
 30
0
 42
-0.01622196390861018
  0
VERTEX
  8
1
 10
195.4850297646995
 20
660.8164523507739
 30
0
 42
-0.01580634567981059
  0
VERTEX
  8
1
 10
197.7302964838729
 20
656.8967775922828
 30
0
 42
-0.0002157732675674516
  0
VERTEX
  8
1
 10
198.757638151343
 20
654.8850575079176
 30
0
 42
-0.01654476302538236
  0
VERTEX
  8
1
 10
200.540071452665
 20
650.9273215399337
 30
0
 42
-0.0170743425001541
  0
VERTEX
  8
1
 10
201.3166590304403
 20
648.9313639117449
 30
0
 42
-0.0008400983761841428
  0
VERTEX
  8
1
 10
201.9969776759803
 20
646.9619753308886
 30
0
 42
-0.02117240179416469
  0
VERTEX
  8
1
 10
202.9956532467791
 20
643.3714212514907
 30
0
 42
-0.02296333001556322
  0
VERTEX
  8
1
 10
203.3557595996595
 20
641.595852759848
 30
0
 42
-0.002396832401686933
  0
VERTEX
  8
1
 10
203.5967420941923
 20
639.9067318601452
 30
0
 42
-0.03500818914300403
  0
VERTEX
  8
1
 10
203.7183542959245
 20
637.1022276191379
 30
0
 42
-0.04004818492495701
  0
VERTEX
  8
1
 10
203.6063788695667
 20
635.7632677847467
 30
0
 42
-0.006784584782639416
  0
VERTEX
  8
1
 10
203.3639762071322
 20
634.5702935825617
 30
0
 42
-0.07685708243844795
  0
VERTEX
  8
1
 10
202.6013360729819
 20
632.8172960820059
 30
0
 42
-0.09426566662224681
  0
VERTEX
  8
1
 10
202.0044806272243
 20
632.1087919787431
 30
0
 42
-0.1262285841212411
  0
VERTEX
  8
1
 10
200.5418394301192
 20
631.2709623616711
 30
0
  0
SEQEND
  8
1
  0
ENDBLK
  8
0
  0
ENDSEC
  0
SECTION
  2
ENTITIES
  0
TEXT
  8
1
 62
3
 10
270.0882205430575
 20
806.9841380000001
 30
0
 40
35
  1
Ö 52
 41
0.5993999999999999
 72
1
 11
312.0462205430575
 21
806.9841380000001
 31
0
  0
TEXT
  8
1
 62
2
 10
890.173774543058
 20
415.0000000000003
 30
0
 40
35
  1
MALAGA 461
 41
0.5993999999999999
 72
2
 11
1099.963774543058
 21
415.0000000000003
 31
0
  0
INSERT
  8
0
  2
DLX
 10
0
 20
0
 30
0
  0
INSERT
  8
0
  2
WANNE_MALAGA_461
 10
898.634948543058
 20
94.24209900000005
 30
0
  0
ENDSEC
  0
EOF
