  0
SECTION
  2
HEADER
  9
$ACADVER
  1
AC1009
  9
$INSBASE
 10
0
 20
0
  9
$EXTMIN
 10
0
 20
0
  9
$EXTMAX
 10
1810.424322011746
 20
640
  9
$LIMMIN
 10
0
 20
0
  9
$LIMMAX
 10
1810.424322011746
 20
640
  9
$VIEWCTR
 10
10
 20
10
  9
$VIEWSIZE
 40
10
  9
$SNAPMODE
 70
0
  9
$SNAPUNIT
 10
1
 20
1
  9
$SNAPBASE
 10
0
 20
0
  9
$SNAPANG
 50
0
  9
$SNAPSTYLE
 70
0
  9
$SNAPISOPAIR
 70
0
  9
$GRIDMODE
 70
0
  9
$GRIDUNIT
 10
0
 20
0
  9
$ORTHOMODE
 70
0
  9
$REGENMODE
 70
1
  9
$FILLMODE
 70
1
  9
$QTEXTMODE
 70
0
  9
$DRAGMODE
 70
2
  9
$LTSCALE
 40
1
  9
$OSMODE
 70
0
  9
$ATTMODE
 70
1
  9
$TEXTSIZE
 40
3.5
  9
$TRACEWID
 40
0.5
  9
$TEXTSTYLE
  7
STANDARD
  9
$CLAYER
  8
0
  9
$CELTYPE
  6
BYLAYER
  9
$CECOLOR
 62
256
  9
$DIMSCALE
 40
1
  9
$DIMASZ
 40
0.18
  9
$DIMEXO
 40
0.0625
  9
$DIMDLI
 40
0.38
  9
$DIMRND
 40
0
  9
$DIMDLE
 40
0
  9
$DIMEXE
 40
0.18
  9
$DIMTP
 40
0
  9
$DIMTM
 40
0
  9
$DIMTXT
 40
0.18
  9
$DIMCEN
 40
0.09
  9
$DIMTSZ
 40
0
  9
$DIMTOL
 70
0
  9
$DIMLIM
 70
0
  9
$DIMTIH
 70
1
  9
$DIMTOH
 70
1
  9
$DIMSE1
 70
0
  9
$DIMSE2
 70
0
  9
$DIMTAD
 70
0
  9
$DIMZIN
 70
0
  9
$DIMBLK
  1

  9
$DIMASO
 70
1
  9
$DIMSHO
 70
1
  9
$DIMPOST
  1

  9
$DIMAPOST
  1

  9
$DIMALT
 70
0
  9
$DIMALTD
 70
2
  9
$DIMALTF
 40
25.4
  9
$DIMLFAC
 40
1
  9
$DIMTOFL
 70
0
  9
$DIMTVP
 40
0
  9
$DIMTIX
 70
0
  9
$DIMSOXD
 70
0
  9
$DIMSAH
 70
0
  9
$DIMBLK1
  1

  9
$DIMBLK2
  1

  9
$DIMSTYLE
  2
*UNNAMED
  9
$DIMCLRD
 70
0
  9
$DIMCLRE
 70
0
  9
$DIMCLRT
 70
0
  9
$DIMTFAC
 40
1
  9
$DIMGAP
 40
0.09
  9
$LUNITS
 70
2
  9
$LUPREC
 70
4
  9
$AXISMODE
 70
0
  9
$AXISUNIT
 10
0
 20
0
  9
$SKETCHINC
 40
0.1
  9
$FILLETRAD
 40
2
  9
$AUNITS
 70
0
  9
$AUPREC
 70
0
  9
$MENU
  1
ACAD
  9
$ELEVATION
 40
0
  9
$THICKNESS
 40
0
  9
$VIEWDIR
 10
0
 20
0
 30
1
  9
$LIMCHECK
 70
0
  9
$BLIPMODE
 70
1
  9
$CHAMFERA
 40
0
  9
$CHAMFERB
 40
0
  9
$FASTZOOM
 70
1
  9
$SKPOLY
 70
0
  9
$ANGBASE
 50
0
  9
$ANGDIR
 70
0
  9
$PDMODE
 70
0
  9
$PDSIZE
 40
0
  9
$PLINEWID
 40
0
  9
$COORDS
 70
2
  0
ENDSEC
  0
SECTION
  2
TABLES
  0
TABLE
  2
DIMSTYLE
 70
0
  0
ENDTAB
  0
TABLE
  2
LTYPE
 70
9
  0
LTYPE
  2
CONTINUOUS
 70
64
  3
Solid line
 72
65
 73
0
 40
0
  0
LTYPE
  2
BORDER
 70
64
  3
__ __ . __ __ .
 72
65
 73
6
 40
83.37480430317251
 49
23.82137265804929
 49
-11.91068632902464
 49
23.82137265804929
 49
-11.91068632902464
 49
0
 49
-11.91068632902464
  0
LTYPE
  2
CENTER
 70
64
  3
____ _ ____ _
 72
65
 73
4
 40
95.28549063219715
 49
59.55343164512322
 49
-11.91068632902464
 49
11.91068632902464
 49
-11.91068632902464
  0
LTYPE
  2
DASHDOT
 70
64
  3
__ . __ . __ .
 72
65
 73
4
 40
47.64274531609858
 49
23.82137265804929
 49
-11.91068632902464
 49
0
 49
-11.91068632902464
  0
LTYPE
  2
DASHED
 70
64
  3
__ __ __ __ __
 72
65
 73
2
 40
35.73205898707393
 49
23.82137265804929
 49
-11.91068632902464
  0
LTYPE
  2
DIVIDE
 70
64
  3
__ . . __ . . 
 72
65
 73
6
 40
59.55343164512322
 49
23.82137265804929
 49
-11.91068632902464
 49
0
 49
-11.91068632902464
 49
0
 49
-11.91068632902464
  0
LTYPE
  2
DOT
 70
64
  3
..............
 72
65
 73
4
 40
23.82137265804929
 49
0
 49
-11.91068632902464
 49
0
 49
-11.91068632902464
  0
LTYPE
  2
HIDDEN
 70
64
  3
_ _ _ _ _ _ _
 72
65
 73
2
 40
17.86602949353697
 49
11.91068632902464
 49
-5.955343164512322
  0
LTYPE
  2
PHANTOM
 70
64
  3
_____ _ _ _____ _ _ 
 72
65
 73
6
 40
119.1068632902464
 49
59.55343164512322
 49
-11.91068632902464
 49
11.91068632902464
 49
-11.91068632902464
 49
11.91068632902464
 49
-11.91068632902464
  0
ENDTAB
  0
TABLE
  2
LAYER
 70
6
  0
LAYER
  2
MITTELLINIEN
 70
0
 62
7
  6
CONTINUOUS
  0
LAYER
  2
GSTR
 70
0
 62
7
  6
CONTINUOUS
  0
LAYER
  2
1
 70
0
 62
7
  6
CONTINUOUS
  0
LAYER
  2
WANNE
 70
0
 62
7
  6
CONTINUOUS
  0
LAYER
  2
0
 70
0
 62
7
  6
CONTINUOUS
  0
ENDTAB
  0
TABLE
  2
STYLE
 70
4
  0
STYLE
  2
STANDARD
 70
0
 40
0
 41
1
 50
0
 71
0
 42
3.5
  3
txt
  4

  0
STYLE
  2
SIMPLEX
 70
0
 40
0
 41
1
 50
0
 71
0
 42
3.5
  3
simplex
  4

  0
STYLE
  2
COMPLEX
 70
0
 40
0
 41
1
 50
0
 71
0
 42
3.5
  3
complex
  4

  0
STYLE
  2
ITALIC
 70
0
 40
0
 41
1
 50
0
 71
0
 42
3.5
  3
italic
  4

  0
ENDTAB
  0
TABLE
  2
VIEW
 70
0
  0
ENDTAB
  0
ENDSEC
  0
SECTION
  2
BLOCKS
  0
BLOCK
  8
0
  2
DLX
 70
0
 10
299.9999999999993
 20
335
 30
0
  0
LINE
  8
1
 62
3
 10
471.2066361356983
 20
388.505992531278
 30
0
 11
471.2066361356983
 21
386.050334541276
 31
0
  0
LINE
  8
1
 62
3
 10
473.0626091277843
 20
388.505992531278
 30
0
 11
471.2066361356983
 21
388.505992531278
 31
0
  0
LINE
  8
1
 62
3
 10
471.2066361356983
 20
386.050334541276
 30
0
 11
473.1941193636403
 21
386.050334541276
 31
0
  0
LINE
  8
1
 62
3
 10
471.2066361356983
 20
382.451055788282
 30
0
 11
470.3341884365834
 21
382.451055788282
 31
0
  0
LINE
  8
1
 62
3
 10
472.9316978373163
 20
385.2001112138419
 30
0
 11
471.2066361356983
 21
385.2001112138419
 31
0
  0
LINE
  8
1
 62
3
 10
473.9449125772364
 20
382.451055788282
 30
0
 11
473.9449125772364
 21
384.0729110559
 31
0
  0
LINE
  8
1
 62
3
 10
474.9060993927415
 20
382.451055788282
 30
0
 11
473.9449125772364
 21
382.451055788282
 31
0
  0
LINE
  8
1
 62
3
 10
474.9060993927415
 20
384.3306895546259
 30
0
 11
474.9060993927415
 21
382.451055788282
 31
0
  0
LINE
  8
1
 62
3
 10
472.7761082958234
 20
389.3095239634563
 30
0
 11
473.0724648781754
 21
389.3095239634563
 31
0
  0
LINE
  8
1
 62
3
 10
470.3341884365834
 20
389.3095239634563
 30
0
 11
472.7761082958234
 21
389.3095239634563
 31
0
  0
LINE
  8
1
 62
3
 10
470.3341884365834
 20
382.451055788282
 30
0
 11
470.3341884365834
 21
389.3095239634563
 31
0
  0
LINE
  8
1
 62
3
 10
471.2066361356983
 20
385.2001112138419
 30
0
 11
471.2066361356983
 21
382.451055788282
 31
0
  0
LINE
  8
1
 62
3
 10
426.6854008490293
 20
391.3845084783202
 30
0
 11
424.5913237714153
 21
391.3845084783202
 31
0
  0
LINE
  8
1
 62
3
 10
423.9754657010665
 20
380.3239024177931
 30
0
 11
426.6854008490293
 21
391.3845084783202
 31
0
  0
LINE
  8
1
 62
3
 10
434.4458510890863
 20
380.3239024177931
 30
0
 11
423.9754657010665
 21
380.3239024177931
 31
0
  0
LINE
  8
1
 62
3
 10
433.9038640594254
 20
378.1117812056621
 30
0
 11
434.4458510890863
 21
380.3239024177931
 31
0
  0
LINE
  8
1
 62
3
 10
421.3394015938463
 20
378.1117812056621
 30
0
 11
433.9038640594254
 21
378.1117812056621
 31
0
  0
LINE
  8
1
 62
3
 10
424.5913237714153
 20
391.3845084783202
 30
0
 11
421.3394015938463
 21
378.1117812056621
 31
0
  0
LINE
  8
1
 62
3
 10
411.1446537165573
 20
382.5360236298441
 30
0
 11
414.9003688559233
 21
389.172387266269
 31
0
  0
LINE
  8
1
 62
3
 10
415.9571720012134
 20
389.172387266269
 30
0
 11
414.9003688559233
 21
389.172387266269
 31
0
  0
LINE
  8
1
 62
3
 10
416.4609649630684
 20
382.5360236298441
 30
0
 11
415.9571720012134
 21
389.172387266269
 31
0
  0
LINE
  8
1
 62
3
 10
411.1446537165573
 20
382.5360236298441
 30
0
 11
416.4609649630684
 21
382.5360236298441
 31
0
  0
LINE
  8
1
 62
3
 10
408.6408436236634
 20
378.1117812056621
 30
0
 11
406.2620466350925
 21
378.1117812056621
 31
0
  0
LINE
  8
1
 62
3
 10
409.8927486700263
 20
380.3239024177931
 30
0
 11
408.6408436236634
 21
378.1117812056621
 31
0
  0
LINE
  8
1
 62
3
 10
416.6288959503904
 20
380.3239024177931
 30
0
 11
409.8927486700263
 21
380.3239024177931
 31
0
  0
LINE
  8
1
 62
3
 10
416.7968269376574
 20
378.1117812056621
 30
0
 11
416.6288959503904
 21
380.3239024177931
 31
0
  0
LINE
  8
1
 62
3
 10
418.8265091007263
 20
378.1117812056621
 30
0
 11
416.7968269376574
 21
378.1117812056621
 31
0
  0
LINE
  8
1
 62
3
 10
417.8189231769643
 20
391.3845084783202
 30
0
 11
418.8265091007263
 21
378.1117812056621
 31
0
  0
LINE
  8
1
 62
3
 10
413.7734769139893
 20
391.3845084783202
 30
0
 11
417.8189231769643
 21
391.3845084783202
 31
0
  0
LINE
  8
1
 62
3
 10
406.2620466350925
 20
378.1117812056621
 30
0
 11
413.7734769139893
 21
391.3845084783202
 31
0
  0
LINE
  8
1
 62
3
 10
393.2787687540583
 20
378.1117812056621
 30
0
 11
391.1846916764985
 21
378.1117812056621
 31
0
  0
LINE
  8
1
 62
3
 10
396.0847710509875
 20
389.5644855385979
 30
0
 11
393.2787687540583
 21
378.1117812056621
 31
0
  0
LINE
  8
1
 62
3
 10
396.7253193174975
 20
387.9053946295351
 30
0
 11
396.0847710509875
 21
389.5644855385979
 31
0
  0
LINE
  8
1
 62
3
 10
400.5064756532074
 20
378.1117812056621
 30
0
 11
396.7253193174975
 21
387.9053946295351
 31
0
  0
LINE
  8
1
 62
3
 10
403.7491541419763
 20
378.1117812056621
 30
0
 11
400.5064756532074
 21
378.1117812056621
 31
0
  0
LINE
  8
1
 62
3
 10
407.0010763195965
 20
391.3845084783202
 30
0
 11
403.7491541419763
 21
378.1117812056621
 31
0
  0
LINE
  8
1
 62
3
 10
404.9069992419823
 20
391.3845084783202
 30
0
 11
407.0010763195965
 21
391.3845084783202
 31
0
  0
LINE
  8
1
 62
3
 10
402.0615673366294
 20
379.770872114746
 30
0
 11
404.9069992419823
 21
391.3845084783202
 31
0
  0
LINE
  8
1
 62
3
 10
397.5777294703544
 20
391.3845084783202
 30
0
 11
402.0615673366294
 21
379.770872114746
 31
0
  0
LINE
  8
1
 62
3
 10
394.4366138540133
 20
391.3845084783202
 30
0
 11
397.5777294703544
 21
391.3845084783202
 31
0
  0
LINE
  8
1
 62
3
 10
391.1846916764985
 20
378.1117812056621
 30
0
 11
394.4366138540133
 21
391.3845084783202
 31
0
  0
LINE
  8
1
 62
3
 10
391.9237213608974
 20
391.3845084783202
 30
0
 11
389.8296442833334
 21
391.3845084783202
 31
0
  0
LINE
  8
1
 62
3
 10
389.8296442833334
 20
391.3845084783202
 30
0
 11
386.5777221057683
 21
378.1117812056621
 31
0
  0
LINE
  8
1
 62
3
 10
388.6717991833284
 20
378.1117812056621
 30
0
 11
391.9237213608974
 21
391.3845084783202
 31
0
  0
LINE
  8
1
 62
3
 10
386.5777221057683
 20
378.1117812056621
 30
0
 11
388.6717991833284
 21
378.1117812056621
 31
0
  0
LINE
  8
1
 62
3
 10
384.0845019505214
 20
386.739053932891
 30
0
 11
386.1785790280474
 21
386.739053932891
 31
0
  0
LINE
  8
1
 62
3
 10
383.0547265943715
 20
382.5360236298441
 30
0
 11
382.5127395646043
 21
380.3239024177931
 31
0
  0
LINE
  8
1
 62
3
 10
378.8665724389714
 20
382.5360236298441
 30
0
 11
383.0547265943715
 21
382.5360236298441
 31
0
  0
LINE
  8
1
 62
3
 10
379.4085594686183
 20
384.7481448420331
 30
0
 11
378.8665724389714
 21
382.5360236298441
 31
0
  0
LINE
  8
1
 62
3
 10
385.6907907014243
 20
384.7481448420331
 30
0
 11
384.0648296126524
 21
378.1117812056621
 31
0
  0
LINE
  8
1
 62
3
 10
385.6907907014243
 20
384.7481448420331
 30
0
 11
379.4085594686183
 21
384.7481448420331
 31
0
  0
LINE
  8
1
 62
3
 10
374.1364312542744
 20
380.3239024177931
 30
0
 11
376.3043793726024
 21
389.172387266269
 31
0
  0
LINE
  8
1
 62
3
 10
376.3043793726024
 20
389.172387266269
 30
0
 11
384.6806876828994
 21
389.172387266269
 31
0
  0
LINE
  8
1
 62
3
 10
384.6806876828994
 20
389.172387266269
 30
0
 11
384.0845019505214
 21
386.739053932891
 31
0
  0
LINE
  8
1
 62
3
 10
382.5127395646043
 20
380.3239024177931
 30
0
 11
374.1364312542744
 21
380.3239024177931
 31
0
  0
LINE
  8
1
 62
3
 10
384.0648296126524
 20
378.1117812056621
 30
0
 11
371.5003671470395
 21
378.1117812056621
 31
0
  0
LINE
  8
1
 62
3
 10
387.3167517901743
 20
391.3845084783202
 30
0
 11
386.1785790280474
 21
386.739053932891
 31
0
  0
LINE
  8
1
 62
3
 10
374.7522893245834
 20
391.3845084783202
 30
0
 11
387.3167517901743
 21
391.3845084783202
 31
0
  0
LINE
  8
1
 62
3
 10
371.5003671470395
 20
378.1117812056621
 30
0
 11
374.7522893245834
 21
391.3845084783202
 31
0
  0
LINE
  8
1
 62
3
 10
368.9874746540543
 20
378.1117812056621
 30
0
 11
372.2393968314634
 21
391.3845084783202
 31
0
  0
LINE
  8
1
 62
3
 10
366.8933975763343
 20
378.1117812056621
 30
0
 11
368.9874746540543
 21
378.1117812056621
 31
0
  0
LINE
  8
1
 62
3
 10
370.1453197539004
 20
391.3845084783202
 30
0
 11
366.8933975763343
 21
378.1117812056621
 31
0
  0
LINE
  8
1
 62
3
 10
372.2393968314634
 20
391.3845084783202
 30
0
 11
370.1453197539004
 21
391.3845084783202
 31
0
  0
LINE
  8
1
 62
3
 10
353.9101196952975
 20
378.1117812056621
 30
0
 11
354.9940937544084
 21
382.5360236298441
 31
0
  0
LINE
  8
1
 62
3
 10
351.8160426176214
 20
378.1117812056621
 30
0
 11
353.9101196952975
 21
378.1117812056621
 31
0
  0
LINE
  8
1
 62
3
 10
365.3282234693174
 20
381.979895810782
 30
0
 11
364.3805050832043
 21
378.1117812056621
 31
0
  0
LINE
  8
1
 62
3
 10
356.6200548431834
 20
389.172387266269
 30
0
 11
355.5360807839993
 21
384.7481448420331
 31
0
  0
LINE
  8
1
 62
3
 10
364.9963631537023
 20
389.172387266269
 30
0
 11
356.6200548431834
 21
389.172387266269
 31
0
  0
LINE
  8
1
 62
3
 10
363.9123890943804
 20
384.7481448420331
 30
0
 11
364.9963631537023
 21
389.172387266269
 31
0
  0
LINE
  8
1
 62
3
 10
355.5360807839993
 20
384.7481448420331
 30
0
 11
363.9123890943804
 21
384.7481448420331
 31
0
  0
LINE
  8
1
 62
3
 10
363.3704020649373
 20
382.5360236298441
 30
0
 11
354.9940937544084
 21
382.5360236298441
 31
0
  0
LINE
  8
1
 62
3
 10
362.2864280055644
 20
378.1117812056621
 30
0
 11
363.3704020649373
 21
382.5360236298441
 31
0
  0
LINE
  8
1
 62
3
 10
364.3805050832043
 20
378.1117812056621
 30
0
 11
362.2864280055644
 21
378.1117812056621
 31
0
  0
LINE
  8
1
 62
3
 10
367.6324272607374
 20
391.3845084783202
 30
0
 11
365.7649031508834
 21
383.7622048583319
 31
0
  0
LINE
  8
1
 62
3
 10
355.0679647951574
 20
391.3845084783202
 30
0
 11
367.6324272607374
 21
391.3845084783202
 31
0
  0
LINE
  8
1
 62
3
 10
355.0679647951574
 20
391.3845084783202
 30
0
 11
351.8160426176214
 21
378.1117812056621
 31
0
  0
LINE
  8
1
 62
3
 10
339.3747517661313
 20
380.3239024177931
 30
0
 11
341.5426998844735
 21
389.172387266269
 31
0
  0
LINE
  8
1
 62
3
 10
341.5426998844735
 20
389.172387266269
 30
0
 11
349.9190081949623
 21
389.172387266269
 31
0
  0
LINE
  8
1
 62
3
 10
349.9190081949623
 20
389.172387266269
 30
0
 11
347.7510600764863
 21
380.3239024177931
 31
0
  0
LINE
  8
1
 62
3
 10
347.7510600764863
 20
380.3239024177931
 30
0
 11
339.3747517661313
 21
380.3239024177931
 31
0
  0
LINE
  8
1
 62
3
 10
349.3031501244905
 20
378.1117812056621
 30
0
 11
336.7386876589653
 21
378.1117812056621
 31
0
  0
LINE
  8
1
 62
3
 10
352.5550723021654
 20
391.3845084783202
 30
0
 11
349.3031501244905
 21
378.1117812056621
 31
0
  0
LINE
  8
1
 62
3
 10
339.9906098364475
 20
391.3845084783202
 30
0
 11
352.5550723021654
 21
391.3845084783202
 31
0
  0
LINE
  8
1
 62
3
 10
336.7386876589653
 20
378.1117812056621
 30
0
 11
339.9906098364475
 21
391.3845084783202
 31
0
  0
LINE
  8
1
 62
3
 10
480.3295031522064
 20
335
 30
0
 11
427.7387017333963
 21
335
 31
0
  0
LINE
  8
1
 62
3
 10
477.9288307856873
 20
341.1939393939099
 30
0
 11
435.1196812335143
 21
341.1939393939099
 31
0
  0
LINE
  8
1
 62
3
 10
477.9288307856873
 20
341.1939393939099
 30
0
 11
480.3295031522064
 21
335
 31
0
  0
LINE
  8
1
 62
3
 10
470.6868307089053
 20
359.878917066824
 30
0
 11
467.9069775849484
 21
367.051175145079
 31
0
  0
LINE
  8
1
 62
3
 10
476.2840568891913
 20
367.051175145079
 30
0
 11
470.6868307089053
 21
359.878917066824
 31
0
  0
LINE
  8
1
 62
3
 10
480.3295031522493
 20
367.051175145079
 30
0
 11
476.2840568891913
 21
367.051175145079
 31
0
  0
LINE
  8
1
 62
3
 10
472.0292731071675
 20
356.415301218603
 30
0
 11
480.3295031522493
 21
367.051175145079
 31
0
  0
LINE
  8
1
 62
3
 10
476.8999712001714
 20
343.848484848477
 30
0
 11
472.0292731071675
 21
356.415301218603
 31
0
  0
LINE
  8
1
 62
3
 10
472.8545249371234
 20
343.848484848477
 30
0
 11
476.8999712001714
 21
343.848484848477
 31
0
  0
LINE
  8
1
 62
3
 10
469.3262692424394
 20
352.951685370502
 30
0
 11
472.8545249371234
 21
343.848484848477
 31
0
  0
LINE
  8
1
 62
3
 10
462.2221366623373
 20
343.848484848477
 30
0
 11
469.3262692424394
 21
352.951685370502
 31
0
  0
LINE
  8
1
 62
3
 10
458.1766903993403
 20
343.848484848477
 30
0
 11
462.2221366623373
 21
343.848484848477
 31
0
  0
LINE
  8
1
 62
3
 10
467.9838268441304
 20
356.4153012186609
 30
0
 11
458.1766903993403
 21
343.848484848477
 31
0
  0
LINE
  8
1
 62
3
 10
463.8615313219334
 20
367.051175145079
 30
0
 11
467.9838268441304
 21
356.4153012186609
 31
0
  0
LINE
  8
1
 62
3
 10
467.9069775849484
 20
367.051175145079
 30
0
 11
463.8615313219334
 21
367.051175145079
 31
0
  0
LINE
  8
1
 62
3
 10
450.8782534408883
 20
367.051175145079
 30
0
 11
445.6430607469663
 21
367.051175145079
 31
0
  0
LINE
  8
1
 62
3
 10
446.2773865775373
 20
348.2727272727971
 30
0
 11
450.8782534408883
 21
367.051175145079
 31
0
  0
LINE
  8
1
 62
3
 10
451.5125792714894
 20
348.2727272727971
 30
0
 11
446.2773865775373
 21
348.2727272727971
 31
0
  0
LINE
  8
1
 62
3
 10
456.1134461348843
 20
367.051175145079
 30
0
 11
451.5125792714894
 21
348.2727272727971
 31
0
  0
LINE
  8
1
 62
3
 10
461.3486388288075
 20
367.051175145079
 30
0
 11
456.1134461348843
 21
367.051175145079
 31
0
  0
LINE
  8
1
 62
3
 10
455.6637979061993
 20
343.848484848477
 30
0
 11
461.3486388288075
 21
367.051175145079
 31
0
  0
LINE
  8
1
 62
3
 10
439.9582198242783
 20
343.848484848477
 30
0
 11
455.6637979061993
 21
343.848484848477
 31
0
  0
LINE
  8
1
 62
3
 10
445.6430607469663
 20
367.051175145079
 30
0
 11
439.9582198242783
 21
343.848484848477
 31
0
  0
LINE
  8
1
 62
3
 10
438.3014259223373
 20
378.1117812056621
 30
0
 11
427.7387017333963
 21
335
 31
0
  0
LINE
  8
1
 62
3
 10
444.1648417396054
 20
378.1117812056621
 30
0
 11
438.3014259223373
 21
378.1117812056621
 31
0
  0
LINE
  8
1
 62
3
 10
435.1196812335143
 20
341.1939393939099
 30
0
 11
444.1648417396054
 21
378.1117812056621
 31
0
  0
LINE
  8
1
 62
3
 10
299.9999999999993
 20
335
 30
0
 11
307.8527890410544
 21
367.051175145079
 31
0
  0
LINE
  8
1
 62
3
 10
307.8527890410544
 20
367.051175145079
 30
0
 11
314.1350202737513
 21
367.051175145079
 31
0
  0
LINE
  8
1
 62
3
 10
314.1350202737513
 20
367.051175145079
 30
0
 11
307.3662052920613
 21
339.424242424182
 31
0
  0
LINE
  8
1
 62
3
 10
307.3662052920613
 20
339.424242424182
 30
0
 11
312.6013979859413
 21
339.424242424182
 31
0
  0
LINE
  8
1
 62
3
 10
312.6013979859413
 20
339.424242424182
 30
0
 11
320.7251805418223
 21
372.581478175405
 31
0
  0
LINE
  8
1
 62
3
 10
320.7251805418223
 20
372.581478175405
 30
0
 11
303.0340846972895
 21
372.581478175405
 31
0
  0
LINE
  8
1
 62
3
 10
303.0340846972895
 20
372.581478175405
 30
0
 11
304.3890522712743
 21
378.1117812056621
 31
0
  0
LINE
  8
1
 62
3
 10
304.3890522712743
 20
378.1117812056621
 30
0
 11
328.3623793485663
 21
378.1117812056621
 31
0
  0
LINE
  8
1
 62
3
 10
328.3623793485663
 20
378.1117812056621
 30
0
 11
317.7996551596473
 21
335
 31
0
  0
LINE
  8
1
 62
3
 10
317.7996551596473
 20
335
 30
0
 11
299.9999999999993
 21
335
 31
0
  0
LINE
  8
1
 62
3
 10
321.9878093147734
 20
335
 30
0
 11
329.8405983557673
 21
367.051175145079
 31
0
  0
LINE
  8
1
 62
3
 10
329.8405983557673
 20
367.051175145079
 30
0
 11
336.1228295885765
 21
367.051175145079
 31
0
  0
LINE
  8
1
 62
3
 10
336.1228295885765
 20
367.051175145079
 30
0
 11
329.3540146067815
 21
339.424242424182
 31
0
  0
LINE
  8
1
 62
3
 10
329.3540146067815
 20
339.424242424182
 30
0
 11
334.5892073007665
 21
339.424242424182
 31
0
  0
LINE
  8
1
 62
3
 10
334.5892073007665
 20
339.424242424182
 30
0
 11
341.3580222825724
 21
367.051175145079
 31
0
  0
LINE
  8
1
 62
3
 10
339.7874644743633
 20
335
 30
0
 11
321.9878093147734
 21
335
 31
0
  0
LINE
  8
1
 62
3
 10
341.3580222825724
 20
367.051175145079
 30
0
 11
347.6402535153784
 21
367.051175145079
 31
0
  0
LINE
  8
1
 62
3
 10
347.6402535153784
 20
367.051175145079
 30
0
 11
339.7874644743633
 21
335
 31
0
  0
LINE
  8
1
 62
3
 10
368.5810242913133
 20
367.051175145079
 30
0
 11
351.8284076705413
 21
367.051175145079
 31
0
  0
LINE
  8
1
 62
3
 10
351.8284076705413
 20
367.051175145079
 30
0
 11
347.2275408071503
 21
348.2727272727971
 31
0
  0
LINE
  8
1
 62
3
 10
347.2275408071503
 20
348.2727272727971
 30
0
 11
357.6979261951153
 21
348.2727272727971
 31
0
  0
LINE
  8
1
 62
3
 10
357.6979261951153
 20
348.2727272727971
 30
0
 11
355.5299780766973
 21
339.424242424182
 31
0
  0
LINE
  8
1
 62
3
 10
355.5299780766973
 20
339.424242424182
 30
0
 11
345.0595926887863
 21
339.424242424182
 31
0
  0
LINE
  8
1
 62
3
 10
345.0595926887863
 20
339.424242424182
 30
0
 11
343.9756186294794
 21
335
 31
0
  0
LINE
  8
1
 62
3
 10
343.9756186294794
 20
335
 30
0
 11
360.7282352503014
 21
335
 31
0
  0
LINE
  8
1
 62
3
 10
360.7282352503014
 20
335
 30
0
 11
365.0641314872253
 21
352.6969696969529
 31
0
  0
LINE
  8
1
 62
3
 10
365.0641314872253
 20
352.6969696969529
 30
0
 11
354.5937460991613
 21
352.6969696969529
 31
0
  0
LINE
  8
1
 62
3
 10
354.5937460991613
 20
352.6969696969529
 30
0
 11
357.0266648441743
 21
362.626932720839
 31
0
  0
LINE
  8
1
 62
3
 10
357.0266648441743
 20
362.626932720839
 30
0
 11
367.4970502321553
 21
362.626932720839
 31
0
  0
LINE
  8
1
 62
3
 10
367.4970502321553
 20
362.626932720839
 30
0
 11
368.5810242913133
 21
367.051175145079
 31
0
  0
LINE
  8
1
 62
3
 10
386.8118599193213
 20
355.990569084413
 30
0
 11
389.5217950672513
 21
367.051175145079
 31
0
  0
LINE
  8
1
 62
3
 10
389.5217950672513
 20
367.051175145079
 30
0
 11
372.7691784465303
 21
367.051175145079
 31
0
  0
LINE
  8
1
 62
3
 10
372.7691784465303
 20
367.051175145079
 30
0
 11
364.9163894055373
 21
335
 31
0
  0
LINE
  8
1
 62
3
 10
364.9163894055373
 20
335
 30
0
 11
381.6690060262913
 21
335
 31
0
  0
LINE
  8
1
 62
3
 10
381.6690060262913
 20
335
 30
0
 11
384.3789411742653
 21
346.0606060606083
 31
0
  0
LINE
  8
1
 62
3
 10
384.3789411742653
 20
346.0606060606083
 30
0
 11
378.0967099414775
 21
346.0606060606083
 31
0
  0
LINE
  8
1
 62
3
 10
378.0967099414775
 20
346.0606060606083
 30
0
 11
376.4707488526904
 21
339.424242424182
 31
0
  0
LINE
  8
1
 62
3
 10
376.4707488526904
 20
339.424242424182
 30
0
 11
372.2825946974874
 21
339.424242424182
 31
0
  0
LINE
  8
1
 62
3
 10
372.2825946974874
 20
339.424242424182
 30
0
 11
377.9674356201174
 21
362.626932720839
 31
0
  0
LINE
  8
1
 62
3
 10
377.9674356201174
 20
362.626932720839
 30
0
 11
382.1555897753094
 21
362.626932720839
 31
0
  0
LINE
  8
1
 62
3
 10
382.1555897753094
 20
362.626932720839
 30
0
 11
380.5296286865153
 21
355.990569084413
 31
0
  0
LINE
  8
1
 62
3
 10
380.5296286865153
 20
355.990569084413
 30
0
 11
386.8118599193213
 21
355.990569084413
 31
0
  0
LINE
  8
1
 62
3
 10
385.8571601814724
 20
335
 30
0
 11
392.1393914142604
 21
335
 31
0
  0
LINE
  8
1
 62
3
 10
402.6097768023353
 20
335
 30
0
 11
410.4625658433504
 21
367.051175145079
 31
0
  0
LINE
  8
1
 62
3
 10
396.3275455694384
 20
335
 30
0
 11
399.7119530603334
 21
348.813466360341
 31
0
  0
LINE
  8
1
 62
3
 10
392.1393914142604
 20
335
 30
0
 11
395.5237989051454
 21
348.813466360341
 31
0
  0
LINE
  8
1
 62
3
 10
393.7099492224654
 20
367.051175145079
 30
0
 11
385.8571601814724
 21
335
 31
0
  0
LINE
  8
1
 62
3
 10
410.4625658433504
 20
367.051175145079
 30
0
 11
404.1803346104343
 21
367.051175145079
 31
0
  0
LINE
  8
1
 62
3
 10
406.7979309574614
 20
335
 30
0
 11
423.5505475782693
 21
335
 31
0
  0
LINE
  8
1
 62
3
 10
418.3522904045674
 20
339.424242424182
 30
0
 11
414.1641362494663
 21
339.424242424182
 31
0
  0
LINE
  8
1
 62
3
 10
414.6507199984583
 20
367.051175145079
 30
0
 11
406.7979309574614
 21
335
 31
0
  0
LINE
  8
1
 62
3
 10
414.1641362494663
 20
339.424242424182
 30
0
 11
419.8489771720413
 21
362.626932720839
 31
0
  0
LINE
  8
1
 62
3
 10
431.4033366192884
 20
367.051175145079
 30
0
 11
414.6507199984583
 21
367.051175145079
 31
0
  0
LINE
  8
1
 62
3
 10
419.8489771720413
 20
362.626932720839
 30
0
 11
424.0371313272913
 21
362.626932720839
 31
0
  0
LINE
  8
1
 62
3
 10
424.0371313272913
 20
362.626932720839
 30
0
 11
418.3522904045674
 21
339.424242424182
 31
0
  0
LINE
  8
1
 62
3
 10
431.4033366192884
 20
367.051175145079
 30
0
 11
423.5505475782693
 21
335
 31
0
  0
LINE
  8
1
 62
3
 10
399.9921804553303
 20
367.051175145079
 30
0
 11
393.7099492224654
 21
367.051175145079
 31
0
  0
LINE
  8
1
 62
3
 10
396.3275455694384
 20
335
 30
0
 11
402.6097768023353
 21
335
 31
0
  0
LINE
  8
1
 62
3
 10
395.5237989051454
 20
348.813466360341
 30
0
 11
399.7119530603334
 21
348.813466360341
 31
0
  0
LINE
  8
1
 62
3
 10
396.6077729643143
 20
353.2377087845271
 30
0
 11
400.7959271195534
 21
353.2377087845271
 31
0
  0
LINE
  8
1
 62
3
 10
396.6077729643143
 20
353.2377087845271
 30
0
 11
399.9921804553303
 21
367.051175145079
 31
0
  0
LINE
  8
1
 62
3
 10
400.7959271195534
 20
353.2377087845271
 30
0
 11
404.1803346104343
 21
367.051175145079
 31
0
  0
LINE
  8
1
 62
3
 10
365.7649031508834
 20
383.7622048583319
 30
0
 11
365.0328203819363
 21
382.9784478723632
 31
0
  0
LINE
  8
1
 62
3
 10
365.3282234693174
 20
381.979895810782
 30
0
 11
365.0328203819363
 21
382.9784478723632
 31
0
  0
ARC
  8
1
 62
3
 10
473.5145867915953
 20
384.3622336822259
 30
0
 40
1.391870091328454
 50
358.7013873342737
 51
66.544866494036
  0
ARC
  8
1
 62
3
 10
472.7891936051053
 20
384.0530393898221
 30
0
 40
1.155889798231824
 50
0.9850581704821981
 51
82.91825463293205
  0
ARC
  8
1
 62
3
 10
472.8643762433014
 20
387.264025930551
 30
0
 40
1.257687287767128
 50
285.1995809529335
 51
80.93139523879873
  0
ARC
  8
1
 62
3
 10
472.9426940693154
 20
387.3039199213811
 30
0
 40
2.009798008861834
 50
304.0700115354259
 51
86.29788871825893
  0
CIRCLE
  8
1
 62
3
 10
472.7358752379364
 20
385.878787878755
 30
0
 40
5.530127989695984
  0
CIRCLE
  8
1
 62
3
 10
472.7358752379364
 20
385.878787878755
 30
0
 40
5.972862778753957
  0
ENDBLK
  8
0
  0
BLOCK
  8
0
  2
WANNENF_SSE
 70
0
 10
1117.541991254227
 20
0
 30
0
  0
LINE
  8
1
 62
2
 10
1134.291393613218
 20
25
 30
0
 11
1174.291393613218
 21
25
 31
0
  0
LINE
  8
1
 62
2
 10
1139.291393613218
 20
55
 30
0
 11
1169.291393613218
 21
55
 31
0
  0
LINE
  8
1
 62
2
 10
1144.291393613218
 20
85
 30
0
 11
1164.291393613218
 21
85
 31
0
  0
LINE
  8
1
 62
2
 10
1134.829474436974
 20
167.4317223165854
 30
0
 11
1174.816088944144
 21
168.4664494569261
 31
0
  0
LINE
  8
1
 62
2
 10
1174.686748051602
 20
173.4647762703226
 30
0
 11
1179.685074864997
 21
173.5941171628651
 31
0
  0
LINE
  8
1
 62
2
 10
1139.698460357828
 20
172.5593900225244
 30
0
 11
1169.688421238205
 21
173.33543537778
 31
0
  0
LINE
  8
1
 62
2
 10
1129.701806731036
 20
172.3007082374393
 30
0
 11
1134.700133544431
 21
172.4300491299819
 31
0
  0
LINE
  8
1
 62
2
 10
1179.426393079913
 20
183.5907707896577
 30
0
 11
1194.421373520102
 21
183.9787934672854
 31
0
  0
LINE
  8
1
 62
2
 10
1114.44814450576
 20
181.909339186604
 30
0
 11
1129.443124945949
 21
182.2973618642318
 31
0
  0
LINE
  8
1
 62
2
 10
1169.559080345663
 20
178.333762191176
 30
0
 11
1174.557407159059
 21
178.4631030837186
 31
0
  0
LINE
  8
1
 62
2
 10
1134.570792651889
 20
177.4283759433779
 30
0
 11
1139.569119465285
 21
177.5577168359205
 31
0
  0
LINE
  8
1
 62
2
 10
1174.291393613218
 20
25
 30
0
 11
1174.291393613218
 21
0
 31
0
  0
LINE
  8
1
 62
2
 10
1134.291393613218
 20
25
 30
0
 11
1134.291393613218
 21
0
 31
0
  0
LINE
  8
1
 62
2
 10
1139.291393613218
 20
55
 30
0
 11
1139.291393613218
 21
25
 31
0
  0
LINE
  8
1
 62
2
 10
1169.291393613218
 20
55
 30
0
 11
1169.291393613218
 21
25
 31
0
  0
LINE
  8
1
 62
2
 10
1164.291393613218
 20
85
 30
0
 11
1169.291393613218
 21
55
 31
0
  0
LINE
  8
1
 62
2
 10
1144.291393613218
 20
85
 30
0
 11
1139.291393613218
 21
55
 31
0
  0
LINE
  8
1
 62
2
 10
1159.291393613218
 20
168.0647194329563
 30
0
 11
1159.291393613218
 21
85
 31
0
  0
LINE
  8
1
 62
2
 10
1149.291393613218
 20
167.8059510543144
 30
0
 11
1149.291393613218
 21
85
 31
0
  0
LINE
  8
1
 62
2
 10
1194.292032627559
 20
188.9771202806815
 30
0
 11
1194.421373520102
 21
183.9787934672854
 31
0
  0
LINE
  8
1
 62
2
 10
1174.298725373973
 20
188.4597567105111
 30
0
 11
1194.292032627559
 21
188.9771202806815
 31
0
  0
LINE
  8
1
 62
2
 10
1174.557407159059
 20
178.4631030837186
 30
0
 11
1174.298725373973
 21
188.4597567105111
 31
0
  0
LINE
  8
1
 62
2
 10
1179.685074864997
 20
173.5941171628651
 30
0
 11
1179.426393079913
 21
183.5907707896577
 31
0
  0
LINE
  8
1
 62
2
 10
1169.688421238205
 20
173.33543537778
 30
0
 11
1169.559080345663
 21
178.333762191176
 31
0
  0
LINE
  8
1
 62
2
 10
1174.816088944144
 20
168.4664494569261
 30
0
 11
1174.686748051602
 21
173.4647762703226
 31
0
  0
LINE
  8
1
 62
2
 10
1139.569119465285
 20
177.5577168359205
 30
0
 11
1139.698460357828
 21
172.5593900225244
 31
0
  0
LINE
  8
1
 62
2
 10
1134.312110866805
 20
187.4250295701704
 30
0
 11
1134.570792651889
 21
177.4283759433779
 31
0
  0
LINE
  8
1
 62
2
 10
1114.318803613219
 20
186.9076660000001
 30
0
 11
1134.312110866805
 21
187.4250295701704
 31
0
  0
LINE
  8
1
 62
2
 10
1114.318803613219
 20
186.9076660000001
 30
0
 11
1114.44814450576
 21
181.909339186604
 31
0
  0
LINE
  8
1
 62
2
 10
1129.701806731036
 20
172.3007082374393
 30
0
 11
1129.443124945949
 21
182.2973618642318
 31
0
  0
LINE
  8
1
 62
2
 10
1134.829474436974
 20
167.4317223165854
 30
0
 11
1134.700133544431
 21
172.4300491299819
 31
0
  0
LINE
  8
1
 62
2
 10
531.556330613217
 20
25
 30
0
 11
571.556330613217
 21
25
 31
0
  0
LINE
  8
1
 62
2
 10
536.556330613217
 20
55
 30
0
 11
566.556330613217
 21
55
 31
0
  0
LINE
  8
1
 62
2
 10
541.556330613217
 20
85
 30
0
 11
561.556330613217
 21
85
 31
0
  0
LINE
  8
1
 62
2
 10
532.094411436973
 20
149.9924343165853
 30
0
 11
572.081025944144
 21
151.027161456926
 31
0
  0
LINE
  8
1
 62
2
 10
571.9516850516021
 20
156.0254882703225
 30
0
 11
576.950011864997
 21
156.1548291628651
 31
0
  0
LINE
  8
1
 62
2
 10
536.9633973578281
 20
155.1201020225244
 30
0
 11
566.953358238204
 21
155.8961473777799
 31
0
  0
LINE
  8
1
 62
2
 10
526.9667437310351
 20
154.8614202374392
 30
0
 11
531.9650705444311
 21
154.9907611299818
 31
0
  0
LINE
  8
1
 62
2
 10
576.6913300799121
 20
166.1514827896576
 30
0
 11
591.6863105201011
 21
166.5395054672854
 31
0
  0
LINE
  8
1
 62
2
 10
511.7130815057601
 20
164.470051186604
 30
0
 11
526.7080619459491
 21
164.8580738642318
 31
0
  0
LINE
  8
1
 62
2
 10
566.824017345663
 20
160.894474191176
 30
0
 11
571.8223441590591
 21
161.0238150837186
 31
0
  0
LINE
  8
1
 62
2
 10
531.8357296518881
 20
159.9890879433779
 30
0
 11
536.834056465285
 21
160.1184288359204
 31
0
  0
LINE
  8
1
 62
2
 10
571.556330613217
 20
25
 30
0
 11
571.556330613217
 21
0
 31
0
  0
LINE
  8
1
 62
2
 10
531.556330613217
 20
25
 30
0
 11
531.556330613217
 21
0
 31
0
  0
LINE
  8
1
 62
2
 10
536.556330613217
 20
55
 30
0
 11
536.556330613217
 21
25
 31
0
  0
LINE
  8
1
 62
2
 10
566.556330613217
 20
55
 30
0
 11
566.556330613217
 21
25
 31
0
  0
LINE
  8
1
 62
2
 10
561.556330613217
 20
85
 30
0
 11
566.556330613217
 21
55
 31
0
  0
LINE
  8
1
 62
2
 10
541.556330613217
 20
85
 30
0
 11
536.556330613217
 21
55
 31
0
  0
LINE
  8
1
 62
2
 10
556.556330613217
 20
150.6254314329563
 30
0
 11
556.556330613217
 21
85
 31
0
  0
LINE
  8
1
 62
2
 10
546.556330613217
 20
150.3666630543144
 30
0
 11
546.556330613217
 21
85
 31
0
  0
LINE
  8
1
 62
2
 10
591.556969627558
 20
171.5378322806814
 30
0
 11
591.6863105201011
 21
166.5395054672854
 31
0
  0
LINE
  8
1
 62
2
 10
571.563662373973
 20
171.0204687105111
 30
0
 11
591.556969627558
 21
171.5378322806814
 31
0
  0
LINE
  8
1
 62
2
 10
571.8223441590591
 20
161.0238150837186
 30
0
 11
571.563662373973
 21
171.0204687105111
 31
0
  0
LINE
  8
1
 62
2
 10
576.950011864997
 20
156.1548291628651
 30
0
 11
576.6913300799121
 21
166.1514827896576
 31
0
  0
LINE
  8
1
 62
2
 10
566.953358238204
 20
155.8961473777799
 30
0
 11
566.824017345663
 21
160.894474191176
 31
0
  0
LINE
  8
1
 62
2
 10
572.081025944144
 20
151.027161456926
 30
0
 11
571.9516850516021
 21
156.0254882703225
 31
0
  0
LINE
  8
1
 62
2
 10
536.834056465285
 20
160.1184288359204
 30
0
 11
536.9633973578281
 21
155.1201020225244
 31
0
  0
LINE
  8
1
 62
2
 10
531.577047866804
 20
169.9857415701704
 30
0
 11
531.8357296518881
 21
159.9890879433779
 31
0
  0
LINE
  8
1
 62
2
 10
511.5837406132181
 20
169.468378
 30
0
 11
531.577047866804
 21
169.9857415701704
 31
0
  0
LINE
  8
1
 62
2
 10
511.5837406132181
 20
169.468378
 30
0
 11
511.7130815057601
 21
164.470051186604
 31
0
  0
LINE
  8
1
 62
2
 10
526.9667437310351
 20
154.8614202374392
 30
0
 11
526.7080619459491
 21
164.8580738642318
 31
0
  0
LINE
  8
1
 62
2
 10
532.094411436973
 20
149.9924343165853
 30
0
 11
531.9650705444311
 21
154.9907611299818
 31
0
  0
ENDBLK
  8
0
  0
BLOCK
  8
0
  2
WANNE_MALAGA_461
 70
0
 10
1202.541991254227
 20
399.9999999999991
 30
0
  0
LINE
  8
MITTELLINIEN
 62
3
  6
DASHDOT
 10
374.5441567611725
 20
570
 30
0
 11
244.8761827611594
 21
570
 31
0
  0
LINE
  8
MITTELLINIEN
 62
3
  6
DASHDOT
 10
308.8661377611585
 20
504.3219809999989
 30
0
 11
308.8661377611585
 21
633.9899549999991
 31
0
  0
LINE
  8
1
 62
7
 10
282.0667388141179
 20
190
 30
0
 11
453.7149979763334
 21
190
 31
0
  0
LINE
  8
1
 62
7
 10
373.8354016132172
 20
170
 30
0
 11
425.8354016132172
 21
170
 31
0
  0
LINE
  8
1
 62
7
 10
354.8354016132172
 20
190
 30
0
 11
373.8354016132172
 21
170
 31
0
  0
LINE
  8
1
 62
3
  6
DASHDOT
 10
399.8354016132172
 20
145
 30
0
 11
399.8354016132172
 21
215
 31
0
  0
LINE
  8
1
 62
7
 10
425.8354016132172
 20
170
 30
0
 11
445.1714146669691
 21
190.3536979513174
 31
0
  0
LINE
  8
GSTR
 62
7
 10
720.2567106132182
 20
430
 30
0
 11
1311.256710613218
 21
430
 31
0
  0
LINE
  8
1
 62
7
 10
0
 20
605.000038061017
 30
0
 11
0
 21
640
 31
0
  0
LINE
  8
1
 62
7
 10
1810.424322011746
 20
605.000038061017
 30
0
 11
1810.424322011746
 21
640
 31
0
  0
LINE
  8
1
 62
7
 10
0
 20
640
 30
0
 11
1810.424322011746
 21
640
 31
0
  0
LINE
  8
1
 62
7
 10
0
 20
605.000038061017
 30
0
 11
1810.424322011746
 21
605.000038061017
 31
0
  0
LINE
  8
1
 62
7
 10
202.3711629646715
 20
263.0275406042665
 30
0
 11
172.4524463036725
 21
605.000038061017
 31
0
  0
LINE
  8
1
 62
7
 10
1444.665791170729
 20
260.8234529158553
 30
0
 11
1612.531927695011
 21
605.000038061017
 31
0
  0
LINE
  8
1
 62
7
 10
453.7149979763334
 20
190
 30
0
 11
1375.01253210545
 21
215.9247989445316
 31
0
  0
LINE
  8
1
 62
7
 10
1237.862495613218
 20
192.3262369999998
 30
0
 11
492.1511666132177
 21
170.919868
 31
0
  0
LINE
  8
1
 62
7
 10
1254.650452739445
 20
212.5378771385822
 30
0
 11
1237.862495613218
 21
192.3262369999998
 31
0
  0
LINE
  8
1
 62
7
 10
474.9681248515936
 20
190.5980511406715
 30
0
 11
492.1511666132177
 21
170.919868
 31
0
  0
CIRCLE
  8
WANNE
 62
7
 10
308.8661377611635
 20
570
 30
0
 40
26
  0
ARC
  8
1
 62
7
 10
282.0667388141179
 20
270
 30
0
 40
80.00000000000011
 50
184.9999999826887
 51
270
  0
ARC
  8
1
 62
7
 10
1372.762267444379
 20
295.8931446130218
 30
0
 40
79.99999999999999
 50
271.611845945218
 51
334.0000000366229
  0
INSERT
  8
0
  2
WANNENF_SSE
 10
1117.541991254227
 20
0
 30
0
  0
ENDBLK
  8
0
  0
ENDSEC
  0
SECTION
  2
ENTITIES
  0
TEXT
  8
1
 62
2
 10
299.9999999999981
 20
260.0000000000005
 30
0
 40
35
  1
MALAGA 461
 41
0.5993999999999999
  0
TEXT
  8
1
 62
3
 10
358.8661377611581
 20
485
 30
0
 40
35
  1
Ö 52
 41
0.5993999999999999
 73
3
 11
358.8661377611581
 21
520
 31
0
  0
TEXT
  8
1
 62
3
 10
357.877401613217
 20
85.0000000000002
 30
0
 40
35
  1
Ö 52
 41
0.5993999999999999
 72
1
 73
3
 11
399.835401613217
 21
120.0000000000002
 31
0
  0
INSERT
  8
0
  2
DLX
 10
299.9999999999993
 20
335
 30
0
  0
INSERT
  8
0
  2
WANNE_MALAGA_461
 10
1202.541991254227
 20
399.9999999999991
 30
0
  0
ENDSEC
  0
EOF
