  0
SECTION
  2
HEADER
  9
$ACADVER
  1
AC1009
  9
$INSBASE
 10
0
 20
0
  9
$EXTMIN
 10
0
 20
0
  9
$EXTMAX
 10
2002.740540716187
 20
640
  9
$LIMMIN
 10
0
 20
0
  9
$LIMMAX
 10
2002.740540716187
 20
640
  9
$VIEWCTR
 10
10
 20
10
  9
$VIEWSIZE
 40
10
  9
$SNAPMODE
 70
0
  9
$SNAPUNIT
 10
1
 20
1
  9
$SNAPBASE
 10
0
 20
0
  9
$SNAPANG
 50
0
  9
$SNAPSTYLE
 70
0
  9
$SNAPISOPAIR
 70
0
  9
$GRIDMODE
 70
0
  9
$GRIDUNIT
 10
0
 20
0
  9
$ORTHOMODE
 70
0
  9
$REGENMODE
 70
1
  9
$FILLMODE
 70
1
  9
$QTEXTMODE
 70
0
  9
$DRAGMODE
 70
2
  9
$LTSCALE
 40
1
  9
$OSMODE
 70
0
  9
$ATTMODE
 70
1
  9
$TEXTSIZE
 40
3.5
  9
$TRACEWID
 40
0.5
  9
$TEXTSTYLE
  7
STANDARD
  9
$CLAYER
  8
0
  9
$CELTYPE
  6
BYLAYER
  9
$CECOLOR
 62
256
  9
$DIMSCALE
 40
1
  9
$DIMASZ
 40
0.18
  9
$DIMEXO
 40
0.0625
  9
$DIMDLI
 40
0.38
  9
$DIMRND
 40
0
  9
$DIMDLE
 40
0
  9
$DIMEXE
 40
0.18
  9
$DIMTP
 40
0
  9
$DIMTM
 40
0
  9
$DIMTXT
 40
0.18
  9
$DIMCEN
 40
0.09
  9
$DIMTSZ
 40
0
  9
$DIMTOL
 70
0
  9
$DIMLIM
 70
0
  9
$DIMTIH
 70
1
  9
$DIMTOH
 70
1
  9
$DIMSE1
 70
0
  9
$DIMSE2
 70
0
  9
$DIMTAD
 70
0
  9
$DIMZIN
 70
0
  9
$DIMBLK
  1

  9
$DIMASO
 70
1
  9
$DIMSHO
 70
1
  9
$DIMPOST
  1

  9
$DIMAPOST
  1

  9
$DIMALT
 70
0
  9
$DIMALTD
 70
2
  9
$DIMALTF
 40
25.4
  9
$DIMLFAC
 40
1
  9
$DIMTOFL
 70
0
  9
$DIMTVP
 40
0
  9
$DIMTIX
 70
0
  9
$DIMSOXD
 70
0
  9
$DIMSAH
 70
0
  9
$DIMBLK1
  1

  9
$DIMBLK2
  1

  9
$DIMSTYLE
  2
*UNNAMED
  9
$DIMCLRD
 70
0
  9
$DIMCLRE
 70
0
  9
$DIMCLRT
 70
0
  9
$DIMTFAC
 40
1
  9
$DIMGAP
 40
0.09
  9
$LUNITS
 70
2
  9
$LUPREC
 70
4
  9
$AXISMODE
 70
0
  9
$AXISUNIT
 10
0
 20
0
  9
$SKETCHINC
 40
0.1
  9
$FILLETRAD
 40
2
  9
$AUNITS
 70
0
  9
$AUPREC
 70
0
  9
$MENU
  1
ACAD
  9
$ELEVATION
 40
0
  9
$THICKNESS
 40
0
  9
$VIEWDIR
 10
0
 20
0
 30
1
  9
$LIMCHECK
 70
0
  9
$BLIPMODE
 70
1
  9
$CHAMFERA
 40
0
  9
$CHAMFERB
 40
0
  9
$FASTZOOM
 70
1
  9
$SKPOLY
 70
0
  9
$ANGBASE
 50
0
  9
$ANGDIR
 70
0
  9
$PDMODE
 70
0
  9
$PDSIZE
 40
0
  9
$PLINEWID
 40
0
  9
$COORDS
 70
2
  0
ENDSEC
  0
SECTION
  2
TABLES
  0
TABLE
  2
DIMSTYLE
 70
0
  0
ENDTAB
  0
TABLE
  2
LTYPE
 70
9
  0
LTYPE
  2
CONTINUOUS
 70
64
  3
Solid line
 72
65
 73
0
 40
0
  0
LTYPE
  2
BORDER
 70
64
  3
__ __ . __ __ .
 72
65
 73
6
 40
92.23147226982441
 49
26.35184921994983
 49
-13.17592460997492
 49
26.35184921994983
 49
-13.17592460997492
 49
0
 49
-13.17592460997492
  0
LTYPE
  2
CENTER
 70
64
  3
____ _ ____ _
 72
65
 73
4
 40
105.4073968797993
 49
65.87962304987458
 49
-13.17592460997492
 49
13.17592460997492
 49
-13.17592460997492
  0
LTYPE
  2
DASHDOT
 70
64
  3
__ . __ . __ .
 72
65
 73
4
 40
52.70369843989966
 49
26.35184921994983
 49
-13.17592460997492
 49
0
 49
-13.17592460997492
  0
LTYPE
  2
DASHED
 70
64
  3
__ __ __ __ __
 72
65
 73
2
 40
39.52777382992475
 49
26.35184921994983
 49
-13.17592460997492
  0
LTYPE
  2
DIVIDE
 70
64
  3
__ . . __ . . 
 72
65
 73
6
 40
65.87962304987458
 49
26.35184921994983
 49
-13.17592460997492
 49
0
 49
-13.17592460997492
 49
0
 49
-13.17592460997492
  0
LTYPE
  2
DOT
 70
64
  3
..............
 72
65
 73
4
 40
26.35184921994983
 49
0
 49
-13.17592460997492
 49
0
 49
-13.17592460997492
  0
LTYPE
  2
HIDDEN
 70
64
  3
_ _ _ _ _ _ _
 72
65
 73
2
 40
19.76388691496237
 49
13.17592460997492
 49
-6.587962304987458
  0
LTYPE
  2
PHANTOM
 70
64
  3
_____ _ _ _____ _ _ 
 72
65
 73
6
 40
131.7592460997492
 49
65.87962304987458
 49
-13.17592460997492
 49
13.17592460997492
 49
-13.17592460997492
 49
13.17592460997492
 49
-13.17592460997492
  0
ENDTAB
  0
TABLE
  2
LAYER
 70
5
  0
LAYER
  2
MITTELLINIEN
 70
0
 62
7
  6
CONTINUOUS
  0
LAYER
  2
1
 70
0
 62
7
  6
CONTINUOUS
  0
LAYER
  2
WANNE
 70
0
 62
7
  6
CONTINUOUS
  0
LAYER
  2
0
 70
0
 62
7
  6
CONTINUOUS
  0
ENDTAB
  0
TABLE
  2
STYLE
 70
4
  0
STYLE
  2
STANDARD
 70
0
 40
0
 41
1
 50
0
 71
0
 42
3.5
  3
txt
  4

  0
STYLE
  2
SIMPLEX
 70
0
 40
0
 41
1
 50
0
 71
0
 42
3.5
  3
simplex
  4

  0
STYLE
  2
COMPLEX
 70
0
 40
0
 41
1
 50
0
 71
0
 42
3.5
  3
complex
  4

  0
STYLE
  2
ITALIC
 70
0
 40
0
 41
1
 50
0
 71
0
 42
3.5
  3
italic
  4

  0
ENDTAB
  0
TABLE
  2
VIEW
 70
0
  0
ENDTAB
  0
ENDSEC
  0
SECTION
  2
BLOCKS
  0
BLOCK
  8
0
  2
DLX
 70
0
 10
1522.41103756398
 20
315
 30
0
  0
LINE
  8
1
 62
3
 10
1587.739261033298
 20
361.979895810782
 30
0
 11
1587.443857945917
 21
362.9784478723632
 31
0
  0
LINE
  8
1
 62
3
 10
1588.175940714865
 20
363.7622048583319
 30
0
 11
1587.443857945917
 21
362.9784478723632
 31
0
  0
LINE
  8
1
 62
3
 10
1623.206964683534
 20
333.2377087845271
 30
0
 11
1626.591372174415
 21
347.051175145079
 31
0
  0
LINE
  8
1
 62
3
 10
1619.018810528295
 20
333.2377087845271
 30
0
 11
1622.403218019311
 21
347.051175145079
 31
0
  0
LINE
  8
1
 62
3
 10
1619.018810528295
 20
333.2377087845271
 30
0
 11
1623.206964683534
 21
333.2377087845271
 31
0
  0
LINE
  8
1
 62
3
 10
1617.934836469126
 20
328.813466360341
 30
0
 11
1622.122990624314
 21
328.813466360341
 31
0
  0
LINE
  8
1
 62
3
 10
1618.738583133419
 20
315
 30
0
 11
1625.020814366316
 21
315
 31
0
  0
LINE
  8
1
 62
3
 10
1622.403218019311
 20
347.051175145079
 30
0
 11
1616.120986786446
 21
347.051175145079
 31
0
  0
LINE
  8
1
 62
3
 10
1653.814374183269
 20
347.051175145079
 30
0
 11
1645.96158514225
 21
315
 31
0
  0
LINE
  8
1
 62
3
 10
1646.448168891272
 20
342.626932720839
 30
0
 11
1640.763327968548
 21
319.424242424182
 31
0
  0
LINE
  8
1
 62
3
 10
1642.260014736022
 20
342.626932720839
 30
0
 11
1646.448168891272
 21
342.626932720839
 31
0
  0
LINE
  8
1
 62
3
 10
1653.814374183269
 20
347.051175145079
 30
0
 11
1637.061757562439
 21
347.051175145079
 31
0
  0
LINE
  8
1
 62
3
 10
1636.575173813447
 20
319.424242424182
 30
0
 11
1642.260014736022
 21
342.626932720839
 31
0
  0
LINE
  8
1
 62
3
 10
1637.061757562439
 20
347.051175145079
 30
0
 11
1629.208968521442
 21
315
 31
0
  0
LINE
  8
1
 62
3
 10
1640.763327968548
 20
319.424242424182
 30
0
 11
1636.575173813447
 21
319.424242424182
 31
0
  0
LINE
  8
1
 62
3
 10
1629.208968521442
 20
315
 30
0
 11
1645.96158514225
 21
315
 31
0
  0
LINE
  8
1
 62
3
 10
1632.873603407331
 20
347.051175145079
 30
0
 11
1626.591372174415
 21
347.051175145079
 31
0
  0
LINE
  8
1
 62
3
 10
1616.120986786446
 20
347.051175145079
 30
0
 11
1608.268197745453
 21
315
 31
0
  0
LINE
  8
1
 62
3
 10
1614.550428978241
 20
315
 30
0
 11
1617.934836469126
 21
328.813466360341
 31
0
  0
LINE
  8
1
 62
3
 10
1618.738583133419
 20
315
 30
0
 11
1622.122990624314
 21
328.813466360341
 31
0
  0
LINE
  8
1
 62
3
 10
1625.020814366316
 20
315
 30
0
 11
1632.873603407331
 21
347.051175145079
 31
0
  0
LINE
  8
1
 62
3
 10
1608.268197745453
 20
315
 30
0
 11
1614.550428978241
 21
315
 31
0
  0
LINE
  8
1
 62
3
 10
1602.940666250496
 20
335.990569084413
 30
0
 11
1609.222897483302
 21
335.990569084413
 31
0
  0
LINE
  8
1
 62
3
 10
1604.56662733929
 20
342.626932720839
 30
0
 11
1602.940666250496
 21
335.990569084413
 31
0
  0
LINE
  8
1
 62
3
 10
1600.378473184098
 20
342.626932720839
 30
0
 11
1604.56662733929
 21
342.626932720839
 31
0
  0
LINE
  8
1
 62
3
 10
1594.693632261468
 20
319.424242424182
 30
0
 11
1600.378473184098
 21
342.626932720839
 31
0
  0
LINE
  8
1
 62
3
 10
1598.881786416671
 20
319.424242424182
 30
0
 11
1594.693632261468
 21
319.424242424182
 31
0
  0
LINE
  8
1
 62
3
 10
1600.507747505458
 20
326.0606060606083
 30
0
 11
1598.881786416671
 21
319.424242424182
 31
0
  0
LINE
  8
1
 62
3
 10
1606.789978738246
 20
326.0606060606083
 30
0
 11
1600.507747505458
 21
326.0606060606083
 31
0
  0
LINE
  8
1
 62
3
 10
1604.080043590272
 20
315
 30
0
 11
1606.789978738246
 21
326.0606060606083
 31
0
  0
LINE
  8
1
 62
3
 10
1587.327426969519
 20
315
 30
0
 11
1604.080043590272
 21
315
 31
0
  0
LINE
  8
1
 62
3
 10
1595.180216010512
 20
347.051175145079
 30
0
 11
1587.327426969519
 21
315
 31
0
  0
LINE
  8
1
 62
3
 10
1611.932832631232
 20
347.051175145079
 30
0
 11
1595.180216010512
 21
347.051175145079
 31
0
  0
LINE
  8
1
 62
3
 10
1609.222897483302
 20
335.990569084413
 30
0
 11
1611.932832631232
 21
347.051175145079
 31
0
  0
LINE
  8
1
 62
3
 10
1589.908087796136
 20
342.626932720839
 30
0
 11
1590.992061855294
 21
347.051175145079
 31
0
  0
LINE
  8
1
 62
3
 10
1579.437702408156
 20
342.626932720839
 30
0
 11
1589.908087796136
 21
342.626932720839
 31
0
  0
LINE
  8
1
 62
3
 10
1577.004783663143
 20
332.6969696969529
 30
0
 11
1579.437702408156
 21
342.626932720839
 31
0
  0
LINE
  8
1
 62
3
 10
1587.475169051207
 20
332.6969696969529
 30
0
 11
1577.004783663143
 21
332.6969696969529
 31
0
  0
LINE
  8
1
 62
3
 10
1583.139272814283
 20
315
 30
0
 11
1587.475169051207
 21
332.6969696969529
 31
0
  0
LINE
  8
1
 62
3
 10
1566.38665619346
 20
315
 30
0
 11
1583.139272814283
 21
315
 31
0
  0
LINE
  8
1
 62
3
 10
1567.470630252768
 20
319.424242424182
 30
0
 11
1566.38665619346
 21
315
 31
0
  0
LINE
  8
1
 62
3
 10
1577.941015640678
 20
319.424242424182
 30
0
 11
1567.470630252768
 21
319.424242424182
 31
0
  0
LINE
  8
1
 62
3
 10
1580.108963759097
 20
328.2727272727971
 30
0
 11
1577.941015640678
 21
319.424242424182
 31
0
  0
LINE
  8
1
 62
3
 10
1569.638578371131
 20
328.2727272727971
 30
0
 11
1580.108963759097
 21
328.2727272727971
 31
0
  0
LINE
  8
1
 62
3
 10
1574.239445234523
 20
347.051175145079
 30
0
 11
1569.638578371131
 21
328.2727272727971
 31
0
  0
LINE
  8
1
 62
3
 10
1590.992061855294
 20
347.051175145079
 30
0
 11
1574.239445234523
 21
347.051175145079
 31
0
  0
LINE
  8
1
 62
3
 10
1570.05129107936
 20
347.051175145079
 30
0
 11
1562.198502038345
 21
315
 31
0
  0
LINE
  8
1
 62
3
 10
1563.769059846553
 20
347.051175145079
 30
0
 11
1570.05129107936
 21
347.051175145079
 31
0
  0
LINE
  8
1
 62
3
 10
1562.198502038345
 20
315
 30
0
 11
1544.398846878755
 21
315
 31
0
  0
LINE
  8
1
 62
3
 10
1557.000244864747
 20
319.424242424182
 30
0
 11
1563.769059846553
 21
347.051175145079
 31
0
  0
LINE
  8
1
 62
3
 10
1551.765052170763
 20
319.424242424182
 30
0
 11
1557.000244864747
 21
319.424242424182
 31
0
  0
LINE
  8
1
 62
3
 10
1558.533867152558
 20
347.051175145079
 30
0
 11
1551.765052170763
 21
319.424242424182
 31
0
  0
LINE
  8
1
 62
3
 10
1552.251635919748
 20
347.051175145079
 30
0
 11
1558.533867152558
 21
347.051175145079
 31
0
  0
LINE
  8
1
 62
3
 10
1544.398846878755
 20
315
 30
0
 11
1552.251635919748
 21
347.051175145079
 31
0
  0
LINE
  8
1
 62
3
 10
1540.210692723628
 20
315
 30
0
 11
1522.41103756398
 21
315
 31
0
  0
LINE
  8
1
 62
3
 10
1550.773416912548
 20
358.1117812056621
 30
0
 11
1540.210692723628
 21
315
 31
0
  0
LINE
  8
1
 62
3
 10
1526.800089835256
 20
358.1117812056621
 30
0
 11
1550.773416912548
 21
358.1117812056621
 31
0
  0
LINE
  8
1
 62
3
 10
1525.445122261271
 20
352.581478175405
 30
0
 11
1526.800089835256
 21
358.1117812056621
 31
0
  0
LINE
  8
1
 62
3
 10
1543.136218105804
 20
352.581478175405
 30
0
 11
1525.445122261271
 21
352.581478175405
 31
0
  0
LINE
  8
1
 62
3
 10
1535.012435549922
 20
319.424242424182
 30
0
 11
1543.136218105804
 21
352.581478175405
 31
0
  0
LINE
  8
1
 62
3
 10
1529.777242856043
 20
319.424242424182
 30
0
 11
1535.012435549922
 21
319.424242424182
 31
0
  0
LINE
  8
1
 62
3
 10
1536.546057837733
 20
347.051175145079
 30
0
 11
1529.777242856043
 21
319.424242424182
 31
0
  0
LINE
  8
1
 62
3
 10
1530.263826605035
 20
347.051175145079
 30
0
 11
1536.546057837733
 21
347.051175145079
 31
0
  0
LINE
  8
1
 62
3
 10
1522.41103756398
 20
315
 30
0
 11
1530.263826605035
 21
347.051175145079
 31
0
  0
LINE
  8
1
 62
3
 10
1657.530718797495
 20
321.1939393939099
 30
0
 11
1666.575879303586
 21
358.1117812056621
 31
0
  0
LINE
  8
1
 62
3
 10
1666.575879303586
 20
358.1117812056621
 30
0
 11
1660.712463486318
 21
358.1117812056621
 31
0
  0
LINE
  8
1
 62
3
 10
1660.712463486318
 20
358.1117812056621
 30
0
 11
1650.149739297377
 21
315
 31
0
  0
LINE
  8
1
 62
3
 10
1668.054098310947
 20
347.051175145079
 30
0
 11
1662.369257388259
 21
323.848484848477
 31
0
  0
LINE
  8
1
 62
3
 10
1662.369257388259
 20
323.848484848477
 30
0
 11
1678.07483547018
 21
323.848484848477
 31
0
  0
LINE
  8
1
 62
3
 10
1678.07483547018
 20
323.848484848477
 30
0
 11
1683.759676392788
 21
347.051175145079
 31
0
  0
LINE
  8
1
 62
3
 10
1683.759676392788
 20
347.051175145079
 30
0
 11
1678.524483698865
 21
347.051175145079
 31
0
  0
LINE
  8
1
 62
3
 10
1678.524483698865
 20
347.051175145079
 30
0
 11
1673.92361683547
 21
328.2727272727971
 31
0
  0
LINE
  8
1
 62
3
 10
1673.92361683547
 20
328.2727272727971
 30
0
 11
1668.688424141518
 21
328.2727272727971
 31
0
  0
LINE
  8
1
 62
3
 10
1668.688424141518
 20
328.2727272727971
 30
0
 11
1673.289291004869
 21
347.051175145079
 31
0
  0
LINE
  8
1
 62
3
 10
1673.289291004869
 20
347.051175145079
 30
0
 11
1668.054098310947
 21
347.051175145079
 31
0
  0
LINE
  8
1
 62
3
 10
1690.318015148929
 20
347.051175145079
 30
0
 11
1686.272568885914
 21
347.051175145079
 31
0
  0
LINE
  8
1
 62
3
 10
1686.272568885914
 20
347.051175145079
 30
0
 11
1690.394864408111
 21
336.4153012186609
 31
0
  0
LINE
  8
1
 62
3
 10
1690.394864408111
 20
336.4153012186609
 30
0
 11
1680.587727963321
 21
323.848484848477
 31
0
  0
LINE
  8
1
 62
3
 10
1680.587727963321
 20
323.848484848477
 30
0
 11
1684.633174226318
 21
323.848484848477
 31
0
  0
LINE
  8
1
 62
3
 10
1684.633174226318
 20
323.848484848477
 30
0
 11
1691.73730680642
 21
332.951685370502
 31
0
  0
LINE
  8
1
 62
3
 10
1691.73730680642
 20
332.951685370502
 30
0
 11
1695.265562501104
 21
323.848484848477
 31
0
  0
LINE
  8
1
 62
3
 10
1695.265562501104
 20
323.848484848477
 30
0
 11
1699.311008764152
 21
323.848484848477
 31
0
  0
LINE
  8
1
 62
3
 10
1699.311008764152
 20
323.848484848477
 30
0
 11
1694.440310671148
 21
336.415301218603
 31
0
  0
LINE
  8
1
 62
3
 10
1694.440310671148
 20
336.415301218603
 30
0
 11
1702.74054071623
 21
347.051175145079
 31
0
  0
LINE
  8
1
 62
3
 10
1702.74054071623
 20
347.051175145079
 30
0
 11
1698.695094453172
 21
347.051175145079
 31
0
  0
LINE
  8
1
 62
3
 10
1698.695094453172
 20
347.051175145079
 30
0
 11
1693.097868272886
 21
339.878917066824
 31
0
  0
LINE
  8
1
 62
3
 10
1693.097868272886
 20
339.878917066824
 30
0
 11
1690.318015148929
 21
347.051175145079
 31
0
  0
LINE
  8
1
 62
3
 10
1700.339868349668
 20
321.1939393939099
 30
0
 11
1702.740540716187
 21
315
 31
0
  0
LINE
  8
1
 62
3
 10
1700.339868349668
 20
321.1939393939099
 30
0
 11
1657.530718797495
 21
321.1939393939099
 31
0
  0
LINE
  8
1
 62
3
 10
1702.740540716187
 20
315
 30
0
 11
1650.149739297377
 21
315
 31
0
  0
LINE
  8
1
 62
3
 10
1559.149725222947
 20
358.1117812056621
 30
0
 11
1562.401647400428
 21
371.3845084783202
 31
0
  0
LINE
  8
1
 62
3
 10
1562.401647400428
 20
371.3845084783202
 30
0
 11
1574.966109866146
 21
371.3845084783202
 31
0
  0
LINE
  8
1
 62
3
 10
1574.966109866146
 20
371.3845084783202
 30
0
 11
1571.714187688472
 21
358.1117812056621
 31
0
  0
LINE
  8
1
 62
3
 10
1571.714187688472
 20
358.1117812056621
 30
0
 11
1559.149725222947
 21
358.1117812056621
 31
0
  0
LINE
  8
1
 62
3
 10
1570.162097640467
 20
360.3239024177931
 30
0
 11
1561.785789330113
 21
360.3239024177931
 31
0
  0
LINE
  8
1
 62
3
 10
1572.330045758944
 20
369.172387266269
 30
0
 11
1570.162097640467
 21
360.3239024177931
 31
0
  0
LINE
  8
1
 62
3
 10
1563.953737448454
 20
369.172387266269
 30
0
 11
1572.330045758944
 21
369.172387266269
 31
0
  0
LINE
  8
1
 62
3
 10
1561.785789330113
 20
360.3239024177931
 30
0
 11
1563.953737448454
 21
369.172387266269
 31
0
  0
LINE
  8
1
 62
3
 10
1577.479002359139
 20
371.3845084783202
 30
0
 11
1574.227080181602
 21
358.1117812056621
 31
0
  0
LINE
  8
1
 62
3
 10
1577.479002359139
 20
371.3845084783202
 30
0
 11
1590.043464824718
 21
371.3845084783202
 31
0
  0
LINE
  8
1
 62
3
 10
1590.043464824718
 20
371.3845084783202
 30
0
 11
1588.175940714865
 21
363.7622048583319
 31
0
  0
LINE
  8
1
 62
3
 10
1586.791542647186
 20
358.1117812056621
 30
0
 11
1584.697465569546
 21
358.1117812056621
 31
0
  0
LINE
  8
1
 62
3
 10
1584.697465569546
 20
358.1117812056621
 30
0
 11
1585.781439628919
 21
362.5360236298441
 31
0
  0
LINE
  8
1
 62
3
 10
1585.781439628919
 20
362.5360236298441
 30
0
 11
1577.405131318389
 21
362.5360236298441
 31
0
  0
LINE
  8
1
 62
3
 10
1577.947118347981
 20
364.7481448420331
 30
0
 11
1586.323426658362
 21
364.7481448420331
 31
0
  0
LINE
  8
1
 62
3
 10
1586.323426658362
 20
364.7481448420331
 30
0
 11
1587.407400717683
 21
369.172387266269
 31
0
  0
LINE
  8
1
 62
3
 10
1587.407400717683
 20
369.172387266269
 30
0
 11
1579.031092407165
 21
369.172387266269
 31
0
  0
LINE
  8
1
 62
3
 10
1579.031092407165
 20
369.172387266269
 30
0
 11
1577.947118347981
 21
364.7481448420331
 31
0
  0
LINE
  8
1
 62
3
 10
1587.739261033298
 20
361.979895810782
 30
0
 11
1586.791542647186
 21
358.1117812056621
 31
0
  0
LINE
  8
1
 62
3
 10
1574.227080181602
 20
358.1117812056621
 30
0
 11
1576.321157259278
 21
358.1117812056621
 31
0
  0
LINE
  8
1
 62
3
 10
1576.321157259278
 20
358.1117812056621
 30
0
 11
1577.405131318389
 21
362.5360236298441
 31
0
  0
LINE
  8
1
 62
3
 10
1594.650434395445
 20
371.3845084783202
 30
0
 11
1592.556357317882
 21
371.3845084783202
 31
0
  0
LINE
  8
1
 62
3
 10
1592.556357317882
 20
371.3845084783202
 30
0
 11
1589.304435140316
 21
358.1117812056621
 31
0
  0
LINE
  8
1
 62
3
 10
1589.304435140316
 20
358.1117812056621
 30
0
 11
1591.398512218036
 21
358.1117812056621
 31
0
  0
LINE
  8
1
 62
3
 10
1591.398512218036
 20
358.1117812056621
 30
0
 11
1594.650434395445
 21
371.3845084783202
 31
0
  0
LINE
  8
1
 62
3
 10
1593.911404711021
 20
358.1117812056621
 30
0
 11
1597.163326888564
 21
371.3845084783202
 31
0
  0
LINE
  8
1
 62
3
 10
1597.163326888564
 20
371.3845084783202
 30
0
 11
1609.727789354155
 21
371.3845084783202
 31
0
  0
LINE
  8
1
 62
3
 10
1609.727789354155
 20
371.3845084783202
 30
0
 11
1608.589616592028
 21
366.739053932891
 31
0
  0
LINE
  8
1
 62
3
 10
1606.475867176633
 20
358.1117812056621
 30
0
 11
1593.911404711021
 21
358.1117812056621
 31
0
  0
LINE
  8
1
 62
3
 10
1604.923777128585
 20
360.3239024177931
 30
0
 11
1596.547468818256
 21
360.3239024177931
 31
0
  0
LINE
  8
1
 62
3
 10
1607.09172524688
 20
369.172387266269
 30
0
 11
1606.495539514502
 21
366.739053932891
 31
0
  0
LINE
  8
1
 62
3
 10
1598.715416936583
 20
369.172387266269
 30
0
 11
1607.09172524688
 21
369.172387266269
 31
0
  0
LINE
  8
1
 62
3
 10
1596.547468818256
 20
360.3239024177931
 30
0
 11
1598.715416936583
 21
369.172387266269
 31
0
  0
LINE
  8
1
 62
3
 10
1608.101828265405
 20
364.7481448420331
 30
0
 11
1601.819597032599
 21
364.7481448420331
 31
0
  0
LINE
  8
1
 62
3
 10
1608.101828265405
 20
364.7481448420331
 30
0
 11
1606.475867176633
 21
358.1117812056621
 31
0
  0
LINE
  8
1
 62
3
 10
1601.819597032599
 20
364.7481448420331
 30
0
 11
1601.277610002952
 21
362.5360236298441
 31
0
  0
LINE
  8
1
 62
3
 10
1601.277610002952
 20
362.5360236298441
 30
0
 11
1605.465764158352
 21
362.5360236298441
 31
0
  0
LINE
  8
1
 62
3
 10
1605.465764158352
 20
362.5360236298441
 30
0
 11
1604.923777128585
 21
360.3239024177931
 31
0
  0
LINE
  8
1
 62
3
 10
1606.495539514502
 20
366.739053932891
 30
0
 11
1608.589616592028
 21
366.739053932891
 31
0
  0
LINE
  8
1
 62
3
 10
1608.988759669749
 20
358.1117812056621
 30
0
 11
1611.082836747309
 21
358.1117812056621
 31
0
  0
LINE
  8
1
 62
3
 10
1611.082836747309
 20
358.1117812056621
 30
0
 11
1614.334758924878
 21
371.3845084783202
 31
0
  0
LINE
  8
1
 62
3
 10
1612.240681847314
 20
371.3845084783202
 30
0
 11
1608.988759669749
 21
358.1117812056621
 31
0
  0
LINE
  8
1
 62
3
 10
1614.334758924878
 20
371.3845084783202
 30
0
 11
1612.240681847314
 21
371.3845084783202
 31
0
  0
LINE
  8
1
 62
3
 10
1613.595729240479
 20
358.1117812056621
 30
0
 11
1616.847651417994
 21
371.3845084783202
 31
0
  0
LINE
  8
1
 62
3
 10
1616.847651417994
 20
371.3845084783202
 30
0
 11
1619.988767034335
 21
371.3845084783202
 31
0
  0
LINE
  8
1
 62
3
 10
1619.988767034335
 20
371.3845084783202
 30
0
 11
1624.47260490061
 21
359.770872114746
 31
0
  0
LINE
  8
1
 62
3
 10
1624.47260490061
 20
359.770872114746
 30
0
 11
1627.318036805963
 21
371.3845084783202
 31
0
  0
LINE
  8
1
 62
3
 10
1627.318036805963
 20
371.3845084783202
 30
0
 11
1629.412113883577
 21
371.3845084783202
 31
0
  0
LINE
  8
1
 62
3
 10
1629.412113883577
 20
371.3845084783202
 30
0
 11
1626.160191705957
 21
358.1117812056621
 31
0
  0
LINE
  8
1
 62
3
 10
1626.160191705957
 20
358.1117812056621
 30
0
 11
1622.917513217188
 21
358.1117812056621
 31
0
  0
LINE
  8
1
 62
3
 10
1622.917513217188
 20
358.1117812056621
 30
0
 11
1619.136356881478
 21
367.9053946295351
 31
0
  0
LINE
  8
1
 62
3
 10
1619.136356881478
 20
367.9053946295351
 30
0
 11
1618.495808614968
 21
369.5644855385979
 31
0
  0
LINE
  8
1
 62
3
 10
1618.495808614968
 20
369.5644855385979
 30
0
 11
1615.689806318039
 21
358.1117812056621
 31
0
  0
LINE
  8
1
 62
3
 10
1615.689806318039
 20
358.1117812056621
 30
0
 11
1613.595729240479
 21
358.1117812056621
 31
0
  0
LINE
  8
1
 62
3
 10
1628.673084199073
 20
358.1117812056621
 30
0
 11
1636.18451447797
 21
371.3845084783202
 31
0
  0
LINE
  8
1
 62
3
 10
1636.18451447797
 20
371.3845084783202
 30
0
 11
1640.229960740945
 21
371.3845084783202
 31
0
  0
LINE
  8
1
 62
3
 10
1640.229960740945
 20
371.3845084783202
 30
0
 11
1641.237546664707
 21
358.1117812056621
 31
0
  0
LINE
  8
1
 62
3
 10
1641.237546664707
 20
358.1117812056621
 30
0
 11
1639.207864501638
 21
358.1117812056621
 31
0
  0
LINE
  8
1
 62
3
 10
1639.207864501638
 20
358.1117812056621
 30
0
 11
1639.039933514371
 21
360.3239024177931
 31
0
  0
LINE
  8
1
 62
3
 10
1639.039933514371
 20
360.3239024177931
 30
0
 11
1632.303786234007
 21
360.3239024177931
 31
0
  0
LINE
  8
1
 62
3
 10
1632.303786234007
 20
360.3239024177931
 30
0
 11
1631.051881187644
 21
358.1117812056621
 31
0
  0
LINE
  8
1
 62
3
 10
1631.051881187644
 20
358.1117812056621
 30
0
 11
1628.673084199073
 21
358.1117812056621
 31
0
  0
LINE
  8
1
 62
3
 10
1633.555691280538
 20
362.5360236298441
 30
0
 11
1638.872002527049
 21
362.5360236298441
 31
0
  0
LINE
  8
1
 62
3
 10
1638.872002527049
 20
362.5360236298441
 30
0
 11
1638.368209565194
 21
369.172387266269
 31
0
  0
LINE
  8
1
 62
3
 10
1638.368209565194
 20
369.172387266269
 30
0
 11
1637.311406419904
 21
369.172387266269
 31
0
  0
LINE
  8
1
 62
3
 10
1633.555691280538
 20
362.5360236298441
 30
0
 11
1637.311406419904
 21
369.172387266269
 31
0
  0
LINE
  8
1
 62
3
 10
1647.002361335396
 20
371.3845084783202
 30
0
 11
1643.750439157827
 21
358.1117812056621
 31
0
  0
LINE
  8
1
 62
3
 10
1643.750439157827
 20
358.1117812056621
 30
0
 11
1656.314901623406
 21
358.1117812056621
 31
0
  0
LINE
  8
1
 62
3
 10
1656.314901623406
 20
358.1117812056621
 30
0
 11
1656.856888653067
 21
360.3239024177931
 31
0
  0
LINE
  8
1
 62
3
 10
1656.856888653067
 20
360.3239024177931
 30
0
 11
1646.386503265047
 21
360.3239024177931
 31
0
  0
LINE
  8
1
 62
3
 10
1646.386503265047
 20
360.3239024177931
 30
0
 11
1649.09643841301
 21
371.3845084783202
 31
0
  0
LINE
  8
1
 62
3
 10
1649.09643841301
 20
371.3845084783202
 30
0
 11
1647.002361335396
 21
371.3845084783202
 31
0
  0
LINE
  8
1
 62
3
 10
1693.617673699679
 20
365.2001112138419
 30
0
 11
1693.617673699679
 21
362.451055788282
 31
0
  0
LINE
  8
1
 62
3
 10
1692.745226000564
 20
362.451055788282
 30
0
 11
1692.745226000564
 21
369.3095239634563
 31
0
  0
LINE
  8
1
 62
3
 10
1692.745226000564
 20
369.3095239634563
 30
0
 11
1695.187145859804
 21
369.3095239634563
 31
0
  0
LINE
  8
1
 62
3
 10
1695.187145859804
 20
369.3095239634563
 30
0
 11
1695.483502442156
 21
369.3095239634563
 31
0
  0
LINE
  8
1
 62
3
 10
1697.317136956722
 20
364.3306895546259
 30
0
 11
1697.317136956722
 21
362.451055788282
 31
0
  0
LINE
  8
1
 62
3
 10
1697.317136956722
 20
362.451055788282
 30
0
 11
1696.355950141217
 21
362.451055788282
 31
0
  0
LINE
  8
1
 62
3
 10
1696.355950141217
 20
362.451055788282
 30
0
 11
1696.355950141217
 21
364.0729110559
 31
0
  0
LINE
  8
1
 62
3
 10
1695.342735401297
 20
365.2001112138419
 30
0
 11
1693.617673699679
 21
365.2001112138419
 31
0
  0
LINE
  8
1
 62
3
 10
1693.617673699679
 20
362.451055788282
 30
0
 11
1692.745226000564
 21
362.451055788282
 31
0
  0
LINE
  8
1
 62
3
 10
1693.617673699679
 20
366.050334541276
 30
0
 11
1695.605156927621
 21
366.050334541276
 31
0
  0
LINE
  8
1
 62
3
 10
1695.473646691765
 20
368.505992531278
 30
0
 11
1693.617673699679
 21
368.505992531278
 31
0
  0
LINE
  8
1
 62
3
 10
1693.617673699679
 20
368.505992531278
 30
0
 11
1693.617673699679
 21
366.050334541276
 31
0
  0
ARC
  8
1
 62
3
 10
1695.353731633296
 20
367.3039199213811
 30
0
 40
2.009798008861834
 50
304.0700115354259
 51
86.29788871826538
  0
ARC
  8
1
 62
3
 10
1695.275413807282
 20
367.264025930551
 30
0
 40
1.257687287767188
 50
285.1995809529435
 51
80.93139523878851
  0
ARC
  8
1
 62
3
 10
1695.200231169086
 20
364.0530393898221
 30
0
 40
1.155889798231653
 50
0.9850581704823435
 51
82.91825463293205
  0
ARC
  8
1
 62
3
 10
1695.925624355576
 20
364.3622336822259
 30
0
 40
1.39187009132817
 50
358.7013873342734
 51
66.544866494036
  0
CIRCLE
  8
1
 62
3
 10
1695.146912801917
 20
365.878787878755
 30
0
 40
5.972862778753957
  0
CIRCLE
  8
1
 62
3
 10
1695.146912801917
 20
365.878787878755
 30
0
 40
5.530127989695984
  0
ENDBLK
  8
0
  0
BLOCK
  8
0
  2
WANNENF_SSE
 70
0
 10
806.2312694930497
 20
0
 30
0
  0
LINE
  8
1
 62
2
 10
704.0215720981228
 20
25
 30
0
 11
744.0215720981228
 21
25
 31
0
  0
LINE
  8
1
 62
2
 10
709.0215720981228
 20
55
 30
0
 11
739.0215720981228
 21
55
 31
0
  0
LINE
  8
1
 62
2
 10
714.0215720981228
 20
85
 30
0
 11
734.0215720981228
 21
85
 31
0
  0
LINE
  8
1
 62
2
 10
703.4968767671967
 20
160.3352704569261
 30
0
 11
743.4834912743665
 21
159.3005433165854
 31
0
  0
LINE
  8
1
 62
2
 10
698.6278908463426
 20
165.4629381628652
 30
0
 11
703.6262176597386
 21
165.3335972703226
 31
0
  0
LINE
  8
1
 62
2
 10
708.6245444731358
 20
165.20425637778
 30
0
 11
738.6145053535126
 21
164.4282110225245
 31
0
  0
LINE
  8
1
 62
2
 10
743.6128321669096
 20
164.2988701299819
 30
0
 11
748.6111589803047
 21
164.1695292374393
 31
0
  0
LINE
  8
1
 62
2
 10
683.8915921912387
 20
175.8476144672854
 30
0
 11
698.8865726314277
 21
175.4595917896577
 31
0
  0
LINE
  8
1
 62
2
 10
748.8698407653906
 20
174.1661828642318
 30
0
 11
763.8648212055796
 21
173.7781601866041
 31
0
  0
LINE
  8
1
 62
2
 10
703.7555585522816
 20
170.3319240837186
 30
0
 11
708.7538853656777
 21
170.202583191176
 31
0
  0
LINE
  8
1
 62
2
 10
738.7438462460557
 20
169.4265378359205
 30
0
 11
743.7421730594517
 21
169.2971969433779
 31
0
  0
LINE
  8
1
 62
2
 10
704.0215720981228
 20
0
 30
0
 11
704.0215720981228
 21
25
 31
0
  0
LINE
  8
1
 62
2
 10
744.0215720981228
 20
0
 30
0
 11
744.0215720981228
 21
25
 31
0
  0
LINE
  8
1
 62
2
 10
739.0215720981228
 20
25
 30
0
 11
739.0215720981228
 21
55
 31
0
  0
LINE
  8
1
 62
2
 10
709.0215720981228
 20
25
 30
0
 11
709.0215720981228
 21
55
 31
0
  0
LINE
  8
1
 62
2
 10
709.0215720981228
 20
55
 30
0
 11
714.0215720981228
 21
85
 31
0
  0
LINE
  8
1
 62
2
 10
739.0215720981228
 20
55
 30
0
 11
734.0215720981228
 21
85
 31
0
  0
LINE
  8
1
 62
2
 10
719.0215720981228
 20
85
 30
0
 11
719.0215720981228
 21
159.9335404329563
 31
0
  0
LINE
  8
1
 62
2
 10
729.0215720981228
 20
85
 30
0
 11
729.0215720981228
 21
159.6747720543144
 31
0
  0
LINE
  8
1
 62
2
 10
683.8915921912387
 20
175.8476144672854
 30
0
 11
684.0209330837818
 21
180.8459412806815
 31
0
  0
LINE
  8
1
 62
2
 10
684.0209330837818
 20
180.8459412806815
 30
0
 11
704.0142403373666
 21
180.3285777105111
 31
0
  0
LINE
  8
1
 62
2
 10
704.0142403373666
 20
180.3285777105111
 30
0
 11
703.7555585522816
 21
170.3319240837186
 31
0
  0
LINE
  8
1
 62
2
 10
698.8865726314277
 20
175.4595917896577
 30
0
 11
698.6278908463426
 21
165.4629381628652
 31
0
  0
LINE
  8
1
 62
2
 10
708.7538853656777
 20
170.202583191176
 30
0
 11
708.6245444731358
 21
165.20425637778
 31
0
  0
LINE
  8
1
 62
2
 10
703.6262176597386
 20
165.3335972703226
 30
0
 11
703.4968767671967
 21
160.3352704569261
 31
0
  0
LINE
  8
1
 62
2
 10
738.6145053535126
 20
164.4282110225245
 30
0
 11
738.7438462460557
 21
169.4265378359205
 31
0
  0
LINE
  8
1
 62
2
 10
743.7421730594517
 20
169.2971969433779
 30
0
 11
744.0008548445358
 21
179.2938505701704
 31
0
  0
LINE
  8
1
 62
2
 10
744.0008548445358
 20
179.2938505701704
 30
0
 11
763.9941620981217
 21
178.7764870000001
 31
0
  0
LINE
  8
1
 62
2
 10
763.8648212055796
 20
173.7781601866041
 30
0
 11
763.9941620981217
 21
178.7764870000001
 31
0
  0
LINE
  8
1
 62
2
 10
748.8698407653906
 20
174.1661828642318
 30
0
 11
748.6111589803047
 21
164.1695292374393
 31
0
  0
LINE
  8
1
 62
2
 10
743.6128321669096
 20
164.2988701299819
 30
0
 11
743.4834912743665
 21
159.3005433165854
 31
0
  0
LINE
  8
1
 62
2
 10
1423.364968844235
 20
25
 30
0
 11
1463.364968844235
 21
25
 31
0
  0
LINE
  8
1
 62
2
 10
1428.364968844235
 20
55
 30
0
 11
1458.364968844235
 21
55
 31
0
  0
LINE
  8
1
 62
2
 10
1433.364968844235
 20
85
 30
0
 11
1453.364968844235
 21
85
 31
0
  0
LINE
  8
1
 62
2
 10
1423.36564228265
 20
151.61470841959
 30
0
 11
1463.364295405821
 21
151.2864580087326
 31
0
  0
LINE
  8
1
 62
2
 10
1463.405326707179
 20
156.2862896491292
 30
0
 11
1468.405158347575
 21
156.2452583477721
 31
0
  0
LINE
  8
1
 62
2
 10
1428.406505224404
 20
156.5735087586295
 30
0
 11
1458.405495066782
 21
156.3273209504864
 31
0
  0
LINE
  8
1
 62
2
 10
1418.406841943612
 20
156.6555713613439
 30
0
 11
1423.406673584007
 21
156.6145400599867
 31
0
  0
LINE
  8
1
 62
2
 10
1468.487220950289
 20
166.2449216285645
 30
0
 11
1483.486715871479
 21
166.1218277244934
 31
0
  0
LINE
  8
1
 62
2
 10
1403.489409625136
 20
166.7783285462083
 30
0
 11
1418.488904546325
 21
166.6552346421363
 31
0
  0
LINE
  8
1
 62
2
 10
1458.446526368139
 20
161.3271525908822
 30
0
 11
1463.446358008535
 21
161.2861212895255
 31
0
  0
LINE
  8
1
 62
2
 10
1423.447704885365
 20
161.6143717003829
 30
0
 11
1428.447536525761
 21
161.5733403990257
 31
0
  0
LINE
  8
1
 62
2
 10
1463.364968844235
 20
25
 30
0
 11
1463.364968844235
 21
0
 31
0
  0
LINE
  8
1
 62
2
 10
1423.364968844235
 20
25
 30
0
 11
1423.364968844235
 21
0
 31
0
  0
LINE
  8
1
 62
2
 10
1428.364968844235
 20
55
 30
0
 11
1428.364968844235
 21
25
 31
0
  0
LINE
  8
1
 62
2
 10
1458.364968844235
 20
55
 30
0
 11
1458.364968844235
 21
25
 31
0
  0
LINE
  8
1
 62
2
 10
1453.364968844235
 20
85
 30
0
 11
1458.364968844235
 21
55
 31
0
  0
LINE
  8
1
 62
2
 10
1433.364968844235
 20
85
 30
0
 11
1428.364968844235
 21
55
 31
0
  0
LINE
  8
1
 62
2
 10
1448.364968844235
 20
151.4095505311548
 30
0
 11
1448.364968844235
 21
85
 31
0
  0
LINE
  8
1
 62
2
 10
1438.364968844235
 20
151.4916158971678
 30
0
 11
1438.364968844235
 21
85
 31
0
  0
LINE
  8
1
 62
2
 10
1483.527747172835
 20
171.1216593648896
 30
0
 11
1483.486715871479
 21
166.1218277244934
 31
0
  0
LINE
  8
1
 62
2
 10
1463.52842061125
 20
171.2857845703184
 30
0
 11
1483.527747172835
 21
171.1216593648896
 31
0
  0
LINE
  8
1
 62
2
 10
1463.446358008535
 20
161.2861212895255
 30
0
 11
1463.52842061125
 21
171.2857845703184
 31
0
  0
LINE
  8
1
 62
2
 10
1468.405158347575
 20
156.2452583477721
 30
0
 11
1468.487220950289
 21
166.2449216285645
 31
0
  0
LINE
  8
1
 62
2
 10
1458.405495066782
 20
156.3273209504864
 30
0
 11
1458.446526368139
 21
161.3271525908822
 31
0
  0
LINE
  8
1
 62
2
 10
1463.364295405821
 20
151.2864580087326
 30
0
 11
1463.405326707179
 21
156.2862896491292
 31
0
  0
LINE
  8
1
 62
2
 10
1428.447536525761
 20
161.5733403990257
 30
0
 11
1428.406505224404
 21
156.5735087586295
 31
0
  0
LINE
  8
1
 62
2
 10
1423.52976748808
 20
171.6140349811753
 30
0
 11
1423.447704885365
 21
161.6143717003829
 31
0
  0
LINE
  8
1
 62
2
 10
1403.530440926494
 20
171.7781601866041
 30
0
 11
1423.52976748808
 21
171.6140349811753
 31
0
  0
LINE
  8
1
 62
2
 10
1403.530440926494
 20
171.7781601866041
 30
0
 11
1403.489409625136
 21
166.7783285462083
 31
0
  0
LINE
  8
1
 62
2
 10
1418.406841943612
 20
156.6555713613439
 30
0
 11
1418.488904546325
 21
166.6552346421363
 31
0
  0
LINE
  8
1
 62
2
 10
1423.36564228265
 20
151.61470841959
 30
0
 11
1423.406673584007
 21
156.6145400599867
 31
0
  0
ENDBLK
  8
0
  0
BLOCK
  8
0
  2
WANNE_MALAGA_470
 70
0
 10
721.2312694930497
 20
399.9999999999991
 30
0
  0
LINE
  8
MITTELLINIEN
 62
3
  6
DASHDOT
 10
1261.233472626035
 20
570
 30
0
 11
1131.565498626022
 21
570
 31
0
  0
LINE
  8
MITTELLINIEN
 62
3
  6
DASHDOT
 10
1197.243517626036
 20
633.9899549999991
 30
0
 11
1197.243517626036
 21
504.3219809999989
 31
0
  0
LINE
  8
1
 62
7
 10
1114.594761424788
 20
190
 30
0
 11
1208.208836612878
 21
190
 31
0
  0
LINE
  8
1
 62
7
 10
1142.427431654364
 20
170
 30
0
 11
1194.427431654364
 21
170
 31
0
  0
LINE
  8
1
 62
7
 10
1194.427431654364
 20
170
 30
0
 11
1213.427431654364
 21
190
 31
0
  0
LINE
  8
1
 62
3
  6
DASHDOT
 10
1168.427431654364
 20
215
 30
0
 11
1168.427431654364
 21
145
 31
0
  0
LINE
  8
1
 62
7
 10
1123.091418600612
 20
190.3536979513174
 30
0
 11
1142.427431654364
 21
170
 31
0
  0
LINE
  8
1
 62
7
 10
0
 20
640
 30
0
 11
0
 21
605.000110290662
 31
0
  0
LINE
  8
1
 62
7
 10
2002.740540716187
 20
640
 30
0
 11
2002.740540716187
 21
604.9999159999991
 31
0
  0
LINE
  8
1
 62
7
 10
2002.740540716187
 20
640
 30
0
 11
0
 21
640
 31
0
  0
LINE
  8
1
 62
7
 10
0
 20
605.000110290662
 30
0
 11
2002.740540716187
 21
604.9999159999991
 31
0
  0
LINE
  8
1
 62
7
 10
525.143915795547
 20
430
 30
0
 11
1538.481306795547
 21
430
 31
0
  0
LINE
  8
1
 62
7
 10
197.873179664702
 20
605.0000910945109
 30
0
 11
491.1245421677413
 21
236.0321206706303
 31
0
  0
LINE
  8
1
 62
7
 10
1765.136091040629
 20
273.4369994883596
 30
0
 11
1794.144089302364
 21
604.999936236442
 31
0
  0
LINE
  8
1
 62
7
 10
1687.181897954073
 20
200.4284137528271
 30
0
 11
1208.208836612878
 21
190
 31
0
  0
LINE
  8
1
 62
7
 10
1255.945491654364
 20
174.8878220000001
 30
0
 11
1502.899846844235
 21
172.9662779999999
 31
0
  0
LINE
  8
1
 62
7
 10
1502.899846844235
 20
172.9662779999999
 30
0
 11
1523.181014927893
 21
196.857713849085
 31
0
  0
LINE
  8
1
 62
7
 10
1255.945491654364
 20
174.8878220000001
 30
0
 11
1242.396370824336
 21
190.7443461453713
 31
0
  0
LINE
  8
1
 62
7
 10
551.5034001620077
 20
205.8400739187682
 30
0
 11
1114.594761424788
 21
190
 31
0
  0
LINE
  8
1
 62
7
 10
1074.504560654364
 20
177.104652
 30
0
 11
1086.130981224206
 21
190.8007020057521
 31
0
  0
LINE
  8
1
 62
7
 10
640.3609890981227
 20
182.9568090000007
 30
0
 11
622.5145426414206
 21
203.8424908917305
 31
0
  0
LINE
  8
1
 62
7
 10
640.3609890981227
 20
182.9568090000007
 30
0
 11
1074.504560654364
 21
177.104652
 31
0
  0
CIRCLE
  8
WANNE
 62
7
 10
1197.243517626031
 20
570
 30
0
 40
26
  0
ARC
  8
1
 62
7
 10
1685.440515194352
 20
280.4094589203173
 30
0
 40
79.99999999999977
 50
271.2472720423029
 51
354.9999999912686
  0
ARC
  8
1
 62
7
 10
553.7529548703374
 20
285.8084395617789
 30
0
 40
80.00000000000009
 50
218.4772604544065
 51
268.3886627221842
  0
INSERT
  8
0
  2
WANNENF_SSE
 10
806.2312694930497
 20
0
 30
0
  0
ENDBLK
  8
0
  0
ENDSEC
  0
SECTION
  2
ENTITIES
  0
TEXT
  8
1
 62
2
 10
1492.950540716187
 20
240.0000000000005
 30
0
 40
35
  1
MALAGA 470
 41
0.5993999999999999
 72
2
 11
1702.740540716187
 21
240.0000000000005
 31
0
  0
TEXT
  8
1
 62
3
 10
1063.327517626036
 20
485
 30
0
 40
35
  1
Ö 52
 41
0.5993999999999999
 72
2
 73
3
 11
1147.243517626036
 21
520
 31
0
  0
TEXT
  8
1
 62
3
 10
1126.469431654364
 20
85
 30
0
 40
35
  1
Ö 52
 41
0.5993999999999999
 72
1
 73
3
 11
1168.427431654364
 21
120
 31
0
  0
INSERT
  8
0
  2
DLX
 10
1522.41103756398
 20
315
 30
0
  0
INSERT
  8
0
  2
WANNE_MALAGA_470
 10
721.2312694930497
 20
399.9999999999991
 30
0
  0
ENDSEC
  0
EOF
