  0
SECTION
  2
HEADER
  9
$ACADVER
  1
AC1009
  9
$INSBASE
 10
0
 20
0
  9
$EXTMIN
 10
0
 20
0
  9
$EXTMAX
 10
2002.740540716187
 20
640
  9
$LIMMIN
 10
0
 20
0
  9
$LIMMAX
 10
2002.740540716187
 20
640
  9
$VIEWCTR
 10
10
 20
10
  9
$VIEWSIZE
 40
10
  9
$SNAPMODE
 70
0
  9
$SNAPUNIT
 10
1
 20
1
  9
$SNAPBASE
 10
0
 20
0
  9
$SNAPANG
 50
0
  9
$SNAPSTYLE
 70
0
  9
$SNAPISOPAIR
 70
0
  9
$GRIDMODE
 70
0
  9
$GRIDUNIT
 10
0
 20
0
  9
$ORTHOMODE
 70
0
  9
$REGENMODE
 70
1
  9
$FILLMODE
 70
1
  9
$QTEXTMODE
 70
0
  9
$DRAGMODE
 70
2
  9
$LTSCALE
 40
1
  9
$OSMODE
 70
0
  9
$ATTMODE
 70
1
  9
$TEXTSIZE
 40
3.5
  9
$TRACEWID
 40
0.5
  9
$TEXTSTYLE
  7
STANDARD
  9
$CLAYER
  8
0
  9
$CELTYPE
  6
BYLAYER
  9
$CECOLOR
 62
256
  9
$DIMSCALE
 40
1
  9
$DIMASZ
 40
0.18
  9
$DIMEXO
 40
0.0625
  9
$DIMDLI
 40
0.38
  9
$DIMRND
 40
0
  9
$DIMDLE
 40
0
  9
$DIMEXE
 40
0.18
  9
$DIMTP
 40
0
  9
$DIMTM
 40
0
  9
$DIMTXT
 40
0.18
  9
$DIMCEN
 40
0.09
  9
$DIMTSZ
 40
0
  9
$DIMTOL
 70
0
  9
$DIMLIM
 70
0
  9
$DIMTIH
 70
1
  9
$DIMTOH
 70
1
  9
$DIMSE1
 70
0
  9
$DIMSE2
 70
0
  9
$DIMTAD
 70
0
  9
$DIMZIN
 70
0
  9
$DIMBLK
  1

  9
$DIMASO
 70
1
  9
$DIMSHO
 70
1
  9
$DIMPOST
  1

  9
$DIMAPOST
  1

  9
$DIMALT
 70
0
  9
$DIMALTD
 70
2
  9
$DIMALTF
 40
25.4
  9
$DIMLFAC
 40
1
  9
$DIMTOFL
 70
0
  9
$DIMTVP
 40
0
  9
$DIMTIX
 70
0
  9
$DIMSOXD
 70
0
  9
$DIMSAH
 70
0
  9
$DIMBLK1
  1

  9
$DIMBLK2
  1

  9
$DIMSTYLE
  2
*UNNAMED
  9
$DIMCLRD
 70
0
  9
$DIMCLRE
 70
0
  9
$DIMCLRT
 70
0
  9
$DIMTFAC
 40
1
  9
$DIMGAP
 40
0.09
  9
$LUNITS
 70
2
  9
$LUPREC
 70
4
  9
$AXISMODE
 70
0
  9
$AXISUNIT
 10
0
 20
0
  9
$SKETCHINC
 40
0.1
  9
$FILLETRAD
 40
2
  9
$AUNITS
 70
0
  9
$AUPREC
 70
0
  9
$MENU
  1
ACAD
  9
$ELEVATION
 40
0
  9
$THICKNESS
 40
0
  9
$VIEWDIR
 10
0
 20
0
 30
1
  9
$LIMCHECK
 70
0
  9
$BLIPMODE
 70
1
  9
$CHAMFERA
 40
0
  9
$CHAMFERB
 40
0
  9
$FASTZOOM
 70
1
  9
$SKPOLY
 70
0
  9
$ANGBASE
 50
0
  9
$ANGDIR
 70
0
  9
$PDMODE
 70
0
  9
$PDSIZE
 40
0
  9
$PLINEWID
 40
0
  9
$COORDS
 70
2
  0
ENDSEC
  0
SECTION
  2
TABLES
  0
TABLE
  2
DIMSTYLE
 70
0
  0
ENDTAB
  0
TABLE
  2
LTYPE
 70
9
  0
LTYPE
  2
CONTINUOUS
 70
64
  3
Solid line
 72
65
 73
0
 40
0
  0
LTYPE
  2
BORDER
 70
64
  3
__ __ . __ __ .
 72
65
 73
6
 40
92.23147226982441
 49
26.35184921994983
 49
-13.17592460997492
 49
26.35184921994983
 49
-13.17592460997492
 49
0
 49
-13.17592460997492
  0
LTYPE
  2
CENTER
 70
64
  3
____ _ ____ _
 72
65
 73
4
 40
105.4073968797993
 49
65.87962304987458
 49
-13.17592460997492
 49
13.17592460997492
 49
-13.17592460997492
  0
LTYPE
  2
DASHDOT
 70
64
  3
__ . __ . __ .
 72
65
 73
4
 40
52.70369843989966
 49
26.35184921994983
 49
-13.17592460997492
 49
0
 49
-13.17592460997492
  0
LTYPE
  2
DASHED
 70
64
  3
__ __ __ __ __
 72
65
 73
2
 40
39.52777382992475
 49
26.35184921994983
 49
-13.17592460997492
  0
LTYPE
  2
DIVIDE
 70
64
  3
__ . . __ . . 
 72
65
 73
6
 40
65.87962304987458
 49
26.35184921994983
 49
-13.17592460997492
 49
0
 49
-13.17592460997492
 49
0
 49
-13.17592460997492
  0
LTYPE
  2
DOT
 70
64
  3
..............
 72
65
 73
4
 40
26.35184921994983
 49
0
 49
-13.17592460997492
 49
0
 49
-13.17592460997492
  0
LTYPE
  2
HIDDEN
 70
64
  3
_ _ _ _ _ _ _
 72
65
 73
2
 40
19.76388691496237
 49
13.17592460997492
 49
-6.587962304987458
  0
LTYPE
  2
PHANTOM
 70
64
  3
_____ _ _ _____ _ _ 
 72
65
 73
6
 40
131.7592460997492
 49
65.87962304987458
 49
-13.17592460997492
 49
13.17592460997492
 49
-13.17592460997492
 49
13.17592460997492
 49
-13.17592460997492
  0
ENDTAB
  0
TABLE
  2
LAYER
 70
5
  0
LAYER
  2
MITTELLINIEN
 70
0
 62
7
  6
CONTINUOUS
  0
LAYER
  2
1
 70
0
 62
7
  6
CONTINUOUS
  0
LAYER
  2
WANNE
 70
0
 62
7
  6
CONTINUOUS
  0
LAYER
  2
0
 70
0
 62
7
  6
CONTINUOUS
  0
ENDTAB
  0
TABLE
  2
STYLE
 70
4
  0
STYLE
  2
STANDARD
 70
0
 40
0
 41
1
 50
0
 71
0
 42
3.5
  3
txt
  4

  0
STYLE
  2
SIMPLEX
 70
0
 40
0
 41
1
 50
0
 71
0
 42
3.5
  3
simplex
  4

  0
STYLE
  2
COMPLEX
 70
0
 40
0
 41
1
 50
0
 71
0
 42
3.5
  3
complex
  4

  0
STYLE
  2
ITALIC
 70
0
 40
0
 41
1
 50
0
 71
0
 42
3.5
  3
italic
  4

  0
ENDTAB
  0
TABLE
  2
VIEW
 70
0
  0
ENDTAB
  0
ENDSEC
  0
SECTION
  2
BLOCKS
  0
BLOCK
  8
0
  2
DLX
 70
0
 10
300
 20
315
 30
0
  0
LINE
  8
1
 62
3
 10
471.206636135699
 20
368.505992531278
 30
0
 11
471.206636135699
 21
366.050334541276
 31
0
  0
LINE
  8
1
 62
3
 10
473.062609127785
 20
368.505992531278
 30
0
 11
471.206636135699
 21
368.505992531278
 31
0
  0
LINE
  8
1
 62
3
 10
471.206636135699
 20
366.050334541276
 30
0
 11
473.194119363641
 21
366.050334541276
 31
0
  0
LINE
  8
1
 62
3
 10
471.206636135699
 20
362.4510557882821
 30
0
 11
470.3341884365839
 21
362.4510557882821
 31
0
  0
LINE
  8
1
 62
3
 10
472.931697837317
 20
365.2001112138419
 30
0
 11
471.206636135699
 21
365.2001112138419
 31
0
  0
LINE
  8
1
 62
3
 10
473.9449125772369
 20
362.4510557882821
 30
0
 11
473.9449125772369
 21
364.0729110559
 31
0
  0
LINE
  8
1
 62
3
 10
474.9060993927419
 20
362.4510557882821
 30
0
 11
473.9449125772369
 21
362.4510557882821
 31
0
  0
LINE
  8
1
 62
3
 10
474.9060993927419
 20
364.3306895546259
 30
0
 11
474.9060993927419
 21
362.4510557882821
 31
0
  0
LINE
  8
1
 62
3
 10
472.7761082958239
 20
369.3095239634562
 30
0
 11
473.0724648781759
 21
369.3095239634562
 31
0
  0
LINE
  8
1
 62
3
 10
470.3341884365839
 20
369.3095239634562
 30
0
 11
472.7761082958239
 21
369.3095239634562
 31
0
  0
LINE
  8
1
 62
3
 10
470.3341884365839
 20
362.4510557882821
 30
0
 11
470.3341884365839
 21
369.3095239634562
 31
0
  0
LINE
  8
1
 62
3
 10
471.206636135699
 20
365.2001112138419
 30
0
 11
471.206636135699
 21
362.4510557882821
 31
0
  0
LINE
  8
1
 62
3
 10
426.68540084903
 20
371.3845084783201
 30
0
 11
424.591323771416
 21
371.3845084783201
 31
0
  0
LINE
  8
1
 62
3
 10
423.9754657010669
 20
360.3239024177931
 30
0
 11
426.68540084903
 21
371.3845084783201
 31
0
  0
LINE
  8
1
 62
3
 10
434.445851089087
 20
360.3239024177931
 30
0
 11
423.9754657010669
 21
360.3239024177931
 31
0
  0
LINE
  8
1
 62
3
 10
433.9038640594258
 20
358.1117812056621
 30
0
 11
434.445851089087
 21
360.3239024177931
 31
0
  0
LINE
  8
1
 62
3
 10
421.339401593847
 20
358.1117812056621
 30
0
 11
433.9038640594258
 21
358.1117812056621
 31
0
  0
LINE
  8
1
 62
3
 10
424.591323771416
 20
371.3845084783201
 30
0
 11
421.339401593847
 21
358.1117812056621
 31
0
  0
LINE
  8
1
 62
3
 10
411.144653716558
 20
362.5360236298441
 30
0
 11
414.9003688559239
 21
369.172387266269
 31
0
  0
LINE
  8
1
 62
3
 10
415.9571720012139
 20
369.172387266269
 30
0
 11
414.9003688559239
 21
369.172387266269
 31
0
  0
LINE
  8
1
 62
3
 10
416.4609649630688
 20
362.5360236298441
 30
0
 11
415.9571720012139
 21
369.172387266269
 31
0
  0
LINE
  8
1
 62
3
 10
411.144653716558
 20
362.5360236298441
 30
0
 11
416.4609649630688
 21
362.5360236298441
 31
0
  0
LINE
  8
1
 62
3
 10
408.6408436236638
 20
358.1117812056621
 30
0
 11
406.2620466350929
 21
358.1117812056621
 31
0
  0
LINE
  8
1
 62
3
 10
409.892748670027
 20
360.3239024177931
 30
0
 11
408.6408436236638
 21
358.1117812056621
 31
0
  0
LINE
  8
1
 62
3
 10
416.6288959503909
 20
360.3239024177931
 30
0
 11
409.892748670027
 21
360.3239024177931
 31
0
  0
LINE
  8
1
 62
3
 10
416.7968269376579
 20
358.1117812056621
 30
0
 11
416.6288959503909
 21
360.3239024177931
 31
0
  0
LINE
  8
1
 62
3
 10
418.826509100727
 20
358.1117812056621
 30
0
 11
416.7968269376579
 21
358.1117812056621
 31
0
  0
LINE
  8
1
 62
3
 10
417.818923176965
 20
371.3845084783201
 30
0
 11
418.826509100727
 21
358.1117812056621
 31
0
  0
LINE
  8
1
 62
3
 10
413.77347691399
 20
371.3845084783201
 30
0
 11
417.818923176965
 21
371.3845084783201
 31
0
  0
LINE
  8
1
 62
3
 10
406.2620466350929
 20
358.1117812056621
 30
0
 11
413.77347691399
 21
371.3845084783201
 31
0
  0
LINE
  8
1
 62
3
 10
393.2787687540589
 20
358.1117812056621
 30
0
 11
391.1846916764989
 21
358.1117812056621
 31
0
  0
LINE
  8
1
 62
3
 10
396.0847710509879
 20
369.5644855385979
 30
0
 11
393.2787687540589
 21
358.1117812056621
 31
0
  0
LINE
  8
1
 62
3
 10
396.7253193174979
 20
367.9053946295351
 30
0
 11
396.0847710509879
 21
369.5644855385979
 31
0
  0
LINE
  8
1
 62
3
 10
400.5064756532079
 20
358.1117812056621
 30
0
 11
396.7253193174979
 21
367.9053946295351
 31
0
  0
LINE
  8
1
 62
3
 10
403.7491541419769
 20
358.1117812056621
 30
0
 11
400.5064756532079
 21
358.1117812056621
 31
0
  0
LINE
  8
1
 62
3
 10
407.0010763195969
 20
371.3845084783201
 30
0
 11
403.7491541419769
 21
358.1117812056621
 31
0
  0
LINE
  8
1
 62
3
 10
404.9069992419829
 20
371.3845084783201
 30
0
 11
407.0010763195969
 21
371.3845084783201
 31
0
  0
LINE
  8
1
 62
3
 10
402.0615673366299
 20
359.770872114746
 30
0
 11
404.9069992419829
 21
371.3845084783201
 31
0
  0
LINE
  8
1
 62
3
 10
397.5777294703548
 20
371.3845084783201
 30
0
 11
402.0615673366299
 21
359.770872114746
 31
0
  0
LINE
  8
1
 62
3
 10
394.4366138540139
 20
371.3845084783201
 30
0
 11
397.5777294703548
 21
371.3845084783201
 31
0
  0
LINE
  8
1
 62
3
 10
391.1846916764989
 20
358.1117812056621
 30
0
 11
394.4366138540139
 21
371.3845084783201
 31
0
  0
LINE
  8
1
 62
3
 10
391.9237213608981
 20
371.3845084783201
 30
0
 11
389.8296442833339
 21
371.3845084783201
 31
0
  0
LINE
  8
1
 62
3
 10
389.8296442833339
 20
371.3845084783201
 30
0
 11
386.5777221057689
 21
358.1117812056621
 31
0
  0
LINE
  8
1
 62
3
 10
388.671799183329
 20
358.1117812056621
 30
0
 11
391.9237213608981
 21
371.3845084783201
 31
0
  0
LINE
  8
1
 62
3
 10
386.5777221057689
 20
358.1117812056621
 30
0
 11
388.671799183329
 21
358.1117812056621
 31
0
  0
LINE
  8
1
 62
3
 10
384.0845019505218
 20
366.739053932891
 30
0
 11
386.1785790280479
 21
366.739053932891
 31
0
  0
LINE
  8
1
 62
3
 10
383.0547265943719
 20
362.5360236298441
 30
0
 11
382.5127395646049
 21
360.3239024177931
 31
0
  0
LINE
  8
1
 62
3
 10
378.8665724389718
 20
362.5360236298441
 30
0
 11
383.0547265943719
 21
362.5360236298441
 31
0
  0
LINE
  8
1
 62
3
 10
379.4085594686189
 20
364.7481448420331
 30
0
 11
378.8665724389718
 21
362.5360236298441
 31
0
  0
LINE
  8
1
 62
3
 10
385.6907907014249
 20
364.7481448420331
 30
0
 11
384.0648296126528
 21
358.1117812056621
 31
0
  0
LINE
  8
1
 62
3
 10
385.6907907014249
 20
364.7481448420331
 30
0
 11
379.4085594686189
 21
364.7481448420331
 31
0
  0
LINE
  8
1
 62
3
 10
374.1364312542755
 20
360.3239024177931
 30
0
 11
376.3043793726031
 21
369.172387266269
 31
0
  0
LINE
  8
1
 62
3
 10
376.3043793726031
 20
369.172387266269
 30
0
 11
384.6806876828998
 21
369.172387266269
 31
0
  0
LINE
  8
1
 62
3
 10
384.6806876828998
 20
369.172387266269
 30
0
 11
384.0845019505218
 21
366.739053932891
 31
0
  0
LINE
  8
1
 62
3
 10
382.5127395646049
 20
360.3239024177931
 30
0
 11
374.1364312542755
 21
360.3239024177931
 31
0
  0
LINE
  8
1
 62
3
 10
384.0648296126528
 20
358.1117812056621
 30
0
 11
371.5003671470404
 21
358.1117812056621
 31
0
  0
LINE
  8
1
 62
3
 10
387.316751790175
 20
371.3845084783201
 30
0
 11
386.1785790280479
 21
366.739053932891
 31
0
  0
LINE
  8
1
 62
3
 10
374.7522893245841
 20
371.3845084783201
 30
0
 11
387.316751790175
 21
371.3845084783201
 31
0
  0
LINE
  8
1
 62
3
 10
371.5003671470404
 20
358.1117812056621
 30
0
 11
374.7522893245841
 21
371.3845084783201
 31
0
  0
LINE
  8
1
 62
3
 10
368.9874746540554
 20
358.1117812056621
 30
0
 11
372.2393968314646
 21
371.3845084783201
 31
0
  0
LINE
  8
1
 62
3
 10
366.8933975763357
 20
358.1117812056621
 30
0
 11
368.9874746540554
 21
358.1117812056621
 31
0
  0
LINE
  8
1
 62
3
 10
370.1453197539013
 20
371.3845084783201
 30
0
 11
366.8933975763357
 21
358.1117812056621
 31
0
  0
LINE
  8
1
 62
3
 10
372.2393968314646
 20
371.3845084783201
 30
0
 11
370.1453197539013
 21
371.3845084783201
 31
0
  0
LINE
  8
1
 62
3
 10
353.9101196952979
 20
358.1117812056621
 30
0
 11
354.9940937544088
 21
362.5360236298441
 31
0
  0
LINE
  8
1
 62
3
 10
351.8160426176219
 20
358.1117812056621
 30
0
 11
353.9101196952979
 21
358.1117812056621
 31
0
  0
LINE
  8
1
 62
3
 10
365.3282234693179
 20
361.979895810782
 30
0
 11
364.3805050832052
 21
358.1117812056621
 31
0
  0
LINE
  8
1
 62
3
 10
356.6200548431843
 20
369.172387266269
 30
0
 11
355.5360807840007
 21
364.7481448420331
 31
0
  0
LINE
  8
1
 62
3
 10
364.996363153703
 20
369.172387266269
 30
0
 11
356.6200548431843
 21
369.172387266269
 31
0
  0
LINE
  8
1
 62
3
 10
363.9123890943812
 20
364.7481448420331
 30
0
 11
364.996363153703
 21
369.172387266269
 31
0
  0
LINE
  8
1
 62
3
 10
355.5360807840007
 20
364.7481448420331
 30
0
 11
363.9123890943812
 21
364.7481448420331
 31
0
  0
LINE
  8
1
 62
3
 10
363.3704020649384
 20
362.5360236298441
 30
0
 11
354.9940937544088
 21
362.5360236298441
 31
0
  0
LINE
  8
1
 62
3
 10
362.2864280055655
 20
358.1117812056621
 30
0
 11
363.3704020649384
 21
362.5360236298441
 31
0
  0
LINE
  8
1
 62
3
 10
364.3805050832052
 20
358.1117812056621
 30
0
 11
362.2864280055655
 21
358.1117812056621
 31
0
  0
LINE
  8
1
 62
3
 10
367.632427260738
 20
371.3845084783201
 30
0
 11
365.7649031508845
 21
363.7622048583319
 31
0
  0
LINE
  8
1
 62
3
 10
355.0679647951583
 20
371.3845084783201
 30
0
 11
367.632427260738
 21
371.3845084783201
 31
0
  0
LINE
  8
1
 62
3
 10
355.0679647951583
 20
371.3845084783201
 30
0
 11
351.8160426176219
 21
358.1117812056621
 31
0
  0
LINE
  8
1
 62
3
 10
339.3747517661324
 20
360.3239024177931
 30
0
 11
341.5426998844741
 21
369.172387266269
 31
0
  0
LINE
  8
1
 62
3
 10
341.5426998844741
 20
369.172387266269
 30
0
 11
349.9190081949637
 21
369.172387266269
 31
0
  0
LINE
  8
1
 62
3
 10
349.9190081949637
 20
369.172387266269
 30
0
 11
347.7510600764872
 21
360.3239024177931
 31
0
  0
LINE
  8
1
 62
3
 10
347.7510600764872
 20
360.3239024177931
 30
0
 11
339.3747517661324
 21
360.3239024177931
 31
0
  0
LINE
  8
1
 62
3
 10
349.3031501244914
 20
358.1117812056621
 30
0
 11
336.7386876589662
 21
358.1117812056621
 31
0
  0
LINE
  8
1
 62
3
 10
352.5550723021661
 20
371.3845084783201
 30
0
 11
349.3031501244914
 21
358.1117812056621
 31
0
  0
LINE
  8
1
 62
3
 10
339.9906098364481
 20
371.3845084783201
 30
0
 11
352.5550723021661
 21
371.3845084783201
 31
0
  0
LINE
  8
1
 62
3
 10
336.7386876589662
 20
358.1117812056621
 30
0
 11
339.9906098364481
 21
371.3845084783201
 31
0
  0
LINE
  8
1
 62
3
 10
480.3295031522068
 20
315
 30
0
 11
427.738701733397
 21
315
 31
0
  0
LINE
  8
1
 62
3
 10
477.928830785688
 20
321.1939393939099
 30
0
 11
435.1196812335149
 21
321.1939393939099
 31
0
  0
LINE
  8
1
 62
3
 10
477.928830785688
 20
321.1939393939099
 30
0
 11
480.3295031522068
 21
315
 31
0
  0
LINE
  8
1
 62
3
 10
470.686830708906
 20
339.878917066824
 30
0
 11
467.9069775849489
 21
347.051175145079
 31
0
  0
LINE
  8
1
 62
3
 10
476.284056889192
 20
347.051175145079
 30
0
 11
470.686830708906
 21
339.878917066824
 31
0
  0
LINE
  8
1
 62
3
 10
480.32950315225
 20
347.051175145079
 30
0
 11
476.284056889192
 21
347.051175145079
 31
0
  0
LINE
  8
1
 62
3
 10
472.0292731071679
 20
336.415301218603
 30
0
 11
480.32950315225
 21
347.051175145079
 31
0
  0
LINE
  8
1
 62
3
 10
476.8999712001719
 20
323.848484848477
 30
0
 11
472.0292731071679
 21
336.415301218603
 31
0
  0
LINE
  8
1
 62
3
 10
472.8545249371239
 20
323.848484848477
 30
0
 11
476.8999712001719
 21
323.848484848477
 31
0
  0
LINE
  8
1
 62
3
 10
469.3262692424398
 20
332.951685370502
 30
0
 11
472.8545249371239
 21
323.848484848477
 31
0
  0
LINE
  8
1
 62
3
 10
462.222136662338
 20
323.848484848477
 30
0
 11
469.3262692424398
 21
332.951685370502
 31
0
  0
LINE
  8
1
 62
3
 10
458.1766903993409
 20
323.848484848477
 30
0
 11
462.222136662338
 21
323.848484848477
 31
0
  0
LINE
  8
1
 62
3
 10
467.9838268441308
 20
336.4153012186609
 30
0
 11
458.1766903993409
 21
323.848484848477
 31
0
  0
LINE
  8
1
 62
3
 10
463.8615313219339
 20
347.051175145079
 30
0
 11
467.9838268441308
 21
336.4153012186609
 31
0
  0
LINE
  8
1
 62
3
 10
467.9069775849489
 20
347.051175145079
 30
0
 11
463.8615313219339
 21
347.051175145079
 31
0
  0
LINE
  8
1
 62
3
 10
450.878253440889
 20
347.051175145079
 30
0
 11
445.643060746967
 21
347.051175145079
 31
0
  0
LINE
  8
1
 62
3
 10
446.277386577538
 20
328.2727272727971
 30
0
 11
450.878253440889
 21
347.051175145079
 31
0
  0
LINE
  8
1
 62
3
 10
451.5125792714898
 20
328.2727272727971
 30
0
 11
446.277386577538
 21
328.2727272727971
 31
0
  0
LINE
  8
1
 62
3
 10
456.113446134885
 20
347.051175145079
 30
0
 11
451.5125792714898
 21
328.2727272727971
 31
0
  0
LINE
  8
1
 62
3
 10
461.3486388288079
 20
347.051175145079
 30
0
 11
456.113446134885
 21
347.051175145079
 31
0
  0
LINE
  8
1
 62
3
 10
455.6637979062
 20
323.848484848477
 30
0
 11
461.3486388288079
 21
347.051175145079
 31
0
  0
LINE
  8
1
 62
3
 10
439.958219824279
 20
323.848484848477
 30
0
 11
455.6637979062
 21
323.848484848477
 31
0
  0
LINE
  8
1
 62
3
 10
445.643060746967
 20
347.051175145079
 30
0
 11
439.958219824279
 21
323.848484848477
 31
0
  0
LINE
  8
1
 62
3
 10
438.301425922338
 20
358.1117812056621
 30
0
 11
427.738701733397
 21
315
 31
0
  0
LINE
  8
1
 62
3
 10
444.1648417396059
 20
358.1117812056621
 30
0
 11
438.301425922338
 21
358.1117812056621
 31
0
  0
LINE
  8
1
 62
3
 10
435.1196812335149
 20
321.1939393939099
 30
0
 11
444.1648417396059
 21
358.1117812056621
 31
0
  0
LINE
  8
1
 62
3
 10
300
 20
315
 30
0
 11
307.8527890410551
 21
347.051175145079
 31
0
  0
LINE
  8
1
 62
3
 10
307.8527890410551
 20
347.051175145079
 30
0
 11
314.1350202737523
 21
347.051175145079
 31
0
  0
LINE
  8
1
 62
3
 10
314.1350202737523
 20
347.051175145079
 30
0
 11
307.3662052920627
 21
319.424242424182
 31
0
  0
LINE
  8
1
 62
3
 10
307.3662052920627
 20
319.424242424182
 30
0
 11
312.6013979859416
 21
319.424242424182
 31
0
  0
LINE
  8
1
 62
3
 10
312.6013979859416
 20
319.424242424182
 30
0
 11
320.7251805418237
 21
352.581478175405
 31
0
  0
LINE
  8
1
 62
3
 10
320.7251805418237
 20
352.581478175405
 30
0
 11
303.0340846972904
 21
352.581478175405
 31
0
  0
LINE
  8
1
 62
3
 10
303.0340846972904
 20
352.581478175405
 30
0
 11
304.3890522712754
 21
358.1117812056621
 31
0
  0
LINE
  8
1
 62
3
 10
304.3890522712754
 20
358.1117812056621
 30
0
 11
328.3623793485675
 21
358.1117812056621
 31
0
  0
LINE
  8
1
 62
3
 10
328.3623793485675
 20
358.1117812056621
 30
0
 11
317.799655159648
 21
315
 31
0
  0
LINE
  8
1
 62
3
 10
317.799655159648
 20
315
 30
0
 11
300
 21
315
 31
0
  0
LINE
  8
1
 62
3
 10
321.9878093147745
 20
315
 30
0
 11
329.8405983557677
 21
347.051175145079
 31
0
  0
LINE
  8
1
 62
3
 10
329.8405983557677
 20
347.051175145079
 30
0
 11
336.1228295885776
 21
347.051175145079
 31
0
  0
LINE
  8
1
 62
3
 10
336.1228295885776
 20
347.051175145079
 30
0
 11
329.3540146067826
 21
319.424242424182
 31
0
  0
LINE
  8
1
 62
3
 10
329.3540146067826
 20
319.424242424182
 30
0
 11
334.5892073007672
 21
319.424242424182
 31
0
  0
LINE
  8
1
 62
3
 10
334.5892073007672
 20
319.424242424182
 30
0
 11
341.3580222825731
 21
347.051175145079
 31
0
  0
LINE
  8
1
 62
3
 10
339.7874644743642
 20
315
 30
0
 11
321.9878093147745
 21
315
 31
0
  0
LINE
  8
1
 62
3
 10
341.3580222825731
 20
347.051175145079
 30
0
 11
347.6402535153793
 21
347.051175145079
 31
0
  0
LINE
  8
1
 62
3
 10
347.6402535153793
 20
347.051175145079
 30
0
 11
339.7874644743642
 21
315
 31
0
  0
LINE
  8
1
 62
3
 10
368.581024291314
 20
347.051175145079
 30
0
 11
351.8284076705422
 21
347.051175145079
 31
0
  0
LINE
  8
1
 62
3
 10
351.8284076705422
 20
347.051175145079
 30
0
 11
347.2275408071509
 21
328.2727272727971
 31
0
  0
LINE
  8
1
 62
3
 10
347.2275408071509
 20
328.2727272727971
 30
0
 11
357.6979261951165
 21
328.2727272727971
 31
0
  0
LINE
  8
1
 62
3
 10
357.6979261951165
 20
328.2727272727971
 30
0
 11
355.5299780766982
 21
319.424242424182
 31
0
  0
LINE
  8
1
 62
3
 10
355.5299780766982
 20
319.424242424182
 30
0
 11
345.0595926887872
 21
319.424242424182
 31
0
  0
LINE
  8
1
 62
3
 10
345.0595926887872
 20
319.424242424182
 30
0
 11
343.97561862948
 21
315
 31
0
  0
LINE
  8
1
 62
3
 10
343.97561862948
 20
315
 30
0
 11
360.7282352503025
 21
315
 31
0
  0
LINE
  8
1
 62
3
 10
360.7282352503025
 20
315
 30
0
 11
365.0641314872264
 21
332.696969696953
 31
0
  0
LINE
  8
1
 62
3
 10
365.0641314872264
 20
332.696969696953
 30
0
 11
354.5937460991627
 21
332.696969696953
 31
0
  0
LINE
  8
1
 62
3
 10
354.5937460991627
 20
332.696969696953
 30
0
 11
357.0266648441757
 21
342.626932720839
 31
0
  0
LINE
  8
1
 62
3
 10
357.0266648441757
 20
342.626932720839
 30
0
 11
367.4970502321557
 21
342.626932720839
 31
0
  0
LINE
  8
1
 62
3
 10
367.4970502321557
 20
342.626932720839
 30
0
 11
368.581024291314
 21
347.051175145079
 31
0
  0
LINE
  8
1
 62
3
 10
386.8118599193219
 20
335.990569084413
 30
0
 11
389.5217950672519
 21
347.051175145079
 31
0
  0
LINE
  8
1
 62
3
 10
389.5217950672519
 20
347.051175145079
 30
0
 11
372.7691784465314
 21
347.051175145079
 31
0
  0
LINE
  8
1
 62
3
 10
372.7691784465314
 20
347.051175145079
 30
0
 11
364.9163894055382
 21
315
 31
0
  0
LINE
  8
1
 62
3
 10
364.9163894055382
 20
315
 30
0
 11
381.669006026292
 21
315
 31
0
  0
LINE
  8
1
 62
3
 10
381.669006026292
 20
315
 30
0
 11
384.378941174266
 21
326.0606060606082
 31
0
  0
LINE
  8
1
 62
3
 10
384.378941174266
 20
326.0606060606082
 30
0
 11
378.0967099414779
 21
326.0606060606082
 31
0
  0
LINE
  8
1
 62
3
 10
378.0967099414779
 20
326.0606060606082
 30
0
 11
376.4707488526909
 21
319.424242424182
 31
0
  0
LINE
  8
1
 62
3
 10
376.4707488526909
 20
319.424242424182
 30
0
 11
372.2825946974881
 21
319.424242424182
 31
0
  0
LINE
  8
1
 62
3
 10
372.2825946974881
 20
319.424242424182
 30
0
 11
377.9674356201178
 21
342.626932720839
 31
0
  0
LINE
  8
1
 62
3
 10
377.9674356201178
 20
342.626932720839
 30
0
 11
382.1555897753099
 21
342.626932720839
 31
0
  0
LINE
  8
1
 62
3
 10
382.1555897753099
 20
342.626932720839
 30
0
 11
380.5296286865159
 21
335.990569084413
 31
0
  0
LINE
  8
1
 62
3
 10
380.5296286865159
 20
335.990569084413
 30
0
 11
386.8118599193219
 21
335.990569084413
 31
0
  0
LINE
  8
1
 62
3
 10
385.8571601814729
 20
315
 30
0
 11
392.1393914142609
 21
315
 31
0
  0
LINE
  8
1
 62
3
 10
402.6097768023359
 20
315
 30
0
 11
410.4625658433508
 21
347.051175145079
 31
0
  0
LINE
  8
1
 62
3
 10
396.3275455694388
 20
315
 30
0
 11
399.7119530603338
 21
328.813466360341
 31
0
  0
LINE
  8
1
 62
3
 10
392.1393914142609
 20
315
 30
0
 11
395.5237989051459
 21
328.813466360341
 31
0
  0
LINE
  8
1
 62
3
 10
393.7099492224659
 20
347.051175145079
 30
0
 11
385.8571601814729
 21
315
 31
0
  0
LINE
  8
1
 62
3
 10
410.4625658433508
 20
347.051175145079
 30
0
 11
404.1803346104349
 21
347.051175145079
 31
0
  0
LINE
  8
1
 62
3
 10
406.7979309574619
 20
315
 30
0
 11
423.55054757827
 21
315
 31
0
  0
LINE
  8
1
 62
3
 10
418.3522904045678
 20
319.424242424182
 30
0
 11
414.164136249467
 21
319.424242424182
 31
0
  0
LINE
  8
1
 62
3
 10
414.650719998459
 20
347.051175145079
 30
0
 11
406.7979309574619
 21
315
 31
0
  0
LINE
  8
1
 62
3
 10
414.164136249467
 20
319.424242424182
 30
0
 11
419.8489771720419
 21
342.626932720839
 31
0
  0
LINE
  8
1
 62
3
 10
431.4033366192889
 20
347.051175145079
 30
0
 11
414.650719998459
 21
347.051175145079
 31
0
  0
LINE
  8
1
 62
3
 10
419.8489771720419
 20
342.626932720839
 30
0
 11
424.037131327292
 21
342.626932720839
 31
0
  0
LINE
  8
1
 62
3
 10
424.037131327292
 20
342.626932720839
 30
0
 11
418.3522904045678
 21
319.424242424182
 31
0
  0
LINE
  8
1
 62
3
 10
431.4033366192889
 20
347.051175145079
 30
0
 11
423.55054757827
 21
315
 31
0
  0
LINE
  8
1
 62
3
 10
399.992180455331
 20
347.051175145079
 30
0
 11
393.7099492224659
 21
347.051175145079
 31
0
  0
LINE
  8
1
 62
3
 10
396.3275455694388
 20
315
 30
0
 11
402.6097768023359
 21
315
 31
0
  0
LINE
  8
1
 62
3
 10
395.5237989051459
 20
328.813466360341
 30
0
 11
399.7119530603338
 21
328.813466360341
 31
0
  0
LINE
  8
1
 62
3
 10
396.6077729643149
 20
333.2377087845272
 30
0
 11
400.7959271195539
 21
333.2377087845272
 31
0
  0
LINE
  8
1
 62
3
 10
396.6077729643149
 20
333.2377087845272
 30
0
 11
399.992180455331
 21
347.051175145079
 31
0
  0
LINE
  8
1
 62
3
 10
400.7959271195539
 20
333.2377087845272
 30
0
 11
404.1803346104349
 21
347.051175145079
 31
0
  0
LINE
  8
1
 62
3
 10
365.7649031508845
 20
363.7622048583319
 30
0
 11
365.0328203819372
 21
362.9784478723631
 31
0
  0
LINE
  8
1
 62
3
 10
365.3282234693179
 20
361.979895810782
 30
0
 11
365.0328203819372
 21
362.9784478723631
 31
0
  0
ARC
  8
1
 62
3
 10
473.514586791596
 20
364.3622336822259
 30
0
 40
1.39187009132817
 50
358.7013873342734
 51
66.54486649404674
  0
ARC
  8
1
 62
3
 10
472.789193605106
 20
364.0530393898221
 30
0
 40
1.155889798231653
 50
0.9850581704823435
 51
82.91825463292925
  0
ARC
  8
1
 62
3
 10
472.8643762433019
 20
367.264025930551
 30
0
 40
1.257687287767188
 50
285.1995809529435
 51
80.93139523878851
  0
ARC
  8
1
 62
3
 10
472.9426940693159
 20
367.3039199213811
 30
0
 40
2.00979800886177
 50
304.0700115354233
 51
86.29788871826034
  0
CIRCLE
  8
1
 62
3
 10
472.7358752379369
 20
365.878787878755
 30
0
 40
5.530127989695984
  0
CIRCLE
  8
1
 62
3
 10
472.7358752379369
 20
365.878787878755
 30
0
 40
5.972862778753957
  0
ENDBLK
  8
0
  0
BLOCK
  8
0
  2
WANNENF_SSE
 70
0
 10
1196.509271223138
 20
0
 30
0
  0
LINE
  8
1
 62
2
 10
1258.718968618065
 20
25
 30
0
 11
1298.718968618065
 21
25
 31
0
  0
LINE
  8
1
 62
2
 10
1263.718968618065
 20
55
 30
0
 11
1293.718968618065
 21
55
 31
0
  0
LINE
  8
1
 62
2
 10
1268.718968618065
 20
85
 30
0
 11
1288.718968618065
 21
85
 31
0
  0
LINE
  8
1
 62
2
 10
1259.257049441821
 20
159.3005433165854
 30
0
 11
1299.243663948991
 21
160.3352704569261
 31
0
  0
LINE
  8
1
 62
2
 10
1299.114323056449
 20
165.3335972703226
 30
0
 11
1304.112649869845
 21
165.4629381628652
 31
0
  0
LINE
  8
1
 62
2
 10
1264.126035362675
 20
164.4282110225245
 30
0
 11
1294.115996243052
 21
165.20425637778
 31
0
  0
LINE
  8
1
 62
2
 10
1254.129381735883
 20
164.1695292374393
 30
0
 11
1259.127708549278
 21
164.2988701299819
 31
0
  0
LINE
  8
1
 62
2
 10
1303.85396808476
 20
175.4595917896577
 30
0
 11
1318.848948524949
 21
175.8476144672854
 31
0
  0
LINE
  8
1
 62
2
 10
1238.875719510608
 20
173.7781601866041
 30
0
 11
1253.870699950797
 21
174.1661828642318
 31
0
  0
LINE
  8
1
 62
2
 10
1293.98665535051
 20
170.202583191176
 30
0
 11
1298.984982163906
 21
170.3319240837186
 31
0
  0
LINE
  8
1
 62
2
 10
1258.998367656736
 20
169.2971969433779
 30
0
 11
1263.996694470132
 21
169.4265378359205
 31
0
  0
LINE
  8
1
 62
2
 10
1298.718968618065
 20
25
 30
0
 11
1298.718968618065
 21
0
 31
0
  0
LINE
  8
1
 62
2
 10
1258.718968618065
 20
25
 30
0
 11
1258.718968618065
 21
0
 31
0
  0
LINE
  8
1
 62
2
 10
1263.718968618065
 20
55
 30
0
 11
1263.718968618065
 21
25
 31
0
  0
LINE
  8
1
 62
2
 10
1293.718968618065
 20
55
 30
0
 11
1293.718968618065
 21
25
 31
0
  0
LINE
  8
1
 62
2
 10
1288.718968618065
 20
85
 30
0
 11
1293.718968618065
 21
55
 31
0
  0
LINE
  8
1
 62
2
 10
1268.718968618065
 20
85
 30
0
 11
1263.718968618065
 21
55
 31
0
  0
LINE
  8
1
 62
2
 10
1283.718968618065
 20
159.9335404329563
 30
0
 11
1283.718968618065
 21
85
 31
0
  0
LINE
  8
1
 62
2
 10
1273.718968618065
 20
159.6747720543144
 30
0
 11
1273.718968618065
 21
85
 31
0
  0
LINE
  8
1
 62
2
 10
1318.719607632406
 20
180.8459412806815
 30
0
 11
1318.848948524949
 21
175.8476144672854
 31
0
  0
LINE
  8
1
 62
2
 10
1298.726300378821
 20
180.3285777105111
 30
0
 11
1318.719607632406
 21
180.8459412806815
 31
0
  0
LINE
  8
1
 62
2
 10
1298.984982163906
 20
170.3319240837186
 30
0
 11
1298.726300378821
 21
180.3285777105111
 31
0
  0
LINE
  8
1
 62
2
 10
1304.112649869845
 20
165.4629381628652
 30
0
 11
1303.85396808476
 21
175.4595917896577
 31
0
  0
LINE
  8
1
 62
2
 10
1294.115996243052
 20
165.20425637778
 30
0
 11
1293.98665535051
 21
170.202583191176
 31
0
  0
LINE
  8
1
 62
2
 10
1299.243663948991
 20
160.3352704569261
 30
0
 11
1299.114323056449
 21
165.3335972703226
 31
0
  0
LINE
  8
1
 62
2
 10
1263.996694470132
 20
169.4265378359205
 30
0
 11
1264.126035362675
 21
164.4282110225245
 31
0
  0
LINE
  8
1
 62
2
 10
1258.739685871652
 20
179.2938505701704
 30
0
 11
1258.998367656736
 21
169.2971969433779
 31
0
  0
LINE
  8
1
 62
2
 10
1238.746378618066
 20
178.7764870000001
 30
0
 11
1258.739685871652
 21
179.2938505701704
 31
0
  0
LINE
  8
1
 62
2
 10
1238.746378618066
 20
178.7764870000001
 30
0
 11
1238.875719510608
 21
173.7781601866041
 31
0
  0
LINE
  8
1
 62
2
 10
1254.129381735883
 20
164.1695292374393
 30
0
 11
1253.870699950797
 21
174.1661828642318
 31
0
  0
LINE
  8
1
 62
2
 10
1259.257049441821
 20
159.3005433165854
 30
0
 11
1259.127708549278
 21
164.2988701299819
 31
0
  0
LINE
  8
1
 62
2
 10
539.3755718719517
 20
25
 30
0
 11
579.3755718719517
 21
25
 31
0
  0
LINE
  8
1
 62
2
 10
544.3755718719517
 20
55
 30
0
 11
574.3755718719517
 21
55
 31
0
  0
LINE
  8
1
 62
2
 10
549.3755718719517
 20
85
 30
0
 11
569.3755718719517
 21
85
 31
0
  0
LINE
  8
1
 62
2
 10
539.3762453103666
 20
151.2864580087326
 30
0
 11
579.3748984335377
 21
151.61470841959
 31
0
  0
LINE
  8
1
 62
2
 10
534.3353823686127
 20
156.2452583477721
 30
0
 11
539.3352140090087
 21
156.2862896491292
 31
0
  0
LINE
  8
1
 62
2
 10
544.3350456494056
 20
156.3273209504864
 30
0
 11
574.3340354917837
 21
156.5735087586295
 31
0
  0
LINE
  8
1
 62
2
 10
579.3338671321806
 20
156.6145400599867
 30
0
 11
584.3336987725756
 21
156.6555713613439
 31
0
  0
LINE
  8
1
 62
2
 10
519.2538248447086
 20
166.1218277244934
 30
0
 11
534.2533197658977
 21
166.2449216285645
 31
0
  0
LINE
  8
1
 62
2
 10
584.2516361698617
 20
166.6552346421363
 30
0
 11
599.2511310910516
 21
166.7783285462083
 31
0
  0
LINE
  8
1
 62
2
 10
539.2941827076515
 20
161.2861212895255
 30
0
 11
544.2940143480475
 21
161.3271525908822
 31
0
  0
LINE
  8
1
 62
2
 10
574.2930041904267
 20
161.5733403990257
 30
0
 11
579.2928358308227
 21
161.6143717003829
 31
0
  0
LINE
  8
1
 62
2
 10
539.3755718719517
 20
0
 30
0
 11
539.3755718719517
 21
25
 31
0
  0
LINE
  8
1
 62
2
 10
579.3755718719517
 20
0
 30
0
 11
579.3755718719517
 21
25
 31
0
  0
LINE
  8
1
 62
2
 10
574.3755718719517
 20
25
 30
0
 11
574.3755718719517
 21
55
 31
0
  0
LINE
  8
1
 62
2
 10
544.3755718719517
 20
25
 30
0
 11
544.3755718719517
 21
55
 31
0
  0
LINE
  8
1
 62
2
 10
544.3755718719517
 20
55
 30
0
 11
549.3755718719517
 21
85
 31
0
  0
LINE
  8
1
 62
2
 10
574.3755718719517
 20
55
 30
0
 11
569.3755718719517
 21
85
 31
0
  0
LINE
  8
1
 62
2
 10
554.3755718719517
 20
85
 30
0
 11
554.3755718719517
 21
151.4095505311548
 31
0
  0
LINE
  8
1
 62
2
 10
564.3755718719517
 20
85
 30
0
 11
564.3755718719517
 21
151.4916158971678
 31
0
  0
LINE
  8
1
 62
2
 10
519.2538248447086
 20
166.1218277244934
 30
0
 11
519.2127935433516
 21
171.1216593648896
 31
0
  0
LINE
  8
1
 62
2
 10
519.2127935433516
 20
171.1216593648896
 30
0
 11
539.2121201049376
 21
171.2857845703184
 31
0
  0
LINE
  8
1
 62
2
 10
539.2121201049376
 20
171.2857845703184
 30
0
 11
539.2941827076515
 21
161.2861212895255
 31
0
  0
LINE
  8
1
 62
2
 10
534.2533197658977
 20
166.2449216285645
 30
0
 11
534.3353823686127
 21
156.2452583477721
 31
0
  0
LINE
  8
1
 62
2
 10
544.2940143480475
 20
161.3271525908822
 30
0
 11
544.3350456494056
 21
156.3273209504864
 31
0
  0
LINE
  8
1
 62
2
 10
539.3352140090087
 20
156.2862896491292
 30
0
 11
539.3762453103666
 21
151.2864580087326
 31
0
  0
LINE
  8
1
 62
2
 10
574.3340354917837
 20
156.5735087586295
 30
0
 11
574.2930041904267
 21
161.5733403990257
 31
0
  0
LINE
  8
1
 62
2
 10
579.2928358308227
 20
161.6143717003829
 30
0
 11
579.2107732281077
 21
171.6140349811753
 31
0
  0
LINE
  8
1
 62
2
 10
579.2107732281077
 20
171.6140349811753
 30
0
 11
599.2100997896937
 21
171.7781601866041
 31
0
  0
LINE
  8
1
 62
2
 10
599.2511310910516
 20
166.7783285462083
 30
0
 11
599.2100997896937
 21
171.7781601866041
 31
0
  0
LINE
  8
1
 62
2
 10
584.2516361698617
 20
166.6552346421363
 30
0
 11
584.3336987725756
 21
156.6555713613439
 31
0
  0
LINE
  8
1
 62
2
 10
579.3338671321806
 20
156.6145400599867
 30
0
 11
579.3748984335377
 21
151.61470841959
 31
0
  0
ENDBLK
  8
0
  0
BLOCK
  8
0
  2
WANNE_MALAGA_471
 70
0
 10
1281.509271223138
 20
399.9999999999991
 30
0
  0
LINE
  8
MITTELLINIEN
 62
3
  6
DASHDOT
 10
871.1750420901656
 20
570
 30
0
 11
741.5070680901517
 21
570
 31
0
  0
LINE
  8
MITTELLINIEN
 62
3
  6
DASHDOT
 10
805.4970230901506
 20
504.3219809999989
 30
0
 11
805.4970230901506
 21
633.9899549999991
 31
0
  0
LINE
  8
1
 62
7
 10
794.5317041033097
 20
190
 30
0
 11
888.1457792913996
 21
190
 31
0
  0
LINE
  8
1
 62
7
 10
808.3131090618226
 20
170
 30
0
 11
860.3131090618226
 21
170
 31
0
  0
LINE
  8
1
 62
7
 10
789.3131090618226
 20
190
 30
0
 11
808.3131090618226
 21
170
 31
0
  0
LINE
  8
1
 62
3
  6
DASHDOT
 10
834.3131090618226
 20
145
 30
0
 11
834.3131090618226
 21
215
 31
0
  0
LINE
  8
1
 62
7
 10
860.3131090618226
 20
170
 30
0
 11
879.6491221155748
 21
190.3536979513174
 31
0
  0
LINE
  8
1
 62
7
 10
2002.740540716187
 20
605.000110290662
 30
0
 11
2002.740540716187
 21
640
 31
0
  0
LINE
  8
1
 62
7
 10
1.70530256582424e-013
 20
604.9999159999991
 30
0
 11
0
 21
640
 31
0
  0
LINE
  8
1
 62
7
 10
2002.740540716187
 20
640
 30
0
 11
0
 21
640
 31
0
  0
LINE
  8
1
 62
7
 10
1.70530256582424e-013
 20
604.9999159999991
 30
0
 11
2002.740540716187
 21
605.000110290662
 31
0
  0
LINE
  8
1
 62
7
 10
464.2592339206398
 20
430
 30
0
 11
1477.59662492064
 21
430
 31
0
  0
LINE
  8
1
 62
7
 10
1511.615998548446
 20
236.0321206706303
 30
0
 11
1804.867361051485
 21
605.0000910945109
 31
0
  0
LINE
  8
1
 62
7
 10
208.5964514138233
 20
604.999936236442
 30
0
 11
237.6044496755578
 21
273.4369994883596
 31
0
  0
LINE
  8
1
 62
7
 10
794.5317041033097
 20
190
 30
0
 11
315.5586427621144
 21
200.4284137528271
 31
0
  0
LINE
  8
1
 62
7
 10
499.8406938719519
 20
172.9662779999999
 30
0
 11
746.7950490618227
 21
174.8878220000001
 31
0
  0
LINE
  8
1
 62
7
 10
479.5595257882944
 20
196.857713849085
 30
0
 11
499.8406938719519
 21
172.9662779999999
 31
0
  0
LINE
  8
1
 62
7
 10
760.3441698918507
 20
190.7443461453713
 30
0
 11
746.7950490618227
 21
174.8878220000001
 31
0
  0
LINE
  8
1
 62
7
 10
888.1457792913996
 20
190
 30
0
 11
1451.23714055418
 21
205.8400739187682
 31
0
  0
LINE
  8
1
 62
7
 10
916.6095594919816
 20
190.8007020057521
 30
0
 11
928.2359800618226
 21
177.104652
 31
0
  0
LINE
  8
1
 62
7
 10
1380.225998074767
 20
203.8424908917305
 30
0
 11
1362.379551618065
 21
182.9568090000007
 31
0
  0
LINE
  8
1
 62
7
 10
928.2359800618226
 20
177.104652
 30
0
 11
1362.379551618065
 21
182.9568090000007
 31
0
  0
CIRCLE
  8
WANNE
 62
7
 10
805.4970230901556
 20
570
 30
0
 40
26
  0
ARC
  8
1
 62
7
 10
317.300025521835
 20
280.4094589203173
 30
0
 40
80.0000000000001
 50
185.0000000087315
 51
268.7527279576975
  0
ARC
  8
1
 62
7
 10
1448.98758584585
 20
285.8084395617789
 30
0
 40
80.00000000000017
 50
271.6113372778161
 51
321.5227395455935
  0
INSERT
  8
0
  2
WANNENF_SSE
 10
1196.509271223138
 20
0
 30
0
  0
ENDBLK
  8
0
  0
ENDSEC
  0
SECTION
  2
ENTITIES
  0
TEXT
  8
1
 62
2
 10
300
 20
240
 30
0
 40
35
  1
MALAGA 471
 41
0.5993999999999999
  0
TEXT
  8
1
 62
3
 10
855.4970230901506
 20
485
 30
0
 40
35
  1
Ö 52
 41
0.5993999999999999
 73
3
 11
855.4970230901506
 21
520
 31
0
  0
TEXT
  8
1
 62
3
 10
792.3551090618227
 20
85.0000000000003
 30
0
 40
35
  1
Ö 52
 41
0.5993999999999999
 72
1
 73
3
 11
834.3131090618226
 21
120.0000000000003
 31
0
  0
INSERT
  8
0
  2
DLX
 10
300
 20
315
 30
0
  0
INSERT
  8
0
  2
WANNE_MALAGA_471
 10
1281.509271223138
 20
399.9999999999991
 30
0
  0
ENDSEC
  0
EOF
