  0
SECTION
  2
HEADER
  9
$ACADVER
  1
AC1009
  9
$INSBASE
 10
0
 20
0
  9
$EXTMIN
 10
0
 20
-2.819433575496078e-011
  9
$EXTMAX
 10
1699.99999999999
 20
900
  9
$LIMMIN
 10
0
 20
-2.819433575496078e-011
  9
$LIMMAX
 10
1699.99999999999
 20
900
  9
$VIEWCTR
 10
10
 20
10
  9
$VIEWSIZE
 40
10
  9
$SNAPMODE
 70
0
  9
$SNAPUNIT
 10
1
 20
1
  9
$SNAPBASE
 10
0
 20
0
  9
$SNAPANG
 50
0
  9
$SNAPSTYLE
 70
0
  9
$SNAPISOPAIR
 70
0
  9
$GRIDMODE
 70
0
  9
$GRIDUNIT
 10
0
 20
0
  9
$ORTHOMODE
 70
0
  9
$REGENMODE
 70
1
  9
$FILLMODE
 70
1
  9
$QTEXTMODE
 70
0
  9
$DRAGMODE
 70
2
  9
$LTSCALE
 40
1
  9
$OSMODE
 70
0
  9
$ATTMODE
 70
1
  9
$TEXTSIZE
 40
3.5
  9
$TRACEWID
 40
0.5
  9
$TEXTSTYLE
  7
STANDARD
  9
$CLAYER
  8
0
  9
$CELTYPE
  6
BYLAYER
  9
$CECOLOR
 62
256
  9
$DIMSCALE
 40
1
  9
$DIMASZ
 40
0.18
  9
$DIMEXO
 40
0.0625
  9
$DIMDLI
 40
0.38
  9
$DIMRND
 40
0
  9
$DIMDLE
 40
0
  9
$DIMEXE
 40
0.18
  9
$DIMTP
 40
0
  9
$DIMTM
 40
0
  9
$DIMTXT
 40
0.18
  9
$DIMCEN
 40
0.09
  9
$DIMTSZ
 40
0
  9
$DIMTOL
 70
0
  9
$DIMLIM
 70
0
  9
$DIMTIH
 70
1
  9
$DIMTOH
 70
1
  9
$DIMSE1
 70
0
  9
$DIMSE2
 70
0
  9
$DIMTAD
 70
0
  9
$DIMZIN
 70
0
  9
$DIMBLK
  1

  9
$DIMASO
 70
1
  9
$DIMSHO
 70
1
  9
$DIMPOST
  1

  9
$DIMAPOST
  1

  9
$DIMALT
 70
0
  9
$DIMALTD
 70
2
  9
$DIMALTF
 40
25.4
  9
$DIMLFAC
 40
1
  9
$DIMTOFL
 70
0
  9
$DIMTVP
 40
0
  9
$DIMTIX
 70
0
  9
$DIMSOXD
 70
0
  9
$DIMSAH
 70
0
  9
$DIMBLK1
  1

  9
$DIMBLK2
  1

  9
$DIMSTYLE
  2
*UNNAMED
  9
$DIMCLRD
 70
0
  9
$DIMCLRE
 70
0
  9
$DIMCLRT
 70
0
  9
$DIMTFAC
 40
1
  9
$DIMGAP
 40
0.09
  9
$LUNITS
 70
2
  9
$LUPREC
 70
4
  9
$AXISMODE
 70
0
  9
$AXISUNIT
 10
0
 20
0
  9
$SKETCHINC
 40
0.1
  9
$FILLETRAD
 40
2
  9
$AUNITS
 70
0
  9
$AUPREC
 70
0
  9
$MENU
  1
ACAD
  9
$ELEVATION
 40
0
  9
$THICKNESS
 40
0
  9
$VIEWDIR
 10
0
 20
0
 30
1
  9
$LIMCHECK
 70
0
  9
$BLIPMODE
 70
1
  9
$CHAMFERA
 40
0
  9
$CHAMFERB
 40
0
  9
$FASTZOOM
 70
1
  9
$SKPOLY
 70
0
  9
$ANGBASE
 50
0
  9
$ANGDIR
 70
0
  9
$PDMODE
 70
0
  9
$PDSIZE
 40
0
  9
$PLINEWID
 40
0
  9
$COORDS
 70
2
  0
ENDSEC
  0
SECTION
  2
TABLES
  0
TABLE
  2
DIMSTYLE
 70
0
  0
ENDTAB
  0
TABLE
  2
LTYPE
 70
9
  0
LTYPE
  2
CONTINUOUS
 70
64
  3
Solid line
 72
65
 73
0
 40
0
  0
LTYPE
  2
BORDER
 70
64
  3
__ __ . __ __ .
 72
65
 73
6
 40
78.28947368421007
 49
22.36842105263145
 49
-11.18421052631572
 49
22.36842105263145
 49
-11.18421052631572
 49
0
 49
-11.18421052631572
  0
LTYPE
  2
CENTER
 70
64
  3
____ _ ____ _
 72
65
 73
4
 40
89.47368421052579
 49
55.92105263157862
 49
-11.18421052631572
 49
11.18421052631572
 49
-11.18421052631572
  0
LTYPE
  2
DASHDOT
 70
64
  3
__ . __ . __ .
 72
65
 73
4
 40
44.7368421052629
 49
22.36842105263145
 49
-11.18421052631572
 49
0
 49
-11.18421052631572
  0
LTYPE
  2
DASHED
 70
64
  3
__ __ __ __ __
 72
65
 73
2
 40
33.55263157894717
 49
22.36842105263145
 49
-11.18421052631572
  0
LTYPE
  2
DIVIDE
 70
64
  3
__ . . __ . . 
 72
65
 73
6
 40
55.92105263157862
 49
22.36842105263145
 49
-11.18421052631572
 49
0
 49
-11.18421052631572
 49
0
 49
-11.18421052631572
  0
LTYPE
  2
DOT
 70
64
  3
..............
 72
65
 73
4
 40
22.36842105263145
 49
0
 49
-11.18421052631572
 49
0
 49
-11.18421052631572
  0
LTYPE
  2
HIDDEN
 70
64
  3
_ _ _ _ _ _ _
 72
65
 73
2
 40
16.77631578947359
 49
11.18421052631572
 49
-5.592105263157862
  0
LTYPE
  2
PHANTOM
 70
64
  3
_____ _ _ _____ _ _ 
 72
65
 73
6
 40
111.8421052631572
 49
55.92105263157862
 49
-11.18421052631572
 49
11.18421052631572
 49
-11.18421052631572
 49
11.18421052631572
 49
-11.18421052631572
  0
ENDTAB
  0
TABLE
  2
LAYER
 70
5
  0
LAYER
  2
MITTELLINIEN
 70
0
 62
7
  6
CONTINUOUS
  0
LAYER
  2
1
 70
0
 62
7
  6
CONTINUOUS
  0
LAYER
  2
WANNE
 70
0
 62
7
  6
CONTINUOUS
  0
LAYER
  2
0
 70
0
 62
7
  6
CONTINUOUS
  0
ENDTAB
  0
TABLE
  2
STYLE
 70
4
  0
STYLE
  2
STANDARD
 70
0
 40
0
 41
1
 50
0
 71
0
 42
3.5
  3
txt
  4

  0
STYLE
  2
SIMPLEX
 70
0
 40
0
 41
1
 50
0
 71
0
 42
3.5
  3
simplex
  4

  0
STYLE
  2
COMPLEX
 70
0
 40
0
 41
1
 50
0
 71
0
 42
3.5
  3
complex
  4

  0
STYLE
  2
ITALIC
 70
0
 40
0
 41
1
 50
0
 71
0
 42
3.5
  3
italic
  4

  0
ENDTAB
  0
TABLE
  2
VIEW
 70
0
  0
ENDTAB
  0
ENDSEC
  0
SECTION
  2
BLOCKS
  0
BLOCK
  8
0
  2
DLX
 70
0
 10
500
 20
500
 30
0
  0
LINE
  8
1
 62
3
 10
565.3282234693179
 20
546.979895810782
 30
0
 11
565.0328203819372
 21
547.978447872363
 31
0
  0
LINE
  8
1
 62
3
 10
565.7649031508845
 20
548.7622048583319
 30
0
 11
565.0328203819372
 21
547.978447872363
 31
0
  0
LINE
  8
1
 62
3
 10
600.7959271195539
 20
518.2377087845271
 30
0
 11
604.1803346104349
 21
532.051175145079
 31
0
  0
LINE
  8
1
 62
3
 10
596.6077729643149
 20
518.2377087845271
 30
0
 11
599.992180455331
 21
532.051175145079
 31
0
  0
LINE
  8
1
 62
3
 10
596.6077729643149
 20
518.2377087845271
 30
0
 11
600.7959271195539
 21
518.2377087845271
 31
0
  0
LINE
  8
1
 62
3
 10
595.5237989051459
 20
513.813466360341
 30
0
 11
599.7119530603338
 21
513.813466360341
 31
0
  0
LINE
  8
1
 62
3
 10
596.3275455694388
 20
500
 30
0
 11
602.6097768023359
 21
500
 31
0
  0
LINE
  8
1
 62
3
 10
599.992180455331
 20
532.051175145079
 30
0
 11
593.7099492224659
 21
532.051175145079
 31
0
  0
LINE
  8
1
 62
3
 10
631.4033366192889
 20
532.051175145079
 30
0
 11
623.55054757827
 21
500
 31
0
  0
LINE
  8
1
 62
3
 10
624.037131327292
 20
527.626932720839
 30
0
 11
618.3522904045678
 21
504.424242424182
 31
0
  0
LINE
  8
1
 62
3
 10
619.8489771720419
 20
527.626932720839
 30
0
 11
624.037131327292
 21
527.626932720839
 31
0
  0
LINE
  8
1
 62
3
 10
631.4033366192889
 20
532.051175145079
 30
0
 11
614.650719998459
 21
532.051175145079
 31
0
  0
LINE
  8
1
 62
3
 10
614.164136249467
 20
504.424242424182
 30
0
 11
619.8489771720419
 21
527.626932720839
 31
0
  0
LINE
  8
1
 62
3
 10
614.650719998459
 20
532.051175145079
 30
0
 11
606.7979309574619
 21
500
 31
0
  0
LINE
  8
1
 62
3
 10
618.3522904045678
 20
504.424242424182
 30
0
 11
614.164136249467
 21
504.424242424182
 31
0
  0
LINE
  8
1
 62
3
 10
606.7979309574619
 20
500
 30
0
 11
623.55054757827
 21
500
 31
0
  0
LINE
  8
1
 62
3
 10
610.4625658433508
 20
532.051175145079
 30
0
 11
604.1803346104349
 21
532.051175145079
 31
0
  0
LINE
  8
1
 62
3
 10
593.7099492224659
 20
532.051175145079
 30
0
 11
585.8571601814729
 21
500
 31
0
  0
LINE
  8
1
 62
3
 10
592.1393914142609
 20
500
 30
0
 11
595.5237989051459
 21
513.813466360341
 31
0
  0
LINE
  8
1
 62
3
 10
596.3275455694388
 20
500
 30
0
 11
599.7119530603338
 21
513.813466360341
 31
0
  0
LINE
  8
1
 62
3
 10
602.6097768023359
 20
500
 30
0
 11
610.4625658433508
 21
532.051175145079
 31
0
  0
LINE
  8
1
 62
3
 10
585.8571601814729
 20
500
 30
0
 11
592.1393914142609
 21
500
 31
0
  0
LINE
  8
1
 62
3
 10
580.5296286865159
 20
520.990569084413
 30
0
 11
586.8118599193219
 21
520.990569084413
 31
0
  0
LINE
  8
1
 62
3
 10
582.1555897753099
 20
527.626932720839
 30
0
 11
580.5296286865159
 21
520.990569084413
 31
0
  0
LINE
  8
1
 62
3
 10
577.9674356201178
 20
527.626932720839
 30
0
 11
582.1555897753099
 21
527.626932720839
 31
0
  0
LINE
  8
1
 62
3
 10
572.2825946974881
 20
504.424242424182
 30
0
 11
577.9674356201178
 21
527.626932720839
 31
0
  0
LINE
  8
1
 62
3
 10
576.4707488526909
 20
504.424242424182
 30
0
 11
572.2825946974881
 21
504.424242424182
 31
0
  0
LINE
  8
1
 62
3
 10
578.0967099414779
 20
511.0606060606081
 30
0
 11
576.4707488526909
 21
504.424242424182
 31
0
  0
LINE
  8
1
 62
3
 10
584.378941174266
 20
511.0606060606081
 30
0
 11
578.0967099414779
 21
511.0606060606081
 31
0
  0
LINE
  8
1
 62
3
 10
581.669006026292
 20
500
 30
0
 11
584.378941174266
 21
511.0606060606081
 31
0
  0
LINE
  8
1
 62
3
 10
564.9163894055382
 20
500
 30
0
 11
581.669006026292
 21
500
 31
0
  0
LINE
  8
1
 62
3
 10
572.7691784465314
 20
532.051175145079
 30
0
 11
564.9163894055382
 21
500
 31
0
  0
LINE
  8
1
 62
3
 10
589.5217950672519
 20
532.051175145079
 30
0
 11
572.7691784465314
 21
532.051175145079
 31
0
  0
LINE
  8
1
 62
3
 10
586.8118599193219
 20
520.990569084413
 30
0
 11
589.5217950672519
 21
532.051175145079
 31
0
  0
LINE
  8
1
 62
3
 10
567.4970502321557
 20
527.626932720839
 30
0
 11
568.581024291314
 21
532.051175145079
 31
0
  0
LINE
  8
1
 62
3
 10
557.0266648441757
 20
527.626932720839
 30
0
 11
567.4970502321557
 21
527.626932720839
 31
0
  0
LINE
  8
1
 62
3
 10
554.5937460991627
 20
517.6969696969529
 30
0
 11
557.0266648441757
 21
527.626932720839
 31
0
  0
LINE
  8
1
 62
3
 10
565.0641314872264
 20
517.6969696969529
 30
0
 11
554.5937460991627
 21
517.6969696969529
 31
0
  0
LINE
  8
1
 62
3
 10
560.7282352503025
 20
500
 30
0
 11
565.0641314872264
 21
517.6969696969529
 31
0
  0
LINE
  8
1
 62
3
 10
543.97561862948
 20
500
 30
0
 11
560.7282352503025
 21
500
 31
0
  0
LINE
  8
1
 62
3
 10
545.0595926887872
 20
504.424242424182
 30
0
 11
543.97561862948
 21
500
 31
0
  0
LINE
  8
1
 62
3
 10
555.5299780766982
 20
504.424242424182
 30
0
 11
545.0595926887872
 21
504.424242424182
 31
0
  0
LINE
  8
1
 62
3
 10
557.6979261951165
 20
513.2727272727971
 30
0
 11
555.5299780766982
 21
504.424242424182
 31
0
  0
LINE
  8
1
 62
3
 10
547.2275408071509
 20
513.2727272727971
 30
0
 11
557.6979261951165
 21
513.2727272727971
 31
0
  0
LINE
  8
1
 62
3
 10
551.8284076705422
 20
532.051175145079
 30
0
 11
547.2275408071509
 21
513.2727272727971
 31
0
  0
LINE
  8
1
 62
3
 10
568.581024291314
 20
532.051175145079
 30
0
 11
551.8284076705422
 21
532.051175145079
 31
0
  0
LINE
  8
1
 62
3
 10
547.6402535153793
 20
532.051175145079
 30
0
 11
539.7874644743642
 21
500
 31
0
  0
LINE
  8
1
 62
3
 10
541.3580222825731
 20
532.051175145079
 30
0
 11
547.6402535153793
 21
532.051175145079
 31
0
  0
LINE
  8
1
 62
3
 10
539.7874644743642
 20
500
 30
0
 11
521.9878093147745
 21
500
 31
0
  0
LINE
  8
1
 62
3
 10
534.5892073007672
 20
504.424242424182
 30
0
 11
541.3580222825731
 21
532.051175145079
 31
0
  0
LINE
  8
1
 62
3
 10
529.3540146067826
 20
504.424242424182
 30
0
 11
534.5892073007672
 21
504.424242424182
 31
0
  0
LINE
  8
1
 62
3
 10
536.1228295885776
 20
532.051175145079
 30
0
 11
529.3540146067826
 21
504.424242424182
 31
0
  0
LINE
  8
1
 62
3
 10
529.8405983557677
 20
532.051175145079
 30
0
 11
536.1228295885776
 21
532.051175145079
 31
0
  0
LINE
  8
1
 62
3
 10
521.9878093147745
 20
500
 30
0
 11
529.8405983557677
 21
532.051175145079
 31
0
  0
LINE
  8
1
 62
3
 10
517.799655159648
 20
500
 30
0
 11
500
 21
500
 31
0
  0
LINE
  8
1
 62
3
 10
528.3623793485675
 20
543.1117812056621
 30
0
 11
517.799655159648
 21
500
 31
0
  0
LINE
  8
1
 62
3
 10
504.3890522712754
 20
543.1117812056621
 30
0
 11
528.3623793485675
 21
543.1117812056621
 31
0
  0
LINE
  8
1
 62
3
 10
503.0340846972904
 20
537.581478175405
 30
0
 11
504.3890522712754
 21
543.1117812056621
 31
0
  0
LINE
  8
1
 62
3
 10
520.7251805418237
 20
537.581478175405
 30
0
 11
503.0340846972904
 21
537.581478175405
 31
0
  0
LINE
  8
1
 62
3
 10
512.6013979859416
 20
504.424242424182
 30
0
 11
520.7251805418237
 21
537.581478175405
 31
0
  0
LINE
  8
1
 62
3
 10
507.3662052920627
 20
504.424242424182
 30
0
 11
512.6013979859416
 21
504.424242424182
 31
0
  0
LINE
  8
1
 62
3
 10
514.1350202737523
 20
532.051175145079
 30
0
 11
507.3662052920627
 21
504.424242424182
 31
0
  0
LINE
  8
1
 62
3
 10
507.8527890410551
 20
532.051175145079
 30
0
 11
514.1350202737523
 21
532.051175145079
 31
0
  0
LINE
  8
1
 62
3
 10
500
 20
500
 30
0
 11
507.8527890410551
 21
532.051175145079
 31
0
  0
LINE
  8
1
 62
3
 10
635.1196812335149
 20
506.1939393939099
 30
0
 11
644.1648417396059
 21
543.1117812056621
 31
0
  0
LINE
  8
1
 62
3
 10
644.1648417396059
 20
543.1117812056621
 30
0
 11
638.301425922338
 21
543.1117812056621
 31
0
  0
LINE
  8
1
 62
3
 10
638.301425922338
 20
543.1117812056621
 30
0
 11
627.738701733397
 21
500
 31
0
  0
LINE
  8
1
 62
3
 10
645.643060746967
 20
532.051175145079
 30
0
 11
639.958219824279
 21
508.848484848477
 31
0
  0
LINE
  8
1
 62
3
 10
639.958219824279
 20
508.848484848477
 30
0
 11
655.6637979062
 21
508.848484848477
 31
0
  0
LINE
  8
1
 62
3
 10
655.6637979062
 20
508.848484848477
 30
0
 11
661.3486388288079
 21
532.051175145079
 31
0
  0
LINE
  8
1
 62
3
 10
661.3486388288079
 20
532.051175145079
 30
0
 11
656.113446134885
 21
532.051175145079
 31
0
  0
LINE
  8
1
 62
3
 10
656.113446134885
 20
532.051175145079
 30
0
 11
651.5125792714898
 21
513.2727272727971
 31
0
  0
LINE
  8
1
 62
3
 10
651.5125792714898
 20
513.2727272727971
 30
0
 11
646.277386577538
 21
513.2727272727971
 31
0
  0
LINE
  8
1
 62
3
 10
646.277386577538
 20
513.2727272727971
 30
0
 11
650.878253440889
 21
532.051175145079
 31
0
  0
LINE
  8
1
 62
3
 10
650.878253440889
 20
532.051175145079
 30
0
 11
645.643060746967
 21
532.051175145079
 31
0
  0
LINE
  8
1
 62
3
 10
667.9069775849489
 20
532.051175145079
 30
0
 11
663.8615313219339
 21
532.051175145079
 31
0
  0
LINE
  8
1
 62
3
 10
663.8615313219339
 20
532.051175145079
 30
0
 11
667.9838268441308
 21
521.4153012186609
 31
0
  0
LINE
  8
1
 62
3
 10
667.9838268441308
 20
521.4153012186609
 30
0
 11
658.1766903993409
 21
508.848484848477
 31
0
  0
LINE
  8
1
 62
3
 10
658.1766903993409
 20
508.848484848477
 30
0
 11
662.222136662338
 21
508.848484848477
 31
0
  0
LINE
  8
1
 62
3
 10
662.222136662338
 20
508.848484848477
 30
0
 11
669.3262692424398
 21
517.951685370502
 31
0
  0
LINE
  8
1
 62
3
 10
669.3262692424398
 20
517.951685370502
 30
0
 11
672.8545249371239
 21
508.848484848477
 31
0
  0
LINE
  8
1
 62
3
 10
672.8545249371239
 20
508.848484848477
 30
0
 11
676.8999712001719
 21
508.848484848477
 31
0
  0
LINE
  8
1
 62
3
 10
676.8999712001719
 20
508.848484848477
 30
0
 11
672.0292731071679
 21
521.415301218603
 31
0
  0
LINE
  8
1
 62
3
 10
672.0292731071679
 20
521.415301218603
 30
0
 11
680.32950315225
 21
532.051175145079
 31
0
  0
LINE
  8
1
 62
3
 10
680.32950315225
 20
532.051175145079
 30
0
 11
676.284056889192
 21
532.051175145079
 31
0
  0
LINE
  8
1
 62
3
 10
676.284056889192
 20
532.051175145079
 30
0
 11
670.686830708906
 21
524.878917066824
 31
0
  0
LINE
  8
1
 62
3
 10
670.686830708906
 20
524.878917066824
 30
0
 11
667.9069775849489
 21
532.051175145079
 31
0
  0
LINE
  8
1
 62
3
 10
677.928830785688
 20
506.1939393939099
 30
0
 11
680.3295031522068
 21
500
 31
0
  0
LINE
  8
1
 62
3
 10
677.928830785688
 20
506.1939393939099
 30
0
 11
635.1196812335149
 21
506.1939393939099
 31
0
  0
LINE
  8
1
 62
3
 10
680.3295031522068
 20
500
 30
0
 11
627.738701733397
 21
500
 31
0
  0
LINE
  8
1
 62
3
 10
536.7386876589662
 20
543.1117812056621
 30
0
 11
539.9906098364481
 21
556.38450847832
 31
0
  0
LINE
  8
1
 62
3
 10
539.9906098364481
 20
556.38450847832
 30
0
 11
552.5550723021661
 21
556.38450847832
 31
0
  0
LINE
  8
1
 62
3
 10
552.5550723021661
 20
556.38450847832
 30
0
 11
549.3031501244914
 21
543.1117812056621
 31
0
  0
LINE
  8
1
 62
3
 10
549.3031501244914
 20
543.1117812056621
 30
0
 11
536.7386876589662
 21
543.1117812056621
 31
0
  0
LINE
  8
1
 62
3
 10
547.7510600764872
 20
545.3239024177931
 30
0
 11
539.3747517661324
 21
545.3239024177931
 31
0
  0
LINE
  8
1
 62
3
 10
549.9190081949637
 20
554.172387266269
 30
0
 11
547.7510600764872
 21
545.3239024177931
 31
0
  0
LINE
  8
1
 62
3
 10
541.5426998844741
 20
554.172387266269
 30
0
 11
549.9190081949637
 21
554.172387266269
 31
0
  0
LINE
  8
1
 62
3
 10
539.3747517661324
 20
545.3239024177931
 30
0
 11
541.5426998844741
 21
554.172387266269
 31
0
  0
LINE
  8
1
 62
3
 10
555.0679647951583
 20
556.38450847832
 30
0
 11
551.8160426176219
 21
543.1117812056621
 31
0
  0
LINE
  8
1
 62
3
 10
555.0679647951583
 20
556.38450847832
 30
0
 11
567.632427260738
 21
556.38450847832
 31
0
  0
LINE
  8
1
 62
3
 10
567.632427260738
 20
556.38450847832
 30
0
 11
565.7649031508845
 21
548.7622048583319
 31
0
  0
LINE
  8
1
 62
3
 10
564.3805050832052
 20
543.1117812056621
 30
0
 11
562.2864280055655
 21
543.1117812056621
 31
0
  0
LINE
  8
1
 62
3
 10
562.2864280055655
 20
543.1117812056621
 30
0
 11
563.3704020649384
 21
547.5360236298441
 31
0
  0
LINE
  8
1
 62
3
 10
563.3704020649384
 20
547.5360236298441
 30
0
 11
554.9940937544088
 21
547.5360236298441
 31
0
  0
LINE
  8
1
 62
3
 10
555.5360807840007
 20
549.7481448420331
 30
0
 11
563.9123890943812
 21
549.7481448420331
 31
0
  0
LINE
  8
1
 62
3
 10
563.9123890943812
 20
549.7481448420331
 30
0
 11
564.996363153703
 21
554.172387266269
 31
0
  0
LINE
  8
1
 62
3
 10
564.996363153703
 20
554.172387266269
 30
0
 11
556.6200548431843
 21
554.172387266269
 31
0
  0
LINE
  8
1
 62
3
 10
556.6200548431843
 20
554.172387266269
 30
0
 11
555.5360807840007
 21
549.7481448420331
 31
0
  0
LINE
  8
1
 62
3
 10
565.3282234693179
 20
546.979895810782
 30
0
 11
564.3805050832052
 21
543.1117812056621
 31
0
  0
LINE
  8
1
 62
3
 10
551.8160426176219
 20
543.1117812056621
 30
0
 11
553.9101196952979
 21
543.1117812056621
 31
0
  0
LINE
  8
1
 62
3
 10
553.9101196952979
 20
543.1117812056621
 30
0
 11
554.9940937544088
 21
547.5360236298441
 31
0
  0
LINE
  8
1
 62
3
 10
572.2393968314646
 20
556.38450847832
 30
0
 11
570.1453197539013
 21
556.38450847832
 31
0
  0
LINE
  8
1
 62
3
 10
570.1453197539013
 20
556.38450847832
 30
0
 11
566.8933975763357
 21
543.1117812056621
 31
0
  0
LINE
  8
1
 62
3
 10
566.8933975763357
 20
543.1117812056621
 30
0
 11
568.9874746540554
 21
543.1117812056621
 31
0
  0
LINE
  8
1
 62
3
 10
568.9874746540554
 20
543.1117812056621
 30
0
 11
572.2393968314646
 21
556.38450847832
 31
0
  0
LINE
  8
1
 62
3
 10
571.5003671470404
 20
543.1117812056621
 30
0
 11
574.7522893245841
 21
556.38450847832
 31
0
  0
LINE
  8
1
 62
3
 10
574.7522893245841
 20
556.38450847832
 30
0
 11
587.316751790175
 21
556.38450847832
 31
0
  0
LINE
  8
1
 62
3
 10
587.316751790175
 20
556.38450847832
 30
0
 11
586.1785790280479
 21
551.739053932891
 31
0
  0
LINE
  8
1
 62
3
 10
584.0648296126528
 20
543.1117812056621
 30
0
 11
571.5003671470404
 21
543.1117812056621
 31
0
  0
LINE
  8
1
 62
3
 10
582.5127395646049
 20
545.3239024177931
 30
0
 11
574.1364312542755
 21
545.3239024177931
 31
0
  0
LINE
  8
1
 62
3
 10
584.6806876828998
 20
554.172387266269
 30
0
 11
584.0845019505218
 21
551.739053932891
 31
0
  0
LINE
  8
1
 62
3
 10
576.3043793726031
 20
554.172387266269
 30
0
 11
584.6806876828998
 21
554.172387266269
 31
0
  0
LINE
  8
1
 62
3
 10
574.1364312542755
 20
545.3239024177931
 30
0
 11
576.3043793726031
 21
554.172387266269
 31
0
  0
LINE
  8
1
 62
3
 10
585.6907907014249
 20
549.7481448420331
 30
0
 11
579.4085594686189
 21
549.7481448420331
 31
0
  0
LINE
  8
1
 62
3
 10
585.6907907014249
 20
549.7481448420331
 30
0
 11
584.0648296126528
 21
543.1117812056621
 31
0
  0
LINE
  8
1
 62
3
 10
579.4085594686189
 20
549.7481448420331
 30
0
 11
578.8665724389718
 21
547.5360236298441
 31
0
  0
LINE
  8
1
 62
3
 10
578.8665724389718
 20
547.5360236298441
 30
0
 11
583.0547265943719
 21
547.5360236298441
 31
0
  0
LINE
  8
1
 62
3
 10
583.0547265943719
 20
547.5360236298441
 30
0
 11
582.5127395646049
 21
545.3239024177931
 31
0
  0
LINE
  8
1
 62
3
 10
584.0845019505218
 20
551.739053932891
 30
0
 11
586.1785790280479
 21
551.739053932891
 31
0
  0
LINE
  8
1
 62
3
 10
586.5777221057689
 20
543.1117812056621
 30
0
 11
588.671799183329
 21
543.1117812056621
 31
0
  0
LINE
  8
1
 62
3
 10
588.671799183329
 20
543.1117812056621
 30
0
 11
591.9237213608981
 21
556.38450847832
 31
0
  0
LINE
  8
1
 62
3
 10
589.8296442833339
 20
556.38450847832
 30
0
 11
586.5777221057689
 21
543.1117812056621
 31
0
  0
LINE
  8
1
 62
3
 10
591.9237213608981
 20
556.38450847832
 30
0
 11
589.8296442833339
 21
556.38450847832
 31
0
  0
LINE
  8
1
 62
3
 10
591.1846916764989
 20
543.1117812056621
 30
0
 11
594.4366138540139
 21
556.38450847832
 31
0
  0
LINE
  8
1
 62
3
 10
594.4366138540139
 20
556.38450847832
 30
0
 11
597.5777294703548
 21
556.38450847832
 31
0
  0
LINE
  8
1
 62
3
 10
597.5777294703548
 20
556.38450847832
 30
0
 11
602.0615673366299
 21
544.770872114746
 31
0
  0
LINE
  8
1
 62
3
 10
602.0615673366299
 20
544.770872114746
 30
0
 11
604.9069992419829
 21
556.38450847832
 31
0
  0
LINE
  8
1
 62
3
 10
604.9069992419829
 20
556.38450847832
 30
0
 11
607.0010763195969
 21
556.38450847832
 31
0
  0
LINE
  8
1
 62
3
 10
607.0010763195969
 20
556.38450847832
 30
0
 11
603.7491541419769
 21
543.1117812056621
 31
0
  0
LINE
  8
1
 62
3
 10
603.7491541419769
 20
543.1117812056621
 30
0
 11
600.5064756532079
 21
543.1117812056621
 31
0
  0
LINE
  8
1
 62
3
 10
600.5064756532079
 20
543.1117812056621
 30
0
 11
596.7253193174979
 21
552.9053946295351
 31
0
  0
LINE
  8
1
 62
3
 10
596.7253193174979
 20
552.9053946295351
 30
0
 11
596.0847710509879
 21
554.5644855385979
 31
0
  0
LINE
  8
1
 62
3
 10
596.0847710509879
 20
554.5644855385979
 30
0
 11
593.2787687540589
 21
543.1117812056621
 31
0
  0
LINE
  8
1
 62
3
 10
593.2787687540589
 20
543.1117812056621
 30
0
 11
591.1846916764989
 21
543.1117812056621
 31
0
  0
LINE
  8
1
 62
3
 10
606.2620466350929
 20
543.1117812056621
 30
0
 11
613.77347691399
 21
556.38450847832
 31
0
  0
LINE
  8
1
 62
3
 10
613.77347691399
 20
556.38450847832
 30
0
 11
617.818923176965
 21
556.38450847832
 31
0
  0
LINE
  8
1
 62
3
 10
617.818923176965
 20
556.38450847832
 30
0
 11
618.826509100727
 21
543.1117812056621
 31
0
  0
LINE
  8
1
 62
3
 10
618.826509100727
 20
543.1117812056621
 30
0
 11
616.7968269376579
 21
543.1117812056621
 31
0
  0
LINE
  8
1
 62
3
 10
616.7968269376579
 20
543.1117812056621
 30
0
 11
616.6288959503909
 21
545.3239024177931
 31
0
  0
LINE
  8
1
 62
3
 10
616.6288959503909
 20
545.3239024177931
 30
0
 11
609.892748670027
 21
545.3239024177931
 31
0
  0
LINE
  8
1
 62
3
 10
609.892748670027
 20
545.3239024177931
 30
0
 11
608.6408436236638
 21
543.1117812056621
 31
0
  0
LINE
  8
1
 62
3
 10
608.6408436236638
 20
543.1117812056621
 30
0
 11
606.2620466350929
 21
543.1117812056621
 31
0
  0
LINE
  8
1
 62
3
 10
611.144653716558
 20
547.5360236298441
 30
0
 11
616.4609649630688
 21
547.5360236298441
 31
0
  0
LINE
  8
1
 62
3
 10
616.4609649630688
 20
547.5360236298441
 30
0
 11
615.9571720012139
 21
554.172387266269
 31
0
  0
LINE
  8
1
 62
3
 10
615.9571720012139
 20
554.172387266269
 30
0
 11
614.9003688559239
 21
554.172387266269
 31
0
  0
LINE
  8
1
 62
3
 10
611.144653716558
 20
547.5360236298441
 30
0
 11
614.9003688559239
 21
554.172387266269
 31
0
  0
LINE
  8
1
 62
3
 10
624.591323771416
 20
556.38450847832
 30
0
 11
621.339401593847
 21
543.1117812056621
 31
0
  0
LINE
  8
1
 62
3
 10
621.339401593847
 20
543.1117812056621
 30
0
 11
633.9038640594258
 21
543.1117812056621
 31
0
  0
LINE
  8
1
 62
3
 10
633.9038640594258
 20
543.1117812056621
 30
0
 11
634.445851089087
 21
545.3239024177931
 31
0
  0
LINE
  8
1
 62
3
 10
634.445851089087
 20
545.3239024177931
 30
0
 11
623.9754657010669
 21
545.3239024177931
 31
0
  0
LINE
  8
1
 62
3
 10
623.9754657010669
 20
545.3239024177931
 30
0
 11
626.68540084903
 21
556.38450847832
 31
0
  0
LINE
  8
1
 62
3
 10
626.68540084903
 20
556.38450847832
 30
0
 11
624.591323771416
 21
556.38450847832
 31
0
  0
LINE
  8
1
 62
3
 10
671.206636135699
 20
550.2001112138419
 30
0
 11
671.206636135699
 21
547.451055788282
 31
0
  0
LINE
  8
1
 62
3
 10
670.3341884365839
 20
547.451055788282
 30
0
 11
670.3341884365839
 21
554.3095239634561
 31
0
  0
LINE
  8
1
 62
3
 10
670.3341884365839
 20
554.3095239634561
 30
0
 11
672.7761082958239
 21
554.3095239634561
 31
0
  0
LINE
  8
1
 62
3
 10
672.7761082958239
 20
554.3095239634561
 30
0
 11
673.0724648781759
 21
554.3095239634561
 31
0
  0
LINE
  8
1
 62
3
 10
674.9060993927419
 20
549.3306895546259
 30
0
 11
674.9060993927419
 21
547.451055788282
 31
0
  0
LINE
  8
1
 62
3
 10
674.9060993927419
 20
547.451055788282
 30
0
 11
673.9449125772369
 21
547.451055788282
 31
0
  0
LINE
  8
1
 62
3
 10
673.9449125772369
 20
547.451055788282
 30
0
 11
673.9449125772369
 21
549.0729110559
 31
0
  0
LINE
  8
1
 62
3
 10
672.931697837317
 20
550.2001112138419
 30
0
 11
671.206636135699
 21
550.2001112138419
 31
0
  0
LINE
  8
1
 62
3
 10
671.206636135699
 20
547.451055788282
 30
0
 11
670.3341884365839
 21
547.451055788282
 31
0
  0
LINE
  8
1
 62
3
 10
671.206636135699
 20
551.050334541276
 30
0
 11
673.194119363641
 21
551.050334541276
 31
0
  0
LINE
  8
1
 62
3
 10
673.062609127785
 20
553.505992531278
 30
0
 11
671.206636135699
 21
553.505992531278
 31
0
  0
LINE
  8
1
 62
3
 10
671.206636135699
 20
553.505992531278
 30
0
 11
671.206636135699
 21
551.050334541276
 31
0
  0
ARC
  8
1
 62
3
 10
672.9426940693159
 20
552.3039199213811
 30
0
 40
2.00979800886174
 50
304.0700115354277
 51
86.29788871825861
  0
ARC
  8
1
 62
3
 10
672.8643762433019
 20
552.264025930551
 30
0
 40
1.257687287767243
 50
285.1995809529428
 51
80.9313952387881
  0
ARC
  8
1
 62
3
 10
672.789193605106
 20
549.0530393898221
 30
0
 40
1.155889798231655
 50
0.9850581704851609
 51
82.91825463293205
  0
ARC
  8
1
 62
3
 10
673.514586791596
 20
549.3622336822259
 30
0
 40
1.39187009132817
 50
358.7013873342734
 51
66.54486649404552
  0
CIRCLE
  8
1
 62
3
 10
672.7358752379369
 20
550.878787878755
 30
0
 40
5.972862778753957
  0
CIRCLE
  8
1
 62
3
 10
672.7358752379369
 20
550.878787878755
 30
0
 40
5.530127989695984
  0
ENDBLK
  8
0
  0
BLOCK
  8
0
  2
WANNE_PICCOLO_DUO
 70
0
 10
551.3288259999999
 20
-55.75790099999995
 30
0
  0
LINE
  8
1
 62
7
 10
675.201785999991
 20
836.7901890000001
 30
0
 11
656.28581099999
 21
779.8804769999999
 31
0
  0
LINE
  8
1
 62
7
 10
779.7737029999901
 20
264.935144
 30
0
 11
759.19719499999
 21
203.0296309999999
 31
0
  0
LINE
  8
1
 62
7
 10
788.258384812515
 20
270.5291317288247
 30
0
 11
1365.116575714786
 21
233.965476089099
 31
0
  0
LINE
  8
1
 62
7
 10
657.52045799999
 20
772.1915260000001
 30
0
 11
1385.09284799999
 21
743.2131730000001
 31
0
  0
LINE
  8
1
 62
7
 10
755.1439599585281
 20
287.8467595276479
 30
0
 11
1130.429439472446
 21
259.1816514092402
 31
0
  0
LINE
  8
1
 62
7
 10
613.22570199999
 20
759.944634
 30
0
 11
1133.57980299999
 21
739.2195420000001
 31
0
  0
LINE
  8
1
 62
7
 10
0
 20
249.9809212055193
 30
0
 11
39.90807117709574
 21
242.7087709482194
 31
0
  0
LINE
  8
1
 62
7
 10
0
 20
249.9809212055193
 30
0
 11
0
 21
900
 31
0
  0
LINE
  8
1
 62
7
 10
1699.99999999999
 20
900
 30
0
 11
1699.99999999999
 21
100.041522771533
 31
0
  0
LINE
  8
1
 62
7
 10
0
 20
900
 30
0
 11
1699.99999999999
 21
900
 31
0
  0
LINE
  8
1
 62
7
 10
470.719922007223
 20
849.687071047513
 30
0
 11
1317.934113043823
 21
815.9435258858871
 31
0
  0
LINE
  8
MITTELLINIEN
 62
3
  6
DASHDOT
 10
455
 20
283.9899549999991
 30
0
 11
455
 21
154.3219809999991
 31
0
  0
LINE
  8
MITTELLINIEN
 62
3
  6
DASHDOT
 10
518.989954999998
 20
220
 30
0
 11
389.3219809999871
 21
220
 31
0
  0
ARC
  8
1
 62
7
 10
454.9999999998879
 20
454.9999999999529
 30
0
 40
394.9999999999953
 50
180
 51
270
  0
ARC
  8
1
 62
7
 10
1304.999999999814
 20
491.200999074623
 30
0
 40
324.9999999999993
 50
267.7882204335867
 51
0
  0
ARC
  8
1
 62
7
 10
454.9999999998879
 20
454.9999999999529
 30
0
 40
394.9999999999951
 50
90
 51
180
  0
ARC
  8
1
 62
7
 10
454.9999999998879
 20
454.9999999999529
 30
0
 40
395.0000000000233
 50
87.7191820020464
 51
90
  0
ARC
  8
1
 62
7
 10
454.999999999965
 20
454.9999999999691
 30
0
 40
454.9999999999974
 50
209.9065761997531
 51
270
  0
ARC
  8
1
 62
7
 10
787.3009865980539
 20
260.5750679232092
 30
0
 40
9.999999879365927
 50
84.50609737732314
 51
149.6686719989743
  0
ARC
  8
1
 62
7
 10
454.999999999998
 20
455.0000000000021
 30
0
 40
374.9999999999937
 50
58.19291700000095
 51
329.6686589999991
  0
ARC
  8
1
 62
7
 10
657.9184255079001
 20
782.183587503835
 30
0
 40
9.999983561675185
 50
238.1928875276781
 51
267.7192080747676
  0
ARC
  8
1
 62
7
 10
455.0000000000021
 20
455.000000000003
 30
0
 40
343.5499999999917
 50
62.57669200000159
 51
330.8861189999985
  0
ARC
  8
1
 62
7
 10
1124.022216674605
 20
499.2529830613689
 30
0
 40
240.1568172366032
 50
266.5834647192525
 51
87.71918190409919
  0
ARC
  8
1
 62
7
 10
795.0353856207551
 20
109.1663166696035
 30
0
 40
30.00000000013352
 50
84.64685885613984
 51
134.5156363100059
  0
ARC
  8
1
 62
7
 10
454.999999999965
 20
454.9999999999691
 30
0
 40
454.9999999999973
 50
270
 51
314.5156363101252
  0
ARC
  8
1
 62
7
 10
34.58282861523958
 20
213.1851906833745
 30
0
 40
29.99999999995578
 50
29.90657619971442
 51
79.77535365389554
  0
ARC
  8
1
 62
7
 10
1636.4182164338
 20
9084.781361556697
 30
0
 40
8984.964808715431
 50
264.6446807713912
 51
270.405454927751
  0
ARC
  8
1
 62
7
 10
1637.480839742484
 20
9099.782850413014
 30
0
 40
8939.999999999342
 50
264.3958285070232
 51
267.7882204335888
  0
ARC
  8
1
 62
7
 10
763.465382847173
 20
192.5612307889687
 30
0
 40
10.00000000009688
 50
84.39582850717162
 51
139.609248992532
  0
ARC
  8
1
 62
7
 10
454.9999999998879
 20
454.9999999999529
 30
0
 40
394.9999999999955
 50
270
 51
319.6092489925289
  0
ARC
  8
1
 62
7
 10
1304.999999999814
 20
491.200999074623
 30
0
 40
325
 50
0
 51
87.71918200204642
  0
CIRCLE
  8
WANNE
 62
7
 10
454.9999999999941
 20
220
 30
0
 40
45
  0
CIRCLE
  8
WANNE
 62
7
 10
454.9999999999941
 20
220
 30
0
 40
26
  0
POLYLINE
  8
1
 62
7
 66
1
 70
1
  0
VERTEX
  8
1
 10
480.8819066684839
 20
90.8233569091898
 30
0
 42
0.02209105697532722
  0
VERTEX
  8
1
 10
480.5347792849738
 20
91.38225047577917
 30
0
 42
0.0933816581596095
  0
VERTEX
  8
1
 10
479.4320081404335
 20
92.23991740692358
 30
0
 42
0.05167804320308218
  0
VERTEX
  8
1
 10
478.4935758771936
 20
92.72705201298552
 30
0
 42
0.00399973659587723
  0
VERTEX
  8
1
 10
477.3740950520111
 20
93.18282380042125
 30
0
 42
0.02666652292553251
  0
VERTEX
  8
1
 10
474.9171555210934
 20
93.93323824253511
 30
0
 42
0.02058096091116564
  0
VERTEX
  8
1
 10
473.3212142931444
 20
94.30959920256623
 30
0
 42
0.001030968715821753
  0
VERTEX
  8
1
 10
471.5954020112879
 20
94.64843752490681
 30
0
 42
0.01386751489249961
  0
VERTEX
  8
1
 10
467.9999999999999
 20
95.19006702330636
 30
0
 42
0.01220530542088795
  0
VERTEX
  8
1
 10
465.9486677084541
 20
95.421031345887
 30
0
 42
0.0003169332994525163
  0
VERTEX
  8
1
 10
463.8285538084341
 20
95.60985392576471
 30
0
 42
0.01015171210920131
  0
VERTEX
  8
1
 10
459.5148526193397
 20
95.8588116494588
 30
0
 42
0.009638911641466902
  0
VERTEX
  8
1
 10
457.2578396194524
 20
95.92318942493682
 30
0
 42
0.009368702499238161
  0
VERTEX
  8
1
 10
452.7421603805476
 20
95.92318942493688
 30
0
 42
0.0001414620315922981
  0
VERTEX
  8
1
 10
450.4851473806602
 20
95.85881164945886
 30
0
 42
0.009854529252271444
  0
VERTEX
  8
1
 10
446.1714461915659
 20
95.60985392576455
 30
0
 42
0.0101956398827288
  0
VERTEX
  8
1
 10
444.051332291546
 20
95.4210313458869
 30
0
 42
0.0005782055588336115
  0
VERTEX
  8
1
 10
442
 20
95.19006702330637
 30
0
 42
0.01298799223265235
  0
VERTEX
  8
1
 10
438.4045979887122
 20
94.64843752490691
 30
0
 42
0.01420653681641281
  0
VERTEX
  8
1
 10
436.6787857068557
 20
94.30959920256635
 30
0
 42
0.00191434754120237
  0
VERTEX
  8
1
 10
435.0828444789066
 20
93.93323824253523
 30
0
 42
0.02366932192525946
  0
VERTEX
  8
1
 10
432.6259049479888
 20
93.18282380042126
 30
0
 42
0.02774535167602121
  0
VERTEX
  8
1
 10
431.5064241228064
 20
92.72705201298552
 30
0
 42
0.008645923015317294
  0
VERTEX
  8
1
 10
430.5679918595667
 20
92.2399174069236
 30
0
 42
0.07884513163327983
  0
VERTEX
  8
1
 10
429.465220715027
 20
91.38225047577924
 30
0
 42
0.1047748947407527
  0
VERTEX
  8
1
 10
429.1180933315164
 20
90.82335690918985
 30
0
 42
0.2222678633933026
  0
VERTEX
  8
1
 10
429.1180933315164
 20
89.80533109080999
 30
0
 42
0.02209105697547607
  0
VERTEX
  8
1
 10
429.465220715027
 20
89.24643752422062
 30
0
 42
0.09338165815967743
  0
VERTEX
  8
1
 10
430.5679918595667
 20
88.38877059307632
 30
0
 42
0.05167804320358076
  0
VERTEX
  8
1
 10
431.5064241228064
 20
87.90163598701432
 30
0
 42
0.003999736595865644
  0
VERTEX
  8
1
 10
432.6259049479888
 20
87.44586419957854
 30
0
 42
0.02666652292552846
  0
VERTEX
  8
1
 10
435.0828444789066
 20
86.69544975746459
 30
0
 42
0.02058096091126772
  0
VERTEX
  8
1
 10
436.6787857068556
 20
86.31908879743348
 30
0
 42
0.001030968715817193
  0
VERTEX
  8
1
 10
438.4045979887122
 20
85.98025047509296
 30
0
 42
0.01386751489251858
  0
VERTEX
  8
1
 10
442
 20
85.43862097669347
 30
0
 42
0.01220530542070161
  0
VERTEX
  8
1
 10
444.0513322915459
 20
85.20765665411305
 30
0
 42
0.000316933299434644
  0
VERTEX
  8
1
 10
446.1714461915658
 20
85.01883407423547
 30
0
 42
0.01015171210918779
  0
VERTEX
  8
1
 10
450.4851473806595
 20
84.76987635054097
 30
0
 42
0.009638911641344722
  0
VERTEX
  8
1
 10
452.7421603805472
 20
84.70549857506296
 30
0
 42
0.009368702499224633
  0
VERTEX
  8
1
 10
457.2578396194524
 20
84.70549857506296
 30
0
 42
0.000141462031587542
  0
VERTEX
  8
1
 10
459.5148526193398
 20
84.76987635054095
 30
0
 42
0.009854529252265921
  0
VERTEX
  8
1
 10
463.8285538084341
 20
85.0188340742354
 30
0
 42
0.01019563988263692
  0
VERTEX
  8
1
 10
465.9486677084541
 20
85.20765665411301
 30
0
 42
0.0005782055588390547
  0
VERTEX
  8
1
 10
468
 20
85.43862097669347
 30
0
 42
0.01298799223265774
  0
VERTEX
  8
1
 10
471.5954020112879
 20
85.98025047509296
 30
0
 42
0.01420653681630494
  0
VERTEX
  8
1
 10
473.3212142931444
 20
86.31908879743355
 30
0
 42
0.001914347541204174
  0
VERTEX
  8
1
 10
474.9171555210935
 20
86.69544975746467
 30
0
 42
0.02366932192525258
  0
VERTEX
  8
1
 10
477.3740950520112
 20
87.44586419957851
 30
0
 42
0.02774535167584665
  0
VERTEX
  8
1
 10
478.4935758771936
 20
87.90163598701425
 30
0
 42
0.008645923015336109
  0
VERTEX
  8
1
 10
479.4320081404335
 20
88.38877059307622
 30
0
 42
0.07884513163332796
  0
VERTEX
  8
1
 10
480.5347792849737
 20
89.24643752422062
 30
0
 42
0.1047748947407033
  0
VERTEX
  8
1
 10
480.881906668484
 20
89.80533109081
 30
0
 42
0.2222678633928694
  0
VERTEX
  8
1
 10
480.881906668484
 20
90.82335690918978
 30
0
  0
SEQEND
  8
1
  0
ENDBLK
  8
0
  0
ENDSEC
  0
SECTION
  2
ENTITIES
  0
TEXT
  8
1
 62
2
 10
500
 20
425
 30
0
 40
35
  1
PICCOLO Duo links
 41
0.5993999999999999
  0
TEXT
  8
1
 62
3
 10
321.084
 20
270
 30
0
 40
35
  1
Ö 52
 41
0.5993999999999999
 72
2
 11
405
 21
270
 31
0
  0
INSERT
  8
0
  2
DLX
 10
500
 20
500
 30
0
  0
INSERT
  8
0
  2
WANNE_PICCOLO_DUO
 10
551.3288259999999
 20
-55.75790099999995
 30
0
  0
ENDSEC
  0
EOF
