  0
SECTION
  2
HEADER
  9
$ACADVER
  1
AC1009
  9
$INSBASE
 10
0
 20
0
  9
$EXTMIN
 10
-4.547473508864641e-013
 20
-2.819433575496078e-011
  9
$EXTMAX
 10
1699.99999999999
 20
900
  9
$LIMMIN
 10
-4.547473508864641e-013
 20
-2.819433575496078e-011
  9
$LIMMAX
 10
1699.99999999999
 20
900
  9
$VIEWCTR
 10
10
 20
10
  9
$VIEWSIZE
 40
10
  9
$SNAPMODE
 70
0
  9
$SNAPUNIT
 10
1
 20
1
  9
$SNAPBASE
 10
0
 20
0
  9
$SNAPANG
 50
0
  9
$SNAPSTYLE
 70
0
  9
$SNAPISOPAIR
 70
0
  9
$GRIDMODE
 70
0
  9
$GRIDUNIT
 10
0
 20
0
  9
$ORTHOMODE
 70
0
  9
$REGENMODE
 70
1
  9
$FILLMODE
 70
1
  9
$QTEXTMODE
 70
0
  9
$DRAGMODE
 70
2
  9
$LTSCALE
 40
1
  9
$OSMODE
 70
0
  9
$ATTMODE
 70
1
  9
$TEXTSIZE
 40
3.5
  9
$TRACEWID
 40
0.5
  9
$TEXTSTYLE
  7
STANDARD
  9
$CLAYER
  8
0
  9
$CELTYPE
  6
BYLAYER
  9
$CECOLOR
 62
256
  9
$DIMSCALE
 40
1
  9
$DIMASZ
 40
0.18
  9
$DIMEXO
 40
0.0625
  9
$DIMDLI
 40
0.38
  9
$DIMRND
 40
0
  9
$DIMDLE
 40
0
  9
$DIMEXE
 40
0.18
  9
$DIMTP
 40
0
  9
$DIMTM
 40
0
  9
$DIMTXT
 40
0.18
  9
$DIMCEN
 40
0.09
  9
$DIMTSZ
 40
0
  9
$DIMTOL
 70
0
  9
$DIMLIM
 70
0
  9
$DIMTIH
 70
1
  9
$DIMTOH
 70
1
  9
$DIMSE1
 70
0
  9
$DIMSE2
 70
0
  9
$DIMTAD
 70
0
  9
$DIMZIN
 70
0
  9
$DIMBLK
  1

  9
$DIMASO
 70
1
  9
$DIMSHO
 70
1
  9
$DIMPOST
  1

  9
$DIMAPOST
  1

  9
$DIMALT
 70
0
  9
$DIMALTD
 70
2
  9
$DIMALTF
 40
25.4
  9
$DIMLFAC
 40
1
  9
$DIMTOFL
 70
0
  9
$DIMTVP
 40
0
  9
$DIMTIX
 70
0
  9
$DIMSOXD
 70
0
  9
$DIMSAH
 70
0
  9
$DIMBLK1
  1

  9
$DIMBLK2
  1

  9
$DIMSTYLE
  2
*UNNAMED
  9
$DIMCLRD
 70
0
  9
$DIMCLRE
 70
0
  9
$DIMCLRT
 70
0
  9
$DIMTFAC
 40
1
  9
$DIMGAP
 40
0.09
  9
$LUNITS
 70
2
  9
$LUPREC
 70
4
  9
$AXISMODE
 70
0
  9
$AXISUNIT
 10
0
 20
0
  9
$SKETCHINC
 40
0.1
  9
$FILLETRAD
 40
2
  9
$AUNITS
 70
0
  9
$AUPREC
 70
0
  9
$MENU
  1
ACAD
  9
$ELEVATION
 40
0
  9
$THICKNESS
 40
0
  9
$VIEWDIR
 10
0
 20
0
 30
1
  9
$LIMCHECK
 70
0
  9
$BLIPMODE
 70
1
  9
$CHAMFERA
 40
0
  9
$CHAMFERB
 40
0
  9
$FASTZOOM
 70
1
  9
$SKPOLY
 70
0
  9
$ANGBASE
 50
0
  9
$ANGDIR
 70
0
  9
$PDMODE
 70
0
  9
$PDSIZE
 40
0
  9
$PLINEWID
 40
0
  9
$COORDS
 70
2
  0
ENDSEC
  0
SECTION
  2
TABLES
  0
TABLE
  2
DIMSTYLE
 70
0
  0
ENDTAB
  0
TABLE
  2
LTYPE
 70
9
  0
LTYPE
  2
CONTINUOUS
 70
64
  3
Solid line
 72
65
 73
0
 40
0
  0
LTYPE
  2
BORDER
 70
64
  3
__ __ . __ __ .
 72
65
 73
6
 40
78.28947368421009
 49
22.36842105263145
 49
-11.18421052631573
 49
22.36842105263145
 49
-11.18421052631573
 49
0
 49
-11.18421052631573
  0
LTYPE
  2
CENTER
 70
64
  3
____ _ ____ _
 72
65
 73
4
 40
89.47368421052582
 49
55.92105263157863
 49
-11.18421052631573
 49
11.18421052631573
 49
-11.18421052631573
  0
LTYPE
  2
DASHDOT
 70
64
  3
__ . __ . __ .
 72
65
 73
4
 40
44.73684210526291
 49
22.36842105263145
 49
-11.18421052631573
 49
0
 49
-11.18421052631573
  0
LTYPE
  2
DASHED
 70
64
  3
__ __ __ __ __
 72
65
 73
2
 40
33.55263157894719
 49
22.36842105263145
 49
-11.18421052631573
  0
LTYPE
  2
DIVIDE
 70
64
  3
__ . . __ . . 
 72
65
 73
6
 40
55.92105263157863
 49
22.36842105263145
 49
-11.18421052631573
 49
0
 49
-11.18421052631573
 49
0
 49
-11.18421052631573
  0
LTYPE
  2
DOT
 70
64
  3
..............
 72
65
 73
4
 40
22.36842105263145
 49
0
 49
-11.18421052631573
 49
0
 49
-11.18421052631573
  0
LTYPE
  2
HIDDEN
 70
64
  3
_ _ _ _ _ _ _
 72
65
 73
2
 40
16.77631578947359
 49
11.18421052631573
 49
-5.592105263157864
  0
LTYPE
  2
PHANTOM
 70
64
  3
_____ _ _ _____ _ _ 
 72
65
 73
6
 40
111.8421052631573
 49
55.92105263157863
 49
-11.18421052631573
 49
11.18421052631573
 49
-11.18421052631573
 49
11.18421052631573
 49
-11.18421052631573
  0
ENDTAB
  0
TABLE
  2
LAYER
 70
5
  0
LAYER
  2
MITTELLINIEN
 70
0
 62
7
  6
CONTINUOUS
  0
LAYER
  2
1
 70
0
 62
7
  6
CONTINUOUS
  0
LAYER
  2
WANNE
 70
0
 62
7
  6
CONTINUOUS
  0
LAYER
  2
0
 70
0
 62
7
  6
CONTINUOUS
  0
ENDTAB
  0
TABLE
  2
STYLE
 70
4
  0
STYLE
  2
STANDARD
 70
0
 40
0
 41
1
 50
0
 71
0
 42
3.5
  3
txt
  4

  0
STYLE
  2
SIMPLEX
 70
0
 40
0
 41
1
 50
0
 71
0
 42
3.5
  3
simplex
  4

  0
STYLE
  2
COMPLEX
 70
0
 40
0
 41
1
 50
0
 71
0
 42
3.5
  3
complex
  4

  0
STYLE
  2
ITALIC
 70
0
 40
0
 41
1
 50
0
 71
0
 42
3.5
  3
italic
  4

  0
ENDTAB
  0
TABLE
  2
VIEW
 70
0
  0
ENDTAB
  0
ENDSEC
  0
SECTION
  2
BLOCKS
  0
BLOCK
  8
0
  2
DLX
 70
0
 10
1019.670496847783
 20
500
 30
0
  0
LINE
  8
1
 62
3
 10
1190.877132983482
 20
553.505992531278
 30
0
 11
1190.877132983482
 21
551.050334541276
 31
0
  0
LINE
  8
1
 62
3
 10
1192.733105975568
 20
553.505992531278
 30
0
 11
1190.877132983482
 21
553.505992531278
 31
0
  0
LINE
  8
1
 62
3
 10
1190.877132983482
 20
551.050334541276
 30
0
 11
1192.864616211424
 21
551.050334541276
 31
0
  0
LINE
  8
1
 62
3
 10
1190.877132983482
 20
547.451055788282
 30
0
 11
1190.004685284367
 21
547.451055788282
 31
0
  0
LINE
  8
1
 62
3
 10
1192.6021946851
 20
550.2001112138419
 30
0
 11
1190.877132983482
 21
550.2001112138419
 31
0
  0
LINE
  8
1
 62
3
 10
1193.61540942502
 20
547.451055788282
 30
0
 11
1193.61540942502
 21
549.0729110559
 31
0
  0
LINE
  8
1
 62
3
 10
1194.576596240525
 20
547.451055788282
 30
0
 11
1193.61540942502
 21
547.451055788282
 31
0
  0
LINE
  8
1
 62
3
 10
1194.576596240525
 20
549.3306895546259
 30
0
 11
1194.576596240525
 21
547.451055788282
 31
0
  0
LINE
  8
1
 62
3
 10
1192.446605143607
 20
554.3095239634561
 30
0
 11
1192.742961725959
 21
554.3095239634561
 31
0
  0
LINE
  8
1
 62
3
 10
1190.004685284367
 20
554.3095239634561
 30
0
 11
1192.446605143607
 21
554.3095239634561
 31
0
  0
LINE
  8
1
 62
3
 10
1190.004685284367
 20
547.451055788282
 30
0
 11
1190.004685284367
 21
554.3095239634561
 31
0
  0
LINE
  8
1
 62
3
 10
1190.877132983482
 20
550.2001112138419
 30
0
 11
1190.877132983482
 21
547.451055788282
 31
0
  0
LINE
  8
1
 62
3
 10
1146.355897696813
 20
556.38450847832
 30
0
 11
1144.261820619199
 21
556.38450847832
 31
0
  0
LINE
  8
1
 62
3
 10
1143.64596254885
 20
545.3239024177931
 30
0
 11
1146.355897696813
 21
556.38450847832
 31
0
  0
LINE
  8
1
 62
3
 10
1154.11634793687
 20
545.3239024177931
 30
0
 11
1143.64596254885
 21
545.3239024177931
 31
0
  0
LINE
  8
1
 62
3
 10
1153.574360907209
 20
543.1117812056621
 30
0
 11
1154.11634793687
 21
545.3239024177931
 31
0
  0
LINE
  8
1
 62
3
 10
1141.00989844163
 20
543.1117812056621
 30
0
 11
1153.574360907209
 21
543.1117812056621
 31
0
  0
LINE
  8
1
 62
3
 10
1144.261820619199
 20
556.38450847832
 30
0
 11
1141.00989844163
 21
543.1117812056621
 31
0
  0
LINE
  8
1
 62
3
 10
1130.815150564341
 20
547.5360236298441
 30
0
 11
1134.570865703707
 21
554.172387266269
 31
0
  0
LINE
  8
1
 62
3
 10
1135.627668848997
 20
554.172387266269
 30
0
 11
1134.570865703707
 21
554.172387266269
 31
0
  0
LINE
  8
1
 62
3
 10
1136.131461810852
 20
547.5360236298441
 30
0
 11
1135.627668848997
 21
554.172387266269
 31
0
  0
LINE
  8
1
 62
3
 10
1130.815150564341
 20
547.5360236298441
 30
0
 11
1136.131461810852
 21
547.5360236298441
 31
0
  0
LINE
  8
1
 62
3
 10
1128.311340471447
 20
543.1117812056621
 30
0
 11
1125.932543482876
 21
543.1117812056621
 31
0
  0
LINE
  8
1
 62
3
 10
1129.56324551781
 20
545.3239024177931
 30
0
 11
1128.311340471447
 21
543.1117812056621
 31
0
  0
LINE
  8
1
 62
3
 10
1136.299392798174
 20
545.3239024177931
 30
0
 11
1129.56324551781
 21
545.3239024177931
 31
0
  0
LINE
  8
1
 62
3
 10
1136.467323785441
 20
543.1117812056621
 30
0
 11
1136.299392798174
 21
545.3239024177931
 31
0
  0
LINE
  8
1
 62
3
 10
1138.49700594851
 20
543.1117812056621
 30
0
 11
1136.467323785441
 21
543.1117812056621
 31
0
  0
LINE
  8
1
 62
3
 10
1137.489420024748
 20
556.38450847832
 30
0
 11
1138.49700594851
 21
543.1117812056621
 31
0
  0
LINE
  8
1
 62
3
 10
1133.443973761773
 20
556.38450847832
 30
0
 11
1137.489420024748
 21
556.38450847832
 31
0
  0
LINE
  8
1
 62
3
 10
1125.932543482876
 20
543.1117812056621
 30
0
 11
1133.443973761773
 21
556.38450847832
 31
0
  0
LINE
  8
1
 62
3
 10
1112.949265601842
 20
543.1117812056621
 30
0
 11
1110.855188524282
 21
543.1117812056621
 31
0
  0
LINE
  8
1
 62
3
 10
1115.755267898771
 20
554.5644855385979
 30
0
 11
1112.949265601842
 21
543.1117812056621
 31
0
  0
LINE
  8
1
 62
3
 10
1116.395816165281
 20
552.9053946295351
 30
0
 11
1115.755267898771
 21
554.5644855385979
 31
0
  0
LINE
  8
1
 62
3
 10
1120.176972500991
 20
543.1117812056621
 30
0
 11
1116.395816165281
 21
552.9053946295351
 31
0
  0
LINE
  8
1
 62
3
 10
1123.41965098976
 20
543.1117812056621
 30
0
 11
1120.176972500991
 21
543.1117812056621
 31
0
  0
LINE
  8
1
 62
3
 10
1126.67157316738
 20
556.38450847832
 30
0
 11
1123.41965098976
 21
543.1117812056621
 31
0
  0
LINE
  8
1
 62
3
 10
1124.577496089766
 20
556.38450847832
 30
0
 11
1126.67157316738
 21
556.38450847832
 31
0
  0
LINE
  8
1
 62
3
 10
1121.732064184413
 20
544.770872114746
 30
0
 11
1124.577496089766
 21
556.38450847832
 31
0
  0
LINE
  8
1
 62
3
 10
1117.248226318138
 20
556.38450847832
 30
0
 11
1121.732064184413
 21
544.770872114746
 31
0
  0
LINE
  8
1
 62
3
 10
1114.107110701797
 20
556.38450847832
 30
0
 11
1117.248226318138
 21
556.38450847832
 31
0
  0
LINE
  8
1
 62
3
 10
1110.855188524282
 20
543.1117812056621
 30
0
 11
1114.107110701797
 21
556.38450847832
 31
0
  0
LINE
  8
1
 62
3
 10
1111.594218208681
 20
556.38450847832
 30
0
 11
1109.500141131117
 21
556.38450847832
 31
0
  0
LINE
  8
1
 62
3
 10
1109.500141131117
 20
556.38450847832
 30
0
 11
1106.248218953552
 21
543.1117812056621
 31
0
  0
LINE
  8
1
 62
3
 10
1108.342296031112
 20
543.1117812056621
 30
0
 11
1111.594218208681
 21
556.38450847832
 31
0
  0
LINE
  8
1
 62
3
 10
1106.248218953552
 20
543.1117812056621
 30
0
 11
1108.342296031112
 21
543.1117812056621
 31
0
  0
LINE
  8
1
 62
3
 10
1103.754998798305
 20
551.739053932891
 30
0
 11
1105.849075875831
 21
551.739053932891
 31
0
  0
LINE
  8
1
 62
3
 10
1102.725223442155
 20
547.5360236298441
 30
0
 11
1102.183236412388
 21
545.3239024177931
 31
0
  0
LINE
  8
1
 62
3
 10
1098.537069286755
 20
547.5360236298441
 30
0
 11
1102.725223442155
 21
547.5360236298441
 31
0
  0
LINE
  8
1
 62
3
 10
1099.079056316402
 20
549.7481448420331
 30
0
 11
1098.537069286755
 21
547.5360236298441
 31
0
  0
LINE
  8
1
 62
3
 10
1105.361287549208
 20
549.7481448420331
 30
0
 11
1103.735326460436
 21
543.1117812056621
 31
0
  0
LINE
  8
1
 62
3
 10
1105.361287549208
 20
549.7481448420331
 30
0
 11
1099.079056316402
 21
549.7481448420331
 31
0
  0
LINE
  8
1
 62
3
 10
1093.806928102059
 20
545.3239024177931
 30
0
 11
1095.974876220386
 21
554.172387266269
 31
0
  0
LINE
  8
1
 62
3
 10
1095.974876220386
 20
554.172387266269
 30
0
 11
1104.351184530683
 21
554.172387266269
 31
0
  0
LINE
  8
1
 62
3
 10
1104.351184530683
 20
554.172387266269
 30
0
 11
1103.754998798305
 21
551.739053932891
 31
0
  0
LINE
  8
1
 62
3
 10
1102.183236412388
 20
545.3239024177931
 30
0
 11
1093.806928102059
 21
545.3239024177931
 31
0
  0
LINE
  8
1
 62
3
 10
1103.735326460436
 20
543.1117812056621
 30
0
 11
1091.170863994824
 21
543.1117812056621
 31
0
  0
LINE
  8
1
 62
3
 10
1106.987248637958
 20
556.38450847832
 30
0
 11
1105.849075875831
 21
551.739053932891
 31
0
  0
LINE
  8
1
 62
3
 10
1094.422786172367
 20
556.38450847832
 30
0
 11
1106.987248637958
 21
556.38450847832
 31
0
  0
LINE
  8
1
 62
3
 10
1091.170863994824
 20
543.1117812056621
 30
0
 11
1094.422786172367
 21
556.38450847832
 31
0
  0
LINE
  8
1
 62
3
 10
1088.657971501839
 20
543.1117812056621
 30
0
 11
1091.909893679248
 21
556.38450847832
 31
0
  0
LINE
  8
1
 62
3
 10
1086.563894424119
 20
543.1117812056621
 30
0
 11
1088.657971501839
 21
543.1117812056621
 31
0
  0
LINE
  8
1
 62
3
 10
1089.815816601684
 20
556.38450847832
 30
0
 11
1086.563894424119
 21
543.1117812056621
 31
0
  0
LINE
  8
1
 62
3
 10
1091.909893679248
 20
556.38450847832
 30
0
 11
1089.815816601684
 21
556.38450847832
 31
0
  0
LINE
  8
1
 62
3
 10
1073.580616543081
 20
543.1117812056621
 30
0
 11
1074.664590602192
 21
547.5360236298441
 31
0
  0
LINE
  8
1
 62
3
 10
1071.486539465405
 20
543.1117812056621
 30
0
 11
1073.580616543081
 21
543.1117812056621
 31
0
  0
LINE
  8
1
 62
3
 10
1084.998720317101
 20
546.979895810782
 30
0
 11
1084.051001930988
 21
543.1117812056621
 31
0
  0
LINE
  8
1
 62
3
 10
1076.290551690968
 20
554.172387266269
 30
0
 11
1075.206577631784
 21
549.7481448420331
 31
0
  0
LINE
  8
1
 62
3
 10
1084.666860001486
 20
554.172387266269
 30
0
 11
1076.290551690968
 21
554.172387266269
 31
0
  0
LINE
  8
1
 62
3
 10
1083.582885942164
 20
549.7481448420331
 30
0
 11
1084.666860001486
 21
554.172387266269
 31
0
  0
LINE
  8
1
 62
3
 10
1075.206577631784
 20
549.7481448420331
 30
0
 11
1083.582885942164
 21
549.7481448420331
 31
0
  0
LINE
  8
1
 62
3
 10
1083.040898912722
 20
547.5360236298441
 30
0
 11
1074.664590602192
 21
547.5360236298441
 31
0
  0
LINE
  8
1
 62
3
 10
1081.956924853349
 20
543.1117812056621
 30
0
 11
1083.040898912722
 21
547.5360236298441
 31
0
  0
LINE
  8
1
 62
3
 10
1084.051001930988
 20
543.1117812056621
 30
0
 11
1081.956924853349
 21
543.1117812056621
 31
0
  0
LINE
  8
1
 62
3
 10
1087.302924108521
 20
556.38450847832
 30
0
 11
1085.435399998668
 21
548.7622048583319
 31
0
  0
LINE
  8
1
 62
3
 10
1074.738461642942
 20
556.38450847832
 30
0
 11
1087.302924108521
 21
556.38450847832
 31
0
  0
LINE
  8
1
 62
3
 10
1074.738461642942
 20
556.38450847832
 30
0
 11
1071.486539465405
 21
543.1117812056621
 31
0
  0
LINE
  8
1
 62
3
 10
1059.045248613915
 20
545.3239024177931
 30
0
 11
1061.213196732257
 21
554.172387266269
 31
0
  0
LINE
  8
1
 62
3
 10
1061.213196732257
 20
554.172387266269
 30
0
 11
1069.589505042747
 21
554.172387266269
 31
0
  0
LINE
  8
1
 62
3
 10
1069.589505042747
 20
554.172387266269
 30
0
 11
1067.42155692427
 21
545.3239024177931
 31
0
  0
LINE
  8
1
 62
3
 10
1067.42155692427
 20
545.3239024177931
 30
0
 11
1059.045248613915
 21
545.3239024177931
 31
0
  0
LINE
  8
1
 62
3
 10
1068.973646972275
 20
543.1117812056621
 30
0
 11
1056.409184506749
 21
543.1117812056621
 31
0
  0
LINE
  8
1
 62
3
 10
1072.225569149949
 20
556.38450847832
 30
0
 11
1068.973646972275
 21
543.1117812056621
 31
0
  0
LINE
  8
1
 62
3
 10
1059.661106684231
 20
556.38450847832
 30
0
 11
1072.225569149949
 21
556.38450847832
 31
0
  0
LINE
  8
1
 62
3
 10
1056.409184506749
 20
543.1117812056621
 30
0
 11
1059.661106684231
 21
556.38450847832
 31
0
  0
LINE
  8
1
 62
3
 10
1199.99999999999
 20
500
 30
0
 11
1147.40919858118
 21
500
 31
0
  0
LINE
  8
1
 62
3
 10
1197.599327633471
 20
506.1939393939099
 30
0
 11
1154.790178081298
 21
506.1939393939099
 31
0
  0
LINE
  8
1
 62
3
 10
1197.599327633471
 20
506.1939393939099
 30
0
 11
1199.99999999999
 21
500
 31
0
  0
LINE
  8
1
 62
3
 10
1190.357327556689
 20
524.878917066824
 30
0
 11
1187.577474432732
 21
532.051175145079
 31
0
  0
LINE
  8
1
 62
3
 10
1195.954553736975
 20
532.051175145079
 30
0
 11
1190.357327556689
 21
524.878917066824
 31
0
  0
LINE
  8
1
 62
3
 10
1200.000000000033
 20
532.051175145079
 30
0
 11
1195.954553736975
 21
532.051175145079
 31
0
  0
LINE
  8
1
 62
3
 10
1191.699769954951
 20
521.415301218603
 30
0
 11
1200.000000000033
 21
532.051175145079
 31
0
  0
LINE
  8
1
 62
3
 10
1196.570468047955
 20
508.848484848477
 30
0
 11
1191.699769954951
 21
521.415301218603
 31
0
  0
LINE
  8
1
 62
3
 10
1192.525021784907
 20
508.848484848477
 30
0
 11
1196.570468047955
 21
508.848484848477
 31
0
  0
LINE
  8
1
 62
3
 10
1188.996766090223
 20
517.951685370502
 30
0
 11
1192.525021784907
 21
508.848484848477
 31
0
  0
LINE
  8
1
 62
3
 10
1181.892633510121
 20
508.848484848477
 30
0
 11
1188.996766090223
 21
517.951685370502
 31
0
  0
LINE
  8
1
 62
3
 10
1177.847187247124
 20
508.848484848477
 30
0
 11
1181.892633510121
 21
508.848484848477
 31
0
  0
LINE
  8
1
 62
3
 10
1187.654323691914
 20
521.4153012186609
 30
0
 11
1177.847187247124
 21
508.848484848477
 31
0
  0
LINE
  8
1
 62
3
 10
1183.532028169717
 20
532.051175145079
 30
0
 11
1187.654323691914
 21
521.4153012186609
 31
0
  0
LINE
  8
1
 62
3
 10
1187.577474432732
 20
532.051175145079
 30
0
 11
1183.532028169717
 21
532.051175145079
 31
0
  0
LINE
  8
1
 62
3
 10
1170.548750288672
 20
532.051175145079
 30
0
 11
1165.31355759475
 21
532.051175145079
 31
0
  0
LINE
  8
1
 62
3
 10
1165.947883425321
 20
513.2727272727971
 30
0
 11
1170.548750288672
 21
532.051175145079
 31
0
  0
LINE
  8
1
 62
3
 10
1171.183076119273
 20
513.2727272727971
 30
0
 11
1165.947883425321
 21
513.2727272727971
 31
0
  0
LINE
  8
1
 62
3
 10
1175.783942982668
 20
532.051175145079
 30
0
 11
1171.183076119273
 21
513.2727272727971
 31
0
  0
LINE
  8
1
 62
3
 10
1181.019135676591
 20
532.051175145079
 30
0
 11
1175.783942982668
 21
532.051175145079
 31
0
  0
LINE
  8
1
 62
3
 10
1175.334294753983
 20
508.848484848477
 30
0
 11
1181.019135676591
 21
532.051175145079
 31
0
  0
LINE
  8
1
 62
3
 10
1159.628716672062
 20
508.848484848477
 30
0
 11
1175.334294753983
 21
508.848484848477
 31
0
  0
LINE
  8
1
 62
3
 10
1165.31355759475
 20
532.051175145079
 30
0
 11
1159.628716672062
 21
508.848484848477
 31
0
  0
LINE
  8
1
 62
3
 10
1157.971922770121
 20
543.1117812056621
 30
0
 11
1147.40919858118
 21
500
 31
0
  0
LINE
  8
1
 62
3
 10
1163.835338587389
 20
543.1117812056621
 30
0
 11
1157.971922770121
 21
543.1117812056621
 31
0
  0
LINE
  8
1
 62
3
 10
1154.790178081298
 20
506.1939393939099
 30
0
 11
1163.835338587389
 21
543.1117812056621
 31
0
  0
LINE
  8
1
 62
3
 10
1019.670496847783
 20
500
 30
0
 11
1027.523285888838
 21
532.051175145079
 31
0
  0
LINE
  8
1
 62
3
 10
1027.523285888838
 20
532.051175145079
 30
0
 11
1033.805517121535
 21
532.051175145079
 31
0
  0
LINE
  8
1
 62
3
 10
1033.805517121535
 20
532.051175145079
 30
0
 11
1027.036702139846
 21
504.424242424182
 31
0
  0
LINE
  8
1
 62
3
 10
1027.036702139846
 20
504.424242424182
 30
0
 11
1032.271894833725
 21
504.424242424182
 31
0
  0
LINE
  8
1
 62
3
 10
1032.271894833725
 20
504.424242424182
 30
0
 11
1040.395677389607
 21
537.581478175405
 31
0
  0
LINE
  8
1
 62
3
 10
1040.395677389607
 20
537.581478175405
 30
0
 11
1022.704581545074
 21
537.581478175405
 31
0
  0
LINE
  8
1
 62
3
 10
1022.704581545074
 20
537.581478175405
 30
0
 11
1024.059549119059
 21
543.1117812056621
 31
0
  0
LINE
  8
1
 62
3
 10
1024.059549119059
 20
543.1117812056621
 30
0
 11
1048.032876196351
 21
543.1117812056621
 31
0
  0
LINE
  8
1
 62
3
 10
1048.032876196351
 20
543.1117812056621
 30
0
 11
1037.470152007431
 21
500
 31
0
  0
LINE
  8
1
 62
3
 10
1037.470152007431
 20
500
 30
0
 11
1019.670496847783
 21
500
 31
0
  0
LINE
  8
1
 62
3
 10
1041.658306162558
 20
500
 30
0
 11
1049.511095203551
 21
532.051175145079
 31
0
  0
LINE
  8
1
 62
3
 10
1049.511095203551
 20
532.051175145079
 30
0
 11
1055.793326436361
 21
532.051175145079
 31
0
  0
LINE
  8
1
 62
3
 10
1055.793326436361
 20
532.051175145079
 30
0
 11
1049.024511454566
 21
504.424242424182
 31
0
  0
LINE
  8
1
 62
3
 10
1049.024511454566
 20
504.424242424182
 30
0
 11
1054.25970414855
 21
504.424242424182
 31
0
  0
LINE
  8
1
 62
3
 10
1054.25970414855
 20
504.424242424182
 30
0
 11
1061.028519130356
 21
532.051175145079
 31
0
  0
LINE
  8
1
 62
3
 10
1059.457961322147
 20
500
 30
0
 11
1041.658306162558
 21
500
 31
0
  0
LINE
  8
1
 62
3
 10
1061.028519130356
 20
532.051175145079
 30
0
 11
1067.310750363163
 21
532.051175145079
 31
0
  0
LINE
  8
1
 62
3
 10
1067.310750363163
 20
532.051175145079
 30
0
 11
1059.457961322147
 21
500
 31
0
  0
LINE
  8
1
 62
3
 10
1088.251521139097
 20
532.051175145079
 30
0
 11
1071.498904518325
 21
532.051175145079
 31
0
  0
LINE
  8
1
 62
3
 10
1071.498904518325
 20
532.051175145079
 30
0
 11
1066.898037654934
 21
513.2727272727971
 31
0
  0
LINE
  8
1
 62
3
 10
1066.898037654934
 20
513.2727272727971
 30
0
 11
1077.3684230429
 21
513.2727272727971
 31
0
  0
LINE
  8
1
 62
3
 10
1077.3684230429
 20
513.2727272727971
 30
0
 11
1075.200474924481
 21
504.424242424182
 31
0
  0
LINE
  8
1
 62
3
 10
1075.200474924481
 20
504.424242424182
 30
0
 11
1064.73008953657
 21
504.424242424182
 31
0
  0
LINE
  8
1
 62
3
 10
1064.73008953657
 20
504.424242424182
 30
0
 11
1063.646115477263
 21
500
 31
0
  0
LINE
  8
1
 62
3
 10
1063.646115477263
 20
500
 30
0
 11
1080.398732098086
 21
500
 31
0
  0
LINE
  8
1
 62
3
 10
1080.398732098086
 20
500
 30
0
 11
1084.73462833501
 21
517.6969696969529
 31
0
  0
LINE
  8
1
 62
3
 10
1084.73462833501
 20
517.6969696969529
 30
0
 11
1074.264242946946
 21
517.6969696969529
 31
0
  0
LINE
  8
1
 62
3
 10
1074.264242946946
 20
517.6969696969529
 30
0
 11
1076.697161691959
 21
527.626932720839
 31
0
  0
LINE
  8
1
 62
3
 10
1076.697161691959
 20
527.626932720839
 30
0
 11
1087.167547079939
 21
527.626932720839
 31
0
  0
LINE
  8
1
 62
3
 10
1087.167547079939
 20
527.626932720839
 30
0
 11
1088.251521139097
 21
532.051175145079
 31
0
  0
LINE
  8
1
 62
3
 10
1106.482356767105
 20
520.990569084413
 30
0
 11
1109.192291915035
 21
532.051175145079
 31
0
  0
LINE
  8
1
 62
3
 10
1109.192291915035
 20
532.051175145079
 30
0
 11
1092.439675294315
 21
532.051175145079
 31
0
  0
LINE
  8
1
 62
3
 10
1092.439675294315
 20
532.051175145079
 30
0
 11
1084.586886253321
 21
500
 31
0
  0
LINE
  8
1
 62
3
 10
1084.586886253321
 20
500
 30
0
 11
1101.339502874075
 21
500
 31
0
  0
LINE
  8
1
 62
3
 10
1101.339502874075
 20
500
 30
0
 11
1104.049438022049
 21
511.0606060606081
 31
0
  0
LINE
  8
1
 62
3
 10
1104.049438022049
 20
511.0606060606081
 30
0
 11
1097.767206789261
 21
511.0606060606081
 31
0
  0
LINE
  8
1
 62
3
 10
1097.767206789261
 20
511.0606060606081
 30
0
 11
1096.141245700474
 21
504.424242424182
 31
0
  0
LINE
  8
1
 62
3
 10
1096.141245700474
 20
504.424242424182
 30
0
 11
1091.953091545271
 21
504.424242424182
 31
0
  0
LINE
  8
1
 62
3
 10
1091.953091545271
 20
504.424242424182
 30
0
 11
1097.637932467901
 21
527.626932720839
 31
0
  0
LINE
  8
1
 62
3
 10
1097.637932467901
 20
527.626932720839
 30
0
 11
1101.826086623093
 21
527.626932720839
 31
0
  0
LINE
  8
1
 62
3
 10
1101.826086623093
 20
527.626932720839
 30
0
 11
1100.200125534299
 21
520.990569084413
 31
0
  0
LINE
  8
1
 62
3
 10
1100.200125534299
 20
520.990569084413
 30
0
 11
1106.482356767105
 21
520.990569084413
 31
0
  0
LINE
  8
1
 62
3
 10
1105.527657029256
 20
500
 30
0
 11
1111.809888262044
 21
500
 31
0
  0
LINE
  8
1
 62
3
 10
1122.280273650119
 20
500
 30
0
 11
1130.133062691134
 21
532.051175145079
 31
0
  0
LINE
  8
1
 62
3
 10
1115.998042417222
 20
500
 30
0
 11
1119.382449908117
 21
513.813466360341
 31
0
  0
LINE
  8
1
 62
3
 10
1111.809888262044
 20
500
 30
0
 11
1115.194295752929
 21
513.813466360341
 31
0
  0
LINE
  8
1
 62
3
 10
1113.380446070249
 20
532.051175145079
 30
0
 11
1105.527657029256
 21
500
 31
0
  0
LINE
  8
1
 62
3
 10
1130.133062691134
 20
532.051175145079
 30
0
 11
1123.850831458218
 21
532.051175145079
 31
0
  0
LINE
  8
1
 62
3
 10
1126.468427805245
 20
500
 30
0
 11
1143.221044426053
 21
500
 31
0
  0
LINE
  8
1
 62
3
 10
1138.022787252351
 20
504.424242424182
 30
0
 11
1133.83463309725
 21
504.424242424182
 31
0
  0
LINE
  8
1
 62
3
 10
1134.321216846242
 20
532.051175145079
 30
0
 11
1126.468427805245
 21
500
 31
0
  0
LINE
  8
1
 62
3
 10
1133.83463309725
 20
504.424242424182
 30
0
 11
1139.519474019825
 21
527.626932720839
 31
0
  0
LINE
  8
1
 62
3
 10
1151.073833467072
 20
532.051175145079
 30
0
 11
1134.321216846242
 21
532.051175145079
 31
0
  0
LINE
  8
1
 62
3
 10
1139.519474019825
 20
527.626932720839
 30
0
 11
1143.707628175075
 21
527.626932720839
 31
0
  0
LINE
  8
1
 62
3
 10
1143.707628175075
 20
527.626932720839
 30
0
 11
1138.022787252351
 21
504.424242424182
 31
0
  0
LINE
  8
1
 62
3
 10
1151.073833467072
 20
532.051175145079
 30
0
 11
1143.221044426053
 21
500
 31
0
  0
LINE
  8
1
 62
3
 10
1119.662677303114
 20
532.051175145079
 30
0
 11
1113.380446070249
 21
532.051175145079
 31
0
  0
LINE
  8
1
 62
3
 10
1115.998042417222
 20
500
 30
0
 11
1122.280273650119
 21
500
 31
0
  0
LINE
  8
1
 62
3
 10
1115.194295752929
 20
513.813466360341
 30
0
 11
1119.382449908117
 21
513.813466360341
 31
0
  0
LINE
  8
1
 62
3
 10
1116.278269812098
 20
518.2377087845271
 30
0
 11
1120.466423967337
 21
518.2377087845271
 31
0
  0
LINE
  8
1
 62
3
 10
1116.278269812098
 20
518.2377087845271
 30
0
 11
1119.662677303114
 21
532.051175145079
 31
0
  0
LINE
  8
1
 62
3
 10
1120.466423967337
 20
518.2377087845271
 30
0
 11
1123.850831458218
 21
532.051175145079
 31
0
  0
LINE
  8
1
 62
3
 10
1085.435399998668
 20
548.7622048583319
 30
0
 11
1084.70331722972
 21
547.978447872363
 31
0
  0
LINE
  8
1
 62
3
 10
1084.998720317101
 20
546.979895810782
 30
0
 11
1084.70331722972
 21
547.978447872363
 31
0
  0
ARC
  8
1
 62
3
 10
1193.185083639379
 20
549.3622336822259
 30
0
 40
1.391870091328397
 50
358.7013873342735
 51
66.54486649403694
  0
ARC
  8
1
 62
3
 10
1192.459690452889
 20
549.0530393898221
 30
0
 40
1.155889798231882
 50
0.985058170484967
 51
82.91825463293205
  0
ARC
  8
1
 62
3
 10
1192.534873091085
 20
552.264025930551
 30
0
 40
1.257687287767183
 50
285.1995809529328
 51
80.93139523879833
  0
ARC
  8
1
 62
3
 10
1192.613190917099
 20
552.3039199213811
 30
0
 40
2.00979800886174
 50
304.0700115354277
 51
86.29788871825861
  0
CIRCLE
  8
1
 62
3
 10
1192.40637208572
 20
550.878787878755
 30
0
 40
5.530127989695984
  0
CIRCLE
  8
1
 62
3
 10
1192.40637208572
 20
550.878787878755
 30
0
 40
5.972862778753957
  0
ENDBLK
  8
0
  0
BLOCK
  8
0
  2
WANNE_PICCOLO_DUO
 70
0
 10
1148.67117399999
 20
-55.75790099999995
 30
0
  0
LINE
  8
1
 62
7
 10
1043.714189
 20
779.8804769999999
 30
0
 11
1024.798213999999
 21
836.7901890000001
 31
0
  0
LINE
  8
1
 62
7
 10
940.802805
 20
203.0296309999999
 30
0
 11
920.2262969999999
 21
264.935144
 31
0
  0
LINE
  8
1
 62
7
 10
334.883424285204
 20
233.965476089099
 30
0
 11
911.741615187475
 21
270.5291317288247
 31
0
  0
LINE
  8
1
 62
7
 10
314.9071519999993
 20
743.2131730000001
 30
0
 11
1042.479542
 21
772.1915260000001
 31
0
  0
LINE
  8
1
 62
7
 10
569.570560527543
 20
259.1816514092402
 30
0
 11
944.856040041461
 21
287.8467595276479
 31
0
  0
LINE
  8
1
 62
7
 10
566.4201969999999
 20
739.2195420000001
 30
0
 11
1086.774298
 21
759.944634
 31
0
  0
LINE
  8
1
 62
7
 10
1660.091928822894
 20
242.7087709482194
 30
0
 11
1699.99999999999
 21
249.9809212055193
 31
0
  0
LINE
  8
1
 62
7
 10
1699.99999999999
 20
900
 30
0
 11
1699.99999999999
 21
249.9809212055193
 31
0
  0
LINE
  8
1
 62
7
 10
-4.547473508864641e-013
 20
100.041522771533
 30
0
 11
0
 21
900
 31
0
  0
LINE
  8
1
 62
7
 10
0
 20
900
 30
0
 11
1699.99999999999
 21
900
 31
0
  0
LINE
  8
1
 62
7
 10
382.0658869561662
 20
815.9435258858871
 30
0
 11
1229.280077992766
 21
849.687071047513
 31
0
  0
LINE
  8
MITTELLINIEN
 62
3
  6
DASHDOT
 10
1244.99999999999
 20
154.3219809999991
 30
0
 11
1244.99999999999
 21
283.9899549999991
 31
0
  0
LINE
  8
MITTELLINIEN
 62
3
  6
DASHDOT
 10
1310.678019000003
 20
220
 30
0
 11
1181.010044999992
 21
220
 31
0
  0
ARC
  8
1
 62
7
 10
1245.000000000102
 20
454.9999999999529
 30
0
 40
394.9999999999955
 50
270
 51
0
  0
ARC
  8
1
 62
7
 10
395.0000000001755
 20
491.200999074623
 30
0
 40
324.9999999999995
 50
180
 51
272.2117795664134
  0
ARC
  8
1
 62
7
 10
1245.000000000102
 20
454.9999999999529
 30
0
 40
394.999999999995
 50
0
 51
90
  0
ARC
  8
1
 62
7
 10
1245.000000000102
 20
454.9999999999529
 30
0
 40
394.9999999999951
 50
90
 51
92.28081799795375
  0
ARC
  8
1
 62
7
 10
1245.000000000025
 20
454.9999999999691
 30
0
 40
454.9999999999973
 50
270
 51
330.0934238002469
  0
ARC
  8
1
 62
7
 10
912.6990134019361
 20
260.5750679232092
 30
0
 40
9.999999879365614
 50
30.33132800102572
 51
95.49390262267686
  0
ARC
  8
1
 62
7
 10
1244.999999999991
 20
455.0000000000021
 30
0
 40
374.9999999999932
 50
210.331341000001
 51
121.8070829999989
  0
ARC
  8
1
 62
7
 10
1042.08157449209
 20
782.183587503835
 30
0
 40
9.999983561675135
 50
272.280791925231
 51
301.8071124723208
  0
ARC
  8
1
 62
7
 10
1244.999999999987
 20
455.000000000003
 30
0
 40
343.5499999999916
 50
209.1138810000014
 51
117.4233079999983
  0
ARC
  8
1
 62
7
 10
575.977783325385
 20
499.2529830613689
 30
0
 40
240.1568172366021
 50
92.28081809590081
 51
273.4165352807475
  0
ARC
  8
1
 62
7
 10
904.9646143792349
 20
109.1663166696035
 30
0
 40
30.00000000013325
 50
45.48436368999531
 51
95.35314114386016
  0
ARC
  8
1
 62
7
 10
1245.000000000025
 20
454.9999999999691
 30
0
 40
454.9999999999977
 50
225.4843636898748
 51
270
  0
ARC
  8
1
 62
7
 10
1665.41717138475
 20
213.1851906833745
 30
0
 40
29.99999999995571
 50
100.224646346104
 51
150.0934238002858
  0
ARC
  8
1
 62
7
 10
63.58178356618964
 20
9084.781361556697
 30
0
 40
8984.964808715431
 50
269.594545072249
 51
275.3553192286088
  0
ARC
  8
1
 62
7
 10
62.51916025750552
 20
9099.782850413014
 30
0
 40
8939.99999999934
 50
272.2117795664112
 51
275.6041714929767
  0
ARC
  8
1
 62
7
 10
936.534617152817
 20
192.5612307889687
 30
0
 40
10.0000000001255
 50
40.39075100747221
 51
95.60417149283356
  0
ARC
  8
1
 62
7
 10
1245.000000000102
 20
454.9999999999529
 30
0
 40
394.999999999996
 50
220.390751007471
 51
270
  0
ARC
  8
1
 62
7
 10
395.0000000001755
 20
491.200999074623
 30
0
 40
324.9999999999997
 50
92.28081799795365
 51
180
  0
CIRCLE
  8
WANNE
 62
7
 10
1244.999999999996
 20
220
 30
0
 40
45
  0
CIRCLE
  8
WANNE
 62
7
 10
1244.999999999996
 20
220
 30
0
 40
26
  0
POLYLINE
  8
1
 62
7
 66
1
 70
1
  0
VERTEX
  8
1
 10
1219.118093331506
 20
90.82335690918976
 30
0
 42
-0.02209105697573578
  0
VERTEX
  8
1
 10
1219.465220715016
 20
91.38225047577907
 30
0
 42
-0.09338165815967199
  0
VERTEX
  8
1
 10
1220.567991859557
 20
92.23991740692347
 30
0
 42
-0.05167804320363336
  0
VERTEX
  8
1
 10
1221.506424122796
 20
92.72705201298547
 30
0
 42
-0.003999736595765625
  0
VERTEX
  8
1
 10
1222.625904947979
 20
93.18282380042122
 30
0
 42
-0.02666652292549374
  0
VERTEX
  8
1
 10
1225.082844478897
 20
93.93323824253503
 30
0
 42
-0.02058096091107105
  0
VERTEX
  8
1
 10
1226.678785706846
 20
94.30959920256618
 30
0
 42
-0.001030968715813987
  0
VERTEX
  8
1
 10
1228.404597988702
 20
94.6484375249068
 30
0
 42
-0.0138675148925039
  0
VERTEX
  8
1
 10
1231.99999999999
 20
95.19006702330633
 30
0
 42
-0.01220530542026198
  0
VERTEX
  8
1
 10
1234.051332291536
 20
95.42103134588689
 30
0
 42
-0.0003169332994442887
  0
VERTEX
  8
1
 10
1236.171446191556
 20
95.60985392576453
 30
0
 42
-0.01015171210917965
  0
VERTEX
  8
1
 10
1240.48514738065
 20
95.85881164945862
 30
0
 42
-0.009638911641081936
  0
VERTEX
  8
1
 10
1242.742160380538
 20
95.92318942493677
 30
0
 42
-0.009368702499257271
  0
VERTEX
  8
1
 10
1247.257839619442
 20
95.92318942493699
 30
0
 42
-0.0001414620315959431
  0
VERTEX
  8
1
 10
1249.51485261933
 20
95.85881164945897
 30
0
 42
-0.009854529252262545
  0
VERTEX
  8
1
 10
1253.828553808424
 20
95.60985392576457
 30
0
 42
-0.01019563988223405
  0
VERTEX
  8
1
 10
1255.948667708444
 20
95.4210313458869
 30
0
 42
-0.0005782055588361061
  0
VERTEX
  8
1
 10
1257.99999999999
 20
95.19006702330636
 30
0
 42
-0.01298799223266492
  0
VERTEX
  8
1
 10
1261.595402011278
 20
94.64843752490685
 30
0
 42
-0.0142065368172004
  0
VERTEX
  8
1
 10
1263.321214293134
 20
94.30959920256643
 30
0
 42
-0.001914347541114835
  0
VERTEX
  8
1
 10
1264.917155521084
 20
93.93323824253538
 30
0
 42
-0.02366932192523895
  0
VERTEX
  8
1
 10
1267.374095052001
 20
93.18282380042128
 30
0
 42
-0.02774535167543977
  0
VERTEX
  8
1
 10
1268.493575877184
 20
92.72705201298547
 30
0
 42
-0.008645923015493509
  0
VERTEX
  8
1
 10
1269.432008140423
 20
92.23991740692355
 30
0
 42
-0.07884513163336428
  0
VERTEX
  8
1
 10
1270.534779284963
 20
91.3822504757794
 30
0
 42
-0.1047748947403424
  0
VERTEX
  8
1
 10
1270.881906668474
 20
90.82335690918995
 30
0
 42
-0.2222678633929738
  0
VERTEX
  8
1
 10
1270.881906668474
 20
89.80533109081003
 30
0
 42
-0.02209105697561713
  0
VERTEX
  8
1
 10
1270.534779284963
 20
89.24643752422071
 30
0
 42
-0.09338165815972234
  0
VERTEX
  8
1
 10
1269.432008140423
 20
88.38877059307633
 30
0
 42
-0.05167804320302611
  0
VERTEX
  8
1
 10
1268.493575877184
 20
87.90163598701432
 30
0
 42
-0.003999736595770419
  0
VERTEX
  8
1
 10
1267.374095052001
 20
87.44586419957851
 30
0
 42
-0.02666652292547363
  0
VERTEX
  8
1
 10
1264.917155521084
 20
86.69544975746442
 30
0
 42
-0.02058096091074707
  0
VERTEX
  8
1
 10
1263.321214293134
 20
86.31908879743335
 30
0
 42
-0.001030968715841312
  0
VERTEX
  8
1
 10
1261.595402011278
 20
85.98025047509293
 30
0
 42
-0.0138675148925125
  0
VERTEX
  8
1
 10
1257.99999999999
 20
85.43862097669349
 30
0
 42
-0.01220530542033851
  0
VERTEX
  8
1
 10
1255.948667708444
 20
85.20765665411311
 30
0
 42
-0.0003169332994272492
  0
VERTEX
  8
1
 10
1253.828553808424
 20
85.01883407423554
 30
0
 42
-0.01015171210919861
  0
VERTEX
  8
1
 10
1249.51485261933
 20
84.76987635054093
 30
0
 42
-0.009638911642151875
  0
VERTEX
  8
1
 10
1247.257839619443
 20
84.70549857506302
 30
0
 42
-0.009368702499185224
  0
VERTEX
  8
1
 10
1242.742160380538
 20
84.70549857506302
 30
0
 42
-0.000141462031587745
  0
VERTEX
  8
1
 10
1240.48514738065
 20
84.76987635054087
 30
0
 42
-0.009854529252280263
  0
VERTEX
  8
1
 10
1236.171446191556
 20
85.01883407423522
 30
0
 42
-0.01019563988246144
  0
VERTEX
  8
1
 10
1234.051332291536
 20
85.2076566541129
 30
0
 42
-0.0005782055588432694
  0
VERTEX
  8
1
 10
1231.99999999999
 20
85.43862097669344
 30
0
 42
-0.01298799223266151
  0
VERTEX
  8
1
 10
1228.404597988702
 20
85.98025047509297
 30
0
 42
-0.01420653681599259
  0
VERTEX
  8
1
 10
1226.678785706846
 20
86.31908879743361
 30
0
 42
-0.001914347541246997
  0
VERTEX
  8
1
 10
1225.082844478897
 20
86.69544975746476
 30
0
 42
-0.02366932192524696
  0
VERTEX
  8
1
 10
1222.625904947979
 20
87.44586419957854
 30
0
 42
-0.02774535167524347
  0
VERTEX
  8
1
 10
1221.506424122797
 20
87.90163598701432
 30
0
 42
-0.008645923015408039
  0
VERTEX
  8
1
 10
1220.567991859557
 20
88.38877059307633
 30
0
 42
-0.0788451316332633
  0
VERTEX
  8
1
 10
1219.465220715016
 20
89.24643752422072
 30
0
 42
-0.1047748947408306
  0
VERTEX
  8
1
 10
1219.118093331506
 20
89.80533109081004
 30
0
 42
-0.2222678633926493
  0
VERTEX
  8
1
 10
1219.118093331506
 20
90.82335690918973
 30
0
  0
SEQEND
  8
1
  0
ENDBLK
  8
0
  0
ENDSEC
  0
SECTION
  2
ENTITIES
  0
TEXT
  8
1
 62
2
 10
843.35699999999
 20
425.0000000000002
 30
0
 40
35
  1
PICCOLO Duo links
 41
0.5993999999999999
 72
2
 11
1199.99999999999
 21
425.0000000000002
 31
0
  0
TEXT
  8
1
 62
3
 10
1294.99999999999
 20
270
 30
0
 40
35
  1
Ö 52
 41
0.5993999999999999
  0
INSERT
  8
0
  2
DLX
 10
1019.670496847783
 20
500
 30
0
  0
INSERT
  8
0
  2
WANNE_PICCOLO_DUO
 10
1148.67117399999
 20
-55.75790099999995
 30
0
  0
ENDSEC
  0
EOF
