  0
SECTION
  2
HEADER
  9
$ACADVER
  1
AC1014
  9
$ACADMAINTVER
 70
           0
  9
$DWGCODEPAGE
  3
ANSI_1252
  9
$INSBASE
 10
0.0
 20
0.0
 30
0.0
  9
$EXTMIN
 10
1.000000000000E+20
 20
1.000000000000E+20
 30
1.000000000000E+20
  9
$EXTMAX
 10
-1.000000000000E+20
 20
-1.000000000000E+20
 30
-1.000000000000E+20
  9
$LIMMIN
 10
0.0
 20
0.0
  9
$LIMMAX
 10
0.0
 20
0.0
  9
$ORTHOMODE
 70
           0
  9
$REGENMODE
 70
           1
  9
$FILLMODE
 70
           1
  9
$QTEXTMODE
 70
           0
  9
$MIRRTEXT
 70
           1
  9
$DRAGMODE
 70
           2
  9
$LTSCALE
 40
1.0
  9
$OSMODE
 70
           0
  9
$ATTMODE
 70
           1
  9
$TEXTSIZE
 40
0.2
  9
$TRACEWID
 40
0.05
  9
$TEXTSTYLE
  7
STANDARD
  9
$CLAYER
  8
0
  9
$CELTYPE
  6
CONTINUOUS
  9
$CECOLOR
 62
         256
  9
$CELTSCALE
 40
1.0
  9
$DELOBJ
 70
           1
  9
$DISPSILH
 70
           0
  9
$DIMSCALE
 40
1.0
  9
$DIMASZ
 40
0.18
  9
$DIMEXO
 40
0.0625
  9
$DIMDLI
 40
0.38
  9
$DIMRND
 40
0.0
  9
$DIMDLE
 40
0.0
  9
$DIMEXE
 40
0.18
  9
$DIMTP
 40
0.0
  9
$DIMTM
 40
0.0
  9
$DIMTXT
 40
0.18
  9
$DIMCEN
 40
0.09
  9
$DIMTSZ
 40
0.0
  9
$DIMTOL
 70
           0
  9
$DIMLIM
 70
           0
  9
$DIMTIH
 70
           1
  9
$DIMTOH
 70
           1
  9
$DIMSE1
 70
           0
  9
$DIMSE2
 70
           0
  9
$DIMTAD
 70
           0
  9
$DIMZIN
 70
           0
  9
$DIMBLK
  1

  9
$DIMASO
 70
           1
  9
$DIMSHO
 70
           1
  9
$DIMPOST
  1

  9
$DIMAPOST
  1

  9
$DIMALT
 70
           0
  9
$DIMALTD
 70
           2
  9
$DIMALTF
 40
25.4
  9
$DIMLFAC
 40
1.0
  9
$DIMTOFL
 70
           0
  9
$DIMTVP
 40
0.0
  9
$DIMTIX
 70
           0
  9
$DIMSOXD
 70
           0
  9
$DIMSAH
 70
           0
  9
$DIMBLK1
  1

  9
$DIMBLK2
  1

  9
$DIMSTYLE
  2
STANDARD
  9
$DIMCLRD
 70
           0
  9
$DIMCLRE
 70
           0
  9
$DIMCLRT
 70
           0
  9
$DIMTFAC
 40
1.0
  9
$DIMGAP
 40
0.09
  9
$DIMJUST
 70
           0
  9
$DIMSD1
 70
           0
  9
$DIMSD2
 70
           0
  9
$DIMTOLJ
 70
           1
  9
$DIMTZIN
 70
           0
  9
$DIMALTZ
 70
           0
  9
$DIMALTTZ
 70
           0
  9
$DIMFIT
 70
           3
  9
$DIMUPT
 70
           0
  9
$DIMUNIT
 70
           2
  9
$DIMDEC
 70
           4
  9
$DIMTDEC
 70
           4
  9
$DIMALTU
 70
           2
  9
$DIMALTTD
 70
           2
  9
$DIMTXSTY
  7
STANDARD
  9
$DIMAUNIT
 70
           0
  9
$LUNITS
 70
           2
  9
$LUPREC
 70
           4
  9
$SKETCHINC
 40
0.1
  9
$FILLETRAD
 40
0.0
  9
$AUNITS
 70
           0
  9
$AUPREC
 70
           0
  9
$MENU
  1
acad
  9
$ELEVATION
 40
0.0
  9
$PELEVATION
 40
0.0
  9
$THICKNESS
 40
0.0
  9
$LIMCHECK
 70
           0
  9
$BLIPMODE
 70
           1
  9
$CHAMFERA
 40
0.0
  9
$CHAMFERB
 40
0.0
  9
$CHAMFERC
 40
0.0
  9
$CHAMFERD
 40
0.0
  9
$SKPOLY
 70
           0
  9
$TDCREATE
 40
0.000000000
  9
$TDUPDATE
 40
0.000000000
  9
$TDINDWG
 40
0.0000000000
  9
$TDUSRTIMER
 40
0.0000000000
  9
$USRTIMER
 70
           1
  9
$ANGBASE
 50
0.0
  9
$ANGDIR
 70
           0
  9
$PDMODE
 70
           0
  9
$PDSIZE
 40
0.0
  9
$PLINEWID
 40
0.0
  9
$COORDS
 70
           0
  9
$SPLFRAME
 70
           0
  9
$SPLINETYPE
 70
           6
  9
$SPLINESEGS
 70
           8
  9
$ATTDIA
 70
           0
  9
$ATTREQ
 70
           1
  9
$HANDLING
 70
           1
  9
$HANDSEED
  5
101
  9
$SURFTAB1
 70
           6
  9
$SURFTAB2
 70
           6
  9
$SURFTYPE
 70
           6
  9
$SURFU
 70
           6
  9
$SURFV
 70
           6
  9
$UCSNAME
  2

  9
$UCSORG
 10
0.0
 20
0.0
 30
0.0
  9
$UCSXDIR
 10
1.0
 20
0.0
 30
0.0
  9
$UCSYDIR
 10
0.0
 20
1.0
 30
0.0
  9
$PUCSNAME
  2

  9
$PUCSORG
 10
0.0
 20
0.0
 30
0.0
  9
$PUCSXDIR
 10
1.0
 20
0.0
 30
0.0
  9
$PUCSYDIR
 10
0.0
 20
1.0
 30
0.0
  9
$USERI1
 70
           0
  9
$USERI2
 70
           0
  9
$USERI3
 70
           0
  9
$USERI4
 70
           0
  9
$USERI5
 70
           0
  9
$USERR1
 40
0.0
  9
$USERR2
 40
0.0
  9
$USERR3
 40
0.0
  9
$USERR4
 40
0.0
  9
$USERR5
 40
0.0
  9
$WORLDVIEW
 70
           1
  9
$SHADEDGE
 70
           3
  9
$SHADEDIF
 70
          70
  9
$TILEMODE
 70
           1
  9
$MAXACTVP
 70
          16
  9
$PINSBASE
 10
0.0
 20
0.0
 30
0.0
  9
$PLIMCHECK
 70
           0
  9
$PEXTMIN
 10
1.000000000000E+20
 20
1.000000000000E+20
 30
1.000000000000E+20
  9
$PEXTMAX
 10
-1.000000000000E+20
 20
-1.000000000000E+20
 30
-1.000000000000E+20
  9
$PLIMMIN
 10
0.0
 20
0.0
  9
$PLIMMAX
 10
12.0
 20
9.0
  9
$UNITMODE
 70
           0
  9
$VISRETAIN
 70
           0
  9
$PLINEGEN
 70
           1
  9
$PSLTSCALE
 70
           0
  9
$TREEDEPTH
 70
        3020
  9
$PICKSTYLE
 70
           1
  9
$CMLSTYLE
  2
STANDARD
  9
$CMLJUST
 70
           0
  9
$CMLSCALE
 40
1.0
  9
$PROXYGRAPHICS
 70
           0
  9
$MEASUREMENT
 70
           0
  0
ENDSEC
  0
SECTION
  2
CLASSES
  0
CLASS
  1
LWPOLYLINE
  2
AcDbPolyline
  3
"AutoCAD"
 90
        0
280
           0
281
           1
  0
CLASS
  1
IMAGE
  2
AcDbRasterImage
  3
ISM
 90
      127
280
           0
281
           1
  0
CLASS
  1
OLE2FRAME
  2
AcDbOle2Frame
  3
""
 90
        0
280
           0
281
           1
  0
CLASS
  1
HATCH
  2
AcDbHatch
  3
"ACAD_SEDONA"
 90
        0
280
           0
281
           1
  0
CLASS
  1
DICTIONARYVAR
  2
AcDbDictionaryVar
  3
"AutoCAD"
 90
        0
280
           0
281
           0
  0
CLASS
  1
RASTERVARIABLES
  2
AcDbRasterVariables
  3
ISM
 90
        0
280
           0
281
           0
  0
CLASS
  1
IMAGEDEF
  2
AcDbRasterImageDef
  3
ISM
 90
        0
280
           0
281
           0
  0
CLASS
  1
IMAGEDEF_REACTOR
  2
AcDbRasterImageDefReactor
  3
ISM
 90
        1
280
           0
281
           0
  0
CLASS
  1
IDBUFFER
  2
AcDbIdBuffer
  3
"Acad"
 90
        0
280
           0
281
           0
  0
CLASS
  1
SPATIAL_FILTER
  2
AcDbSpatialFilter
  3
"Acad"
 90
        0
280
           0
281
           0
  0
CLASS
  1
XRECORD
  2
AcDbXrecord
  3
"<Built In>"
 90
        0
280
           0
281
           0
  0
CLASS
  1
SORTENTSTABLE
  2
AcDbSortentsTable
  3
"AutoCAD"
 90
        0
280
           0
281
           0
  0
CLASS
  1
LAYER_INDEX
  2
AcDbLayerIndex
  3
"Acad"
 90
        0
280
           0
281
           0
  0
CLASS
  1
SPATIAL_INDEX
  2
AcDbSpatialIndex
  3
"Acad"
 90
        0
280
           0
281
           0
  0
CLASS
  1
OBJECT_PTR
  2
CAseDLPNTableRecord
  3
"ASE-LPNTableRecord"
 90
        1
280
           0
281
           0
  0
CLASS
  1
LAYOUT
  2
AcDbLayout
  3
"AutoCAD 2000"
 90
        1
280
           0
281
           0
  0
CLASS
  1
PLOTSETTINGS
  2
AcDbPlotSettings
  3
"AutoCAD 2000"
 90
        1
280
           0
281
           0
  0
CLASS
  1
ACDBDICTIONARYWDFLT
  2
AcDbDictionaryWithDefault
  3
"AutoCAD 2000"
 90
        1
280
           0
281
           0
  0
CLASS
  1
ACDBPLACEHOLDER
  2
AcDbPlaceHolder
  3
"AutoCAD 2000"
 90
        1
280
           0
281
           0
  0
CLASS
  1
VBA_PROJECT
  2
AcDbVbaProject
  3
"acadvba"
 90
        1
280
           0
281
           0
  0
CLASS
  1
WIPEOUT
  2
AcDbWipeout
  3
WipeOut|AutoCAD Express Tool|expresstools@autodesk.com
 90
      127
280
           0
281
           1
  0
CLASS
  1
WIPEOUTVARIABLES
  2
AcDbWipeoutVariables
  3
WipeOut|AutoCAD Express Tool|expresstools@autodesk.com
 90
        0
280
           0
281
           0
  0
CLASS
  1
RTEXT
  2
RText
  3
RText|AutoCAD Express Tool|expresstools@autodesk.com
 90
        0
280
           0
281
           1
  0
CLASS
  1
ARCALIGNEDTEXT
  2
AcDbArcAlignedText
  3
ATEXT|AutoCAD Express Tool|expresstools@autodesk.com
 90
        0
280
           0
281
           1
  0
ENDSEC
  0
SECTION
  2
TABLES
  0
TABLE
  2
VPORT
  5
7
100
AcDbSymbolTable
 70
           1
  0
VPORT
  5
15
100
AcDbSymbolTableRecord
100
AcDbViewportTableRecord
  2
*ACTIVE
 70
           0
 10
0.0
 20
0.0
 11
1.0
 21
1.0
 12
6.591288
 22
4.579184
 13
0.0
 23
0.0
 14
1.0
 24
1.0
 15
0.0
 25
0.0
 16
0.0
 26
0.0
 36
1.0
 17
0.0
 27
0.0
 37
0.0
 40
9.158369
 41
0.688564
 42
50.0
 43
0.0
 44
0.0
 50
0.0
 51
0.0
 71
           0
 72
         100
 73
           1
 74
           1
 75
           0
 76
           0
 77
           0
 78
           0
  0
ENDTAB
  0
TABLE
  2
LTYPE
  5
4
100
AcDbSymbolTable
 70
          10
  0
LTYPE
  5
11
100
AcDbSymbolTableRecord
100
AcDbLinetypeTableRecord
  2
BYBLOCK
 70
          64
  3

 72
          65
 73
           0
 40
0.0
  0
LTYPE
  5
12
100
AcDbSymbolTableRecord
100
AcDbLinetypeTableRecord
  2
BYLAYER
 70
          64
  3

 72
          65
 73
           0
 40
0.0
  0
LTYPE
  5
13
100
AcDbSymbolTableRecord
100
AcDbLinetypeTableRecord
  2
CONTINUOUS
 70
          64
  3
Solid line
 72
          65
 73
           0
 40
0.0
  0
LTYPE
  5
1D
100
AcDbSymbolTableRecord
100
AcDbLinetypeTableRecord
  2
DASHED
 70
          64
  3
Dashed
 72
          65
 73
           2
 40
15.0
 49
12.0
 74
           0
 49
-3.0
 74
           0
  0
LTYPE
  5
1E
100
AcDbSymbolTableRecord
100
AcDbLinetypeTableRecord
  2
DOTTED
 70
          64
  3
Dotted
 72
          65
 73
           2
 40
3.5
 49
0.5
 74
           0
 49
-3.0
 74
           0
  0
LTYPE
  5
1F
100
AcDbSymbolTableRecord
100
AcDbLinetypeTableRecord
  2
DOT_CENTER
 70
          64
  3
Dot_Center
 72
          65
 73
           4
 40
2.0
 49
1.25
 74
           0
 49
-0.25
 74
           0
 49
0.25
 74
           0
 49
-0.25
 74
           0
  0
LTYPE
  5
20
100
AcDbSymbolTableRecord
100
AcDbLinetypeTableRecord
  2
LONG_DASHED
 70
          64
  3
Long_Dashed
 72
          65
 73
           2
 40
2.0
 49
1.5
 74
           0
 49
-0.5
 74
           0
  0
LTYPE
  5
21
100
AcDbSymbolTableRecord
100
AcDbLinetypeTableRecord
  2
DASH_CENTER
 70
          64
  3
Dash_Center
 72
          65
 73
           4
 40
36.0
 49
24.0
 74
           0
 49
-3.0
 74
           0
 49
6.0
 74
           0
 49
-3.0
 74
           0
  0
LTYPE
  5
22
100
AcDbSymbolTableRecord
100
AcDbLinetypeTableRecord
  2
PHANTOM
 70
          64
  3
Phantom
 72
          65
 73
           6
 40
2.5
 49
1.25
 74
           0
 49
-0.25
 74
           0
 49
0.25
 74
           0
 49
-0.25
 74
           0
 49
0.25
 74
           0
 49
-0.25
 74
           0
  0
LTYPE
  5
23
100
AcDbSymbolTableRecord
100
AcDbLinetypeTableRecord
  2
CENTER_DASH_DASH
 70
          64
  3
Center_Dash_Dash
 72
          65
 73
           6
 40
22.0
 49
12.0
 74
           0
 49
-3.0
 74
           0
 49
0.5
 74
           0
 49
-3.0
 74
           0
 49
0.5
 74
           0
 49
-3.0
 74
           0
  0
ENDTAB
  0
TABLE
  2
LAYER
  5
2
100
AcDbSymbolTable
 70
           4
  0
LAYER
  5
14
100
AcDbSymbolTableRecord
100
AcDbLayerTableRecord
  2
0
 70
           0
 62
           7
  6
CONTINUOUS
  0
LAYER
  5
24
100
AcDbSymbolTableRecord
100
AcDbLayerTableRecord
  2
MITTELLINIEN
 70
           0
 62
           7
  6
CONTINUOUS
  0
LAYER
  5
25
100
AcDbSymbolTableRecord
100
AcDbLayerTableRecord
  2
1
 70
           0
 62
           7
  6
CONTINUOUS
  0
LAYER
  5
26
100
AcDbSymbolTableRecord
100
AcDbLayerTableRecord
  2
WANNE
 70
           0
 62
           7
  6
CONTINUOUS
  0
ENDTAB
  0
TABLE
  2
STYLE
  5
3
100
AcDbSymbolTable
 70
           2
  0
STYLE
  5
17
100
AcDbSymbolTableRecord
100
AcDbTextStyleTableRecord
  2
STANDARD
 70
           0
 40
0.0
 41
1.0
 50
0.0
 71
           0
 42
0.0
  3
txt
  4

  0
STYLE
  5
FD
100
AcDbSymbolTableRecord
100
AcDbTextStyleTableRecord
  2
CONVERTER_1
 70
           0
 40
0.0
 41
0.71262
 50
0.0
 71
           0
 42
0.0
  3
txt.shx
  4

  0
ENDTAB
  0
TABLE
  2
VIEW
  5
5
100
AcDbSymbolTable
 70
           0
  0
ENDTAB
  0
TABLE
  2
UCS
  5
6
100
AcDbSymbolTable
 70
           0
  0
ENDTAB
  0
TABLE
  2
APPID
  5
8
100
AcDbSymbolTable
 70
           1
  0
APPID
  5
16
100
AcDbSymbolTableRecord
100
AcDbRegAppTableRecord
  2
ACAD
 70
           0
  0
ENDTAB
  0
TABLE
  2
DIMSTYLE
  5
9
100
AcDbSymbolTable
 70
           1
  0
DIMSTYLE
105
18
100
AcDbSymbolTableRecord
100
AcDbDimStyleTableRecord
  2
STANDARD
 70
           0
  3

  4

  5

  6

  7

 40
1.0
 41
0.18
 42
0.0625
 43
0.38
 44
0.18
 45
0.0
 46
0.0
 47
0.0
 48
0.0
 71
           0
 72
           0
 73
           1
 74
           1
 75
           0
 76
           0
 77
           0
 78
           0
140
0.18
141
0.09
142
0.0
143
25.4
144
1.0
145
0.0
146
1.0
147
0.09
170
           0
171
           2
172
           0
173
           0
174
           0
175
           0
176
           0
177
           0
178
           0
270
           2
271
           4
272
           4
273
           2
274
           2
275
           0
280
           0
281
           0
282
           0
283
           1
284
           0
285
           0
286
           0
287
           0
288
           0
340
17
  0
ENDTAB
  0
TABLE
  2
BLOCK_RECORD
  5
1
100
AcDbSymbolTable
 70
           2
  0
BLOCK_RECORD
  5
A
100
AcDbSymbolTableRecord
100
AcDbBlockTableRecord
  2
*MODEL_SPACE
  0
BLOCK_RECORD
  5
B
100
AcDbSymbolTableRecord
100
AcDbBlockTableRecord
  2
*PAPER_SPACE
  0
BLOCK_RECORD
  5
27
100
AcDbSymbolTableRecord
100
AcDbBlockTableRecord
  2
DLX
  0
BLOCK_RECORD
  5
29
100
AcDbSymbolTableRecord
100
AcDbBlockTableRecord
  2
WANNE_PICCOLO_CITY_164
  0
ENDTAB
  0
ENDSEC
  0
SECTION
  2
BLOCKS
  0
BLOCK
  5
D
100
AcDbEntity
  8
0
100
AcDbBlockBegin
  2
*MODEL_SPACE
 70
           0
 10
0.0
 20
0.0
 30
0.0
  3
*MODEL_SPACE
  1

  0
ENDBLK
  5
E
100
AcDbEntity
  8
0
100
AcDbBlockEnd
  0
BLOCK
  5
F
100
AcDbEntity
 67
           1
  8
0
100
AcDbBlockBegin
  2
*PAPER_SPACE
 70
           0
 10
0.0
 20
0.0
 30
0.0
  3
*PAPER_SPACE
  1

  0
ENDBLK
  5
10
100
AcDbEntity
 67
           1
  8
0
100
AcDbBlockEnd
  0
BLOCK
  5
28
100
AcDbEntity
  8
0
100
AcDbBlockBegin
  2
DLX
 70
           0
 10
0.0
 20
0.0
 30
0.0
  3
DLX
  1

  0
CIRCLE
  5
E2
100
AcDbEntity
  8
1
  6
CONTINUOUS
 62
           3
100
AcDbCircle
 10
1202.40637208573
 20
460.878787878755
 40
5.972862778754
  0
CIRCLE
  5
E1
100
AcDbEntity
  8
1
  6
CONTINUOUS
 62
           3
100
AcDbCircle
 10
1202.40637208573
 20
460.878787878755
 40
5.530127989696
  0
ARC
  5
E0
100
AcDbEntity
  8
1
  6
CONTINUOUS
 62
           3
100
AcDbCircle
 10
1202.613190917109
 20
462.303919921381
 40
2.009798008862
100
AcDbArc
 50
-55.929988464574
 51
86.297888718258
  0
ARC
  5
DF
100
AcDbEntity
  8
1
  6
CONTINUOUS
 62
           3
100
AcDbCircle
 10
1202.534873091095
 20
462.264025930551
 40
1.257687287767
100
AcDbArc
 50
-74.800419047066
 51
80.931395238799
  0
ARC
  5
DE
100
AcDbEntity
  8
1
  6
CONTINUOUS
 62
           3
100
AcDbCircle
 10
1202.459690452899
 20
459.053039389822
 40
1.155889798232
100
AcDbArc
 50
0.985058170482
 51
82.918254632932
  0
ARC
  5
DD
100
AcDbEntity
  8
1
  6
CONTINUOUS
 62
           3
100
AcDbCircle
 10
1203.185083639389
 20
459.362233682226
 40
1.391870091328
100
AcDbArc
 50
-1.298612665726
 51
66.544866494036
  0
LINE
  5
DC
100
AcDbEntity
  8
1
  6
CONTINUOUS
 62
           3
100
AcDbLine
 10
1094.998720317111
 20
456.979895810782
 11
1094.70331722973
 21
457.978447872363
  0
LINE
  5
DB
100
AcDbEntity
  8
1
  6
CONTINUOUS
 62
           3
100
AcDbLine
 10
1095.435399998677
 20
458.762204858332
 11
1094.70331722973
 21
457.978447872363
  0
LINE
  5
DA
100
AcDbEntity
  8
1
  6
CONTINUOUS
 62
           3
100
AcDbLine
 10
1130.466423967347
 20
428.237708784527
 11
1133.850831458228
 21
442.051175145079
  0
LINE
  5
D9
100
AcDbEntity
  8
1
  6
CONTINUOUS
 62
           3
100
AcDbLine
 10
1126.278269812108
 20
428.237708784527
 11
1129.662677303124
 21
442.051175145079
  0
LINE
  5
D8
100
AcDbEntity
  8
1
  6
CONTINUOUS
 62
           3
100
AcDbLine
 10
1126.278269812108
 20
428.237708784527
 11
1130.466423967347
 21
428.237708784527
  0
LINE
  5
D7
100
AcDbEntity
  8
1
  6
CONTINUOUS
 62
           3
100
AcDbLine
 10
1125.194295752939
 20
423.813466360341
 11
1129.382449908127
 21
423.813466360341
  0
LINE
  5
D6
100
AcDbEntity
  8
1
  6
CONTINUOUS
 62
           3
100
AcDbLine
 10
1125.998042417232
 20
410.0
 11
1132.280273650129
 21
410.0
  0
LINE
  5
D5
100
AcDbEntity
  8
1
  6
CONTINUOUS
 62
           3
100
AcDbLine
 10
1129.662677303124
 20
442.051175145079
 11
1123.380446070259
 21
442.051175145079
  0
LINE
  5
D4
100
AcDbEntity
  8
1
  6
CONTINUOUS
 62
           3
100
AcDbLine
 10
1161.073833467082
 20
442.051175145079
 11
1153.221044426063
 21
410.0
  0
LINE
  5
D3
100
AcDbEntity
  8
1
  6
CONTINUOUS
 62
           3
100
AcDbLine
 10
1153.707628175085
 20
437.626932720839
 11
1148.022787252361
 21
414.424242424182
  0
LINE
  5
D2
100
AcDbEntity
  8
1
  6
CONTINUOUS
 62
           3
100
AcDbLine
 10
1149.519474019835
 20
437.626932720839
 11
1153.707628175085
 21
437.626932720839
  0
LINE
  5
D1
100
AcDbEntity
  8
1
  6
CONTINUOUS
 62
           3
100
AcDbLine
 10
1161.073833467082
 20
442.051175145079
 11
1144.321216846252
 21
442.051175145079
  0
LINE
  5
D0
100
AcDbEntity
  8
1
  6
CONTINUOUS
 62
           3
100
AcDbLine
 10
1143.83463309726
 20
414.424242424182
 11
1149.519474019835
 21
437.626932720839
  0
LINE
  5
CF
100
AcDbEntity
  8
1
  6
CONTINUOUS
 62
           3
100
AcDbLine
 10
1144.321216846252
 20
442.051175145079
 11
1136.468427805255
 21
410.0
  0
LINE
  5
CE
100
AcDbEntity
  8
1
  6
CONTINUOUS
 62
           3
100
AcDbLine
 10
1148.022787252361
 20
414.424242424182
 11
1143.83463309726
 21
414.424242424182
  0
LINE
  5
CD
100
AcDbEntity
  8
1
  6
CONTINUOUS
 62
           3
100
AcDbLine
 10
1136.468427805255
 20
410.0
 11
1153.221044426063
 21
410.0
  0
LINE
  5
CC
100
AcDbEntity
  8
1
  6
CONTINUOUS
 62
           3
100
AcDbLine
 10
1140.133062691144
 20
442.051175145079
 11
1133.850831458228
 21
442.051175145079
  0
LINE
  5
CB
100
AcDbEntity
  8
1
  6
CONTINUOUS
 62
           3
100
AcDbLine
 10
1123.380446070259
 20
442.051175145079
 11
1115.527657029266
 21
410.0
  0
LINE
  5
CA
100
AcDbEntity
  8
1
  6
CONTINUOUS
 62
           3
100
AcDbLine
 10
1121.809888262054
 20
410.0
 11
1125.194295752939
 21
423.813466360341
  0
LINE
  5
C9
100
AcDbEntity
  8
1
  6
CONTINUOUS
 62
           3
100
AcDbLine
 10
1125.998042417232
 20
410.0
 11
1129.382449908127
 21
423.813466360341
  0
LINE
  5
C8
100
AcDbEntity
  8
1
  6
CONTINUOUS
 62
           3
100
AcDbLine
 10
1132.280273650129
 20
410.0
 11
1140.133062691144
 21
442.051175145079
  0
LINE
  5
C7
100
AcDbEntity
  8
1
  6
CONTINUOUS
 62
           3
100
AcDbLine
 10
1115.527657029266
 20
410.0
 11
1121.809888262054
 21
410.0
  0
LINE
  5
C6
100
AcDbEntity
  8
1
  6
CONTINUOUS
 62
           3
100
AcDbLine
 10
1110.200125534309
 20
430.990569084413
 11
1116.482356767115
 21
430.990569084413
  0
LINE
  5
C5
100
AcDbEntity
  8
1
  6
CONTINUOUS
 62
           3
100
AcDbLine
 10
1111.826086623103
 20
437.626932720839
 11
1110.200125534309
 21
430.990569084413
  0
LINE
  5
C4
100
AcDbEntity
  8
1
  6
CONTINUOUS
 62
           3
100
AcDbLine
 10
1107.637932467911
 20
437.626932720839
 11
1111.826086623103
 21
437.626932720839
  0
LINE
  5
C3
100
AcDbEntity
  8
1
  6
CONTINUOUS
 62
           3
100
AcDbLine
 10
1101.953091545281
 20
414.424242424182
 11
1107.637932467911
 21
437.626932720839
  0
LINE
  5
C2
100
AcDbEntity
  8
1
  6
CONTINUOUS
 62
           3
100
AcDbLine
 10
1106.141245700484
 20
414.424242424182
 11
1101.953091545281
 21
414.424242424182
  0
LINE
  5
C1
100
AcDbEntity
  8
1
  6
CONTINUOUS
 62
           3
100
AcDbLine
 10
1107.767206789271
 20
421.060606060608
 11
1106.141245700484
 21
414.424242424182
  0
LINE
  5
C0
100
AcDbEntity
  8
1
  6
CONTINUOUS
 62
           3
100
AcDbLine
 10
1114.049438022059
 20
421.060606060608
 11
1107.767206789271
 21
421.060606060608
  0
LINE
  5
BF
100
AcDbEntity
  8
1
  6
CONTINUOUS
 62
           3
100
AcDbLine
 10
1111.339502874085
 20
410.0
 11
1114.049438022059
 21
421.060606060608
  0
LINE
  5
BE
100
AcDbEntity
  8
1
  6
CONTINUOUS
 62
           3
100
AcDbLine
 10
1094.586886253331
 20
410.0
 11
1111.339502874085
 21
410.0
  0
LINE
  5
BD
100
AcDbEntity
  8
1
  6
CONTINUOUS
 62
           3
100
AcDbLine
 10
1102.439675294324
 20
442.051175145079
 11
1094.586886253331
 21
410.0
  0
LINE
  5
BC
100
AcDbEntity
  8
1
  6
CONTINUOUS
 62
           3
100
AcDbLine
 10
1119.192291915045
 20
442.051175145079
 11
1102.439675294324
 21
442.051175145079
  0
LINE
  5
BB
100
AcDbEntity
  8
1
  6
CONTINUOUS
 62
           3
100
AcDbLine
 10
1116.482356767115
 20
430.990569084413
 11
1119.192291915045
 21
442.051175145079
  0
LINE
  5
BA
100
AcDbEntity
  8
1
  6
CONTINUOUS
 62
           3
100
AcDbLine
 10
1097.167547079949
 20
437.626932720839
 11
1098.251521139107
 21
442.051175145079
  0
LINE
  5
B9
100
AcDbEntity
  8
1
  6
CONTINUOUS
 62
           3
100
AcDbLine
 10
1086.697161691969
 20
437.626932720839
 11
1097.167547079949
 21
437.626932720839
  0
LINE
  5
B8
100
AcDbEntity
  8
1
  6
CONTINUOUS
 62
           3
100
AcDbLine
 10
1084.264242946956
 20
427.696969696953
 11
1086.697161691969
 21
437.626932720839
  0
LINE
  5
B7
100
AcDbEntity
  8
1
  6
CONTINUOUS
 62
           3
100
AcDbLine
 10
1094.734628335019
 20
427.696969696953
 11
1084.264242946956
 21
427.696969696953
  0
LINE
  5
B6
100
AcDbEntity
  8
1
  6
CONTINUOUS
 62
           3
100
AcDbLine
 10
1090.398732098096
 20
410.0
 11
1094.734628335019
 21
427.696969696953
  0
LINE
  5
B5
100
AcDbEntity
  8
1
  6
CONTINUOUS
 62
           3
100
AcDbLine
 10
1073.646115477273
 20
410.0
 11
1090.398732098096
 21
410.0
  0
LINE
  5
B4
100
AcDbEntity
  8
1
  6
CONTINUOUS
 62
           3
100
AcDbLine
 10
1074.73008953658
 20
414.424242424182
 11
1073.646115477273
 21
410.0
  0
LINE
  5
B3
100
AcDbEntity
  8
1
  6
CONTINUOUS
 62
           3
100
AcDbLine
 10
1085.200474924491
 20
414.424242424182
 11
1074.73008953658
 21
414.424242424182
  0
LINE
  5
B2
100
AcDbEntity
  8
1
  6
CONTINUOUS
 62
           3
100
AcDbLine
 10
1087.368423042909
 20
423.272727272797
 11
1085.200474924491
 21
414.424242424182
  0
LINE
  5
B1
100
AcDbEntity
  8
1
  6
CONTINUOUS
 62
           3
100
AcDbLine
 10
1076.898037654944
 20
423.272727272797
 11
1087.368423042909
 21
423.272727272797
  0
LINE
  5
B0
100
AcDbEntity
  8
1
  6
CONTINUOUS
 62
           3
100
AcDbLine
 10
1081.498904518335
 20
442.051175145079
 11
1076.898037654944
 21
423.272727272797
  0
LINE
  5
AF
100
AcDbEntity
  8
1
  6
CONTINUOUS
 62
           3
100
AcDbLine
 10
1098.251521139107
 20
442.051175145079
 11
1081.498904518335
 21
442.051175145079
  0
LINE
  5
AE
100
AcDbEntity
  8
1
  6
CONTINUOUS
 62
           3
100
AcDbLine
 10
1077.310750363172
 20
442.051175145079
 11
1069.457961322157
 21
410.0
  0
LINE
  5
AD
100
AcDbEntity
  8
1
  6
CONTINUOUS
 62
           3
100
AcDbLine
 10
1071.028519130366
 20
442.051175145079
 11
1077.310750363172
 21
442.051175145079
  0
LINE
  5
AC
100
AcDbEntity
  8
1
  6
CONTINUOUS
 62
           3
100
AcDbLine
 10
1069.457961322157
 20
410.0
 11
1051.658306162567
 21
410.0
  0
LINE
  5
AB
100
AcDbEntity
  8
1
  6
CONTINUOUS
 62
           3
100
AcDbLine
 10
1064.25970414856
 20
414.424242424182
 11
1071.028519130366
 21
442.051175145079
  0
LINE
  5
AA
100
AcDbEntity
  8
1
  6
CONTINUOUS
 62
           3
100
AcDbLine
 10
1059.024511454576
 20
414.424242424182
 11
1064.25970414856
 21
414.424242424182
  0
LINE
  5
A9
100
AcDbEntity
  8
1
  6
CONTINUOUS
 62
           3
100
AcDbLine
 10
1065.793326436371
 20
442.051175145079
 11
1059.024511454576
 21
414.424242424182
  0
LINE
  5
A8
100
AcDbEntity
  8
1
  6
CONTINUOUS
 62
           3
100
AcDbLine
 10
1059.511095203561
 20
442.051175145079
 11
1065.793326436371
 21
442.051175145079
  0
LINE
  5
A7
100
AcDbEntity
  8
1
  6
CONTINUOUS
 62
           3
100
AcDbLine
 10
1051.658306162567
 20
410.0
 11
1059.511095203561
 21
442.051175145079
  0
LINE
  5
A6
100
AcDbEntity
  8
1
  6
CONTINUOUS
 62
           3
100
AcDbLine
 10
1047.470152007441
 20
410.0
 11
1029.670496847793
 21
410.0
  0
LINE
  5
A5
100
AcDbEntity
  8
1
  6
CONTINUOUS
 62
           3
100
AcDbLine
 10
1058.032876196361
 20
453.111781205662
 11
1047.470152007441
 21
410.0
  0
LINE
  5
A4
100
AcDbEntity
  8
1
  6
CONTINUOUS
 62
           3
100
AcDbLine
 10
1034.059549119068
 20
453.111781205662
 11
1058.032876196361
 21
453.111781205662
  0
LINE
  5
A3
100
AcDbEntity
  8
1
  6
CONTINUOUS
 62
           3
100
AcDbLine
 10
1032.704581545083
 20
447.581478175405
 11
1034.059549119068
 21
453.111781205662
  0
LINE
  5
A2
100
AcDbEntity
  8
1
  6
CONTINUOUS
 62
           3
100
AcDbLine
 10
1050.395677389617
 20
447.581478175405
 11
1032.704581545083
 21
447.581478175405
  0
LINE
  5
A1
100
AcDbEntity
  8
1
  6
CONTINUOUS
 62
           3
100
AcDbLine
 10
1042.271894833735
 20
414.424242424182
 11
1050.395677389617
 21
447.581478175405
  0
LINE
  5
A0
100
AcDbEntity
  8
1
  6
CONTINUOUS
 62
           3
100
AcDbLine
 10
1037.036702139856
 20
414.424242424182
 11
1042.271894833735
 21
414.424242424182
  0
LINE
  5
9F
100
AcDbEntity
  8
1
  6
CONTINUOUS
 62
           3
100
AcDbLine
 10
1043.805517121545
 20
442.051175145079
 11
1037.036702139856
 21
414.424242424182
  0
LINE
  5
9E
100
AcDbEntity
  8
1
  6
CONTINUOUS
 62
           3
100
AcDbLine
 10
1037.523285888848
 20
442.051175145079
 11
1043.805517121545
 21
442.051175145079
  0
LINE
  5
9D
100
AcDbEntity
  8
1
  6
CONTINUOUS
 62
           3
100
AcDbLine
 10
1029.670496847793
 20
410.0
 11
1037.523285888848
 21
442.051175145079
  0
LINE
  5
9C
100
AcDbEntity
  8
1
  6
CONTINUOUS
 62
           3
100
AcDbLine
 10
1164.790178081308
 20
416.19393939391
 11
1173.835338587399
 21
453.111781205662
  0
LINE
  5
9B
100
AcDbEntity
  8
1
  6
CONTINUOUS
 62
           3
100
AcDbLine
 10
1173.835338587399
 20
453.111781205662
 11
1167.971922770131
 21
453.111781205662
  0
LINE
  5
9A
100
AcDbEntity
  8
1
  6
CONTINUOUS
 62
           3
100
AcDbLine
 10
1167.971922770131
 20
453.111781205662
 11
1157.40919858119
 21
410.0
  0
LINE
  5
99
100
AcDbEntity
  8
1
  6
CONTINUOUS
 62
           3
100
AcDbLine
 10
1175.31355759476
 20
442.051175145079
 11
1169.628716672072
 21
418.848484848477
  0
LINE
  5
98
100
AcDbEntity
  8
1
  6
CONTINUOUS
 62
           3
100
AcDbLine
 10
1169.628716672072
 20
418.848484848477
 11
1185.334294753993
 21
418.848484848477
  0
LINE
  5
97
100
AcDbEntity
  8
1
  6
CONTINUOUS
 62
           3
100
AcDbLine
 10
1185.334294753993
 20
418.848484848477
 11
1191.019135676601
 21
442.051175145079
  0
LINE
  5
96
100
AcDbEntity
  8
1
  6
CONTINUOUS
 62
           3
100
AcDbLine
 10
1191.019135676601
 20
442.051175145079
 11
1185.783942982678
 21
442.051175145079
  0
LINE
  5
95
100
AcDbEntity
  8
1
  6
CONTINUOUS
 62
           3
100
AcDbLine
 10
1185.783942982678
 20
442.051175145079
 11
1181.183076119283
 21
423.272727272797
  0
LINE
  5
94
100
AcDbEntity
  8
1
  6
CONTINUOUS
 62
           3
100
AcDbLine
 10
1181.183076119283
 20
423.272727272797
 11
1175.947883425331
 21
423.272727272797
  0
LINE
  5
93
100
AcDbEntity
  8
1
  6
CONTINUOUS
 62
           3
100
AcDbLine
 10
1175.947883425331
 20
423.272727272797
 11
1180.548750288682
 21
442.051175145079
  0
LINE
  5
92
100
AcDbEntity
  8
1
  6
CONTINUOUS
 62
           3
100
AcDbLine
 10
1180.548750288682
 20
442.051175145079
 11
1175.31355759476
 21
442.051175145079
  0
LINE
  5
91
100
AcDbEntity
  8
1
  6
CONTINUOUS
 62
           3
100
AcDbLine
 10
1197.577474432742
 20
442.051175145079
 11
1193.532028169727
 21
442.051175145079
  0
LINE
  5
90
100
AcDbEntity
  8
1
  6
CONTINUOUS
 62
           3
100
AcDbLine
 10
1193.532028169727
 20
442.051175145079
 11
1197.654323691924
 21
431.415301218661
  0
LINE
  5
8F
100
AcDbEntity
  8
1
  6
CONTINUOUS
 62
           3
100
AcDbLine
 10
1197.654323691924
 20
431.415301218661
 11
1187.847187247134
 21
418.848484848477
  0
LINE
  5
8E
100
AcDbEntity
  8
1
  6
CONTINUOUS
 62
           3
100
AcDbLine
 10
1187.847187247134
 20
418.848484848477
 11
1191.892633510131
 21
418.848484848477
  0
LINE
  5
8D
100
AcDbEntity
  8
1
  6
CONTINUOUS
 62
           3
100
AcDbLine
 10
1191.892633510131
 20
418.848484848477
 11
1198.996766090233
 21
427.951685370502
  0
LINE
  5
8C
100
AcDbEntity
  8
1
  6
CONTINUOUS
 62
           3
100
AcDbLine
 10
1198.996766090233
 20
427.951685370502
 11
1202.525021784917
 21
418.848484848477
  0
LINE
  5
8B
100
AcDbEntity
  8
1
  6
CONTINUOUS
 62
           3
100
AcDbLine
 10
1202.525021784917
 20
418.848484848477
 11
1206.570468047965
 21
418.848484848477
  0
LINE
  5
8A
100
AcDbEntity
  8
1
  6
CONTINUOUS
 62
           3
100
AcDbLine
 10
1206.570468047965
 20
418.848484848477
 11
1201.699769954961
 21
431.415301218603
  0
LINE
  5
89
100
AcDbEntity
  8
1
  6
CONTINUOUS
 62
           3
100
AcDbLine
 10
1201.699769954961
 20
431.415301218603
 11
1210.000000000043
 21
442.051175145079
  0
LINE
  5
88
100
AcDbEntity
  8
1
  6
CONTINUOUS
 62
           3
100
AcDbLine
 10
1210.000000000043
 20
442.051175145079
 11
1205.954553736985
 21
442.051175145079
  0
LINE
  5
87
100
AcDbEntity
  8
1
  6
CONTINUOUS
 62
           3
100
AcDbLine
 10
1205.954553736985
 20
442.051175145079
 11
1200.357327556699
 21
434.878917066824
  0
LINE
  5
86
100
AcDbEntity
  8
1
  6
CONTINUOUS
 62
           3
100
AcDbLine
 10
1200.357327556699
 20
434.878917066824
 11
1197.577474432742
 21
442.051175145079
  0
LINE
  5
85
100
AcDbEntity
  8
1
  6
CONTINUOUS
 62
           3
100
AcDbLine
 10
1207.599327633481
 20
416.19393939391
 11
1210.0
 21
410.0
  0
LINE
  5
84
100
AcDbEntity
  8
1
  6
CONTINUOUS
 62
           3
100
AcDbLine
 10
1207.599327633481
 20
416.19393939391
 11
1164.790178081308
 21
416.19393939391
  0
LINE
  5
83
100
AcDbEntity
  8
1
  6
CONTINUOUS
 62
           3
100
AcDbLine
 10
1210.0
 20
410.0
 11
1157.40919858119
 21
410.0
  0
LINE
  5
82
100
AcDbEntity
  8
1
  6
CONTINUOUS
 62
           3
100
AcDbLine
 10
1066.409184506759
 20
453.111781205662
 11
1069.661106684241
 21
466.38450847832
  0
LINE
  5
81
100
AcDbEntity
  8
1
  6
CONTINUOUS
 62
           3
100
AcDbLine
 10
1069.661106684241
 20
466.38450847832
 11
1082.225569149959
 21
466.38450847832
  0
LINE
  5
80
100
AcDbEntity
  8
1
  6
CONTINUOUS
 62
           3
100
AcDbLine
 10
1082.225569149959
 20
466.38450847832
 11
1078.973646972284
 21
453.111781205662
  0
LINE
  5
7F
100
AcDbEntity
  8
1
  6
CONTINUOUS
 62
           3
100
AcDbLine
 10
1078.973646972284
 20
453.111781205662
 11
1066.409184506759
 21
453.111781205662
  0
LINE
  5
7E
100
AcDbEntity
  8
1
  6
CONTINUOUS
 62
           3
100
AcDbLine
 10
1077.42155692428
 20
455.323902417793
 11
1069.045248613925
 21
455.323902417793
  0
LINE
  5
7D
100
AcDbEntity
  8
1
  6
CONTINUOUS
 62
           3
100
AcDbLine
 10
1079.589505042757
 20
464.172387266269
 11
1077.42155692428
 21
455.323902417793
  0
LINE
  5
7C
100
AcDbEntity
  8
1
  6
CONTINUOUS
 62
           3
100
AcDbLine
 10
1071.213196732267
 20
464.172387266269
 11
1079.589505042757
 21
464.172387266269
  0
LINE
  5
7B
100
AcDbEntity
  8
1
  6
CONTINUOUS
 62
           3
100
AcDbLine
 10
1069.045248613925
 20
455.323902417793
 11
1071.213196732267
 21
464.172387266269
  0
LINE
  5
7A
100
AcDbEntity
  8
1
  6
CONTINUOUS
 62
           3
100
AcDbLine
 10
1084.738461642951
 20
466.38450847832
 11
1081.486539465415
 21
453.111781205662
  0
LINE
  5
79
100
AcDbEntity
  8
1
  6
CONTINUOUS
 62
           3
100
AcDbLine
 10
1084.738461642951
 20
466.38450847832
 11
1097.302924108531
 21
466.38450847832
  0
LINE
  5
78
100
AcDbEntity
  8
1
  6
CONTINUOUS
 62
           3
100
AcDbLine
 10
1097.302924108531
 20
466.38450847832
 11
1095.435399998677
 21
458.762204858332
  0
LINE
  5
77
100
AcDbEntity
  8
1
  6
CONTINUOUS
 62
           3
100
AcDbLine
 10
1094.051001930998
 20
453.111781205662
 11
1091.956924853359
 21
453.111781205662
  0
LINE
  5
76
100
AcDbEntity
  8
1
  6
CONTINUOUS
 62
           3
100
AcDbLine
 10
1091.956924853359
 20
453.111781205662
 11
1093.040898912731
 21
457.536023629844
  0
LINE
  5
75
100
AcDbEntity
  8
1
  6
CONTINUOUS
 62
           3
100
AcDbLine
 10
1093.040898912731
 20
457.536023629844
 11
1084.664590602202
 21
457.536023629844
  0
LINE
  5
74
100
AcDbEntity
  8
1
  6
CONTINUOUS
 62
           3
100
AcDbLine
 10
1085.206577631794
 20
459.748144842033
 11
1093.582885942174
 21
459.748144842033
  0
LINE
  5
73
100
AcDbEntity
  8
1
  6
CONTINUOUS
 62
           3
100
AcDbLine
 10
1093.582885942174
 20
459.748144842033
 11
1094.666860001496
 21
464.172387266269
  0
LINE
  5
72
100
AcDbEntity
  8
1
  6
CONTINUOUS
 62
           3
100
AcDbLine
 10
1094.666860001496
 20
464.172387266269
 11
1086.290551690977
 21
464.172387266269
  0
LINE
  5
71
100
AcDbEntity
  8
1
  6
CONTINUOUS
 62
           3
100
AcDbLine
 10
1086.290551690977
 20
464.172387266269
 11
1085.206577631794
 21
459.748144842033
  0
LINE
  5
70
100
AcDbEntity
  8
1
  6
CONTINUOUS
 62
           3
100
AcDbLine
 10
1094.998720317111
 20
456.979895810782
 11
1094.051001930998
 21
453.111781205662
  0
LINE
  5
6F
100
AcDbEntity
  8
1
  6
CONTINUOUS
 62
           3
100
AcDbLine
 10
1081.486539465415
 20
453.111781205662
 11
1083.580616543091
 21
453.111781205662
  0
LINE
  5
6E
100
AcDbEntity
  8
1
  6
CONTINUOUS
 62
           3
100
AcDbLine
 10
1083.580616543091
 20
453.111781205662
 11
1084.664590602202
 21
457.536023629844
  0
LINE
  5
6D
100
AcDbEntity
  8
1
  6
CONTINUOUS
 62
           3
100
AcDbLine
 10
1101.909893679258
 20
466.38450847832
 11
1099.815816601694
 21
466.38450847832
  0
LINE
  5
6C
100
AcDbEntity
  8
1
  6
CONTINUOUS
 62
           3
100
AcDbLine
 10
1099.815816601694
 20
466.38450847832
 11
1096.563894424129
 21
453.111781205662
  0
LINE
  5
6B
100
AcDbEntity
  8
1
  6
CONTINUOUS
 62
           3
100
AcDbLine
 10
1096.563894424129
 20
453.111781205662
 11
1098.657971501848
 21
453.111781205662
  0
LINE
  5
6A
100
AcDbEntity
  8
1
  6
CONTINUOUS
 62
           3
100
AcDbLine
 10
1098.657971501848
 20
453.111781205662
 11
1101.909893679258
 21
466.38450847832
  0
LINE
  5
69
100
AcDbEntity
  8
1
  6
CONTINUOUS
 62
           3
100
AcDbLine
 10
1101.170863994833
 20
453.111781205662
 11
1104.422786172377
 21
466.38450847832
  0
LINE
  5
68
100
AcDbEntity
  8
1
  6
CONTINUOUS
 62
           3
100
AcDbLine
 10
1104.422786172377
 20
466.38450847832
 11
1116.987248637968
 21
466.38450847832
  0
LINE
  5
67
100
AcDbEntity
  8
1
  6
CONTINUOUS
 62
           3
100
AcDbLine
 10
1116.987248637968
 20
466.38450847832
 11
1115.849075875841
 21
461.739053932891
  0
LINE
  5
66
100
AcDbEntity
  8
1
  6
CONTINUOUS
 62
           3
100
AcDbLine
 10
1113.735326460446
 20
453.111781205662
 11
1101.170863994833
 21
453.111781205662
  0
LINE
  5
65
100
AcDbEntity
  8
1
  6
CONTINUOUS
 62
           3
100
AcDbLine
 10
1112.183236412398
 20
455.323902417793
 11
1103.806928102069
 21
455.323902417793
  0
LINE
  5
64
100
AcDbEntity
  8
1
  6
CONTINUOUS
 62
           3
100
AcDbLine
 10
1114.351184530693
 20
464.172387266269
 11
1113.754998798315
 21
461.739053932891
  0
LINE
  5
63
100
AcDbEntity
  8
1
  6
CONTINUOUS
 62
           3
100
AcDbLine
 10
1105.974876220396
 20
464.172387266269
 11
1114.351184530693
 21
464.172387266269
  0
LINE
  5
62
100
AcDbEntity
  8
1
  6
CONTINUOUS
 62
           3
100
AcDbLine
 10
1103.806928102069
 20
455.323902417793
 11
1105.974876220396
 21
464.172387266269
  0
LINE
  5
61
100
AcDbEntity
  8
1
  6
CONTINUOUS
 62
           3
100
AcDbLine
 10
1115.361287549218
 20
459.748144842033
 11
1109.079056316411
 21
459.748144842033
  0
LINE
  5
60
100
AcDbEntity
  8
1
  6
CONTINUOUS
 62
           3
100
AcDbLine
 10
1115.361287549218
 20
459.748144842033
 11
1113.735326460446
 21
453.111781205662
  0
LINE
  5
5F
100
AcDbEntity
  8
1
  6
CONTINUOUS
 62
           3
100
AcDbLine
 10
1109.079056316411
 20
459.748144842033
 11
1108.537069286765
 21
457.536023629844
  0
LINE
  5
5E
100
AcDbEntity
  8
1
  6
CONTINUOUS
 62
           3
100
AcDbLine
 10
1108.537069286765
 20
457.536023629844
 11
1112.725223442165
 21
457.536023629844
  0
LINE
  5
5D
100
AcDbEntity
  8
1
  6
CONTINUOUS
 62
           3
100
AcDbLine
 10
1112.725223442165
 20
457.536023629844
 11
1112.183236412398
 21
455.323902417793
  0
LINE
  5
5C
100
AcDbEntity
  8
1
  6
CONTINUOUS
 62
           3
100
AcDbLine
 10
1113.754998798315
 20
461.739053932891
 11
1115.849075875841
 21
461.739053932891
  0
LINE
  5
5B
100
AcDbEntity
  8
1
  6
CONTINUOUS
 62
           3
100
AcDbLine
 10
1116.248218953562
 20
453.111781205662
 11
1118.342296031122
 21
453.111781205662
  0
LINE
  5
5A
100
AcDbEntity
  8
1
  6
CONTINUOUS
 62
           3
100
AcDbLine
 10
1118.342296031122
 20
453.111781205662
 11
1121.594218208691
 21
466.38450847832
  0
LINE
  5
59
100
AcDbEntity
  8
1
  6
CONTINUOUS
 62
           3
100
AcDbLine
 10
1119.500141131127
 20
466.38450847832
 11
1116.248218953562
 21
453.111781205662
  0
LINE
  5
58
100
AcDbEntity
  8
1
  6
CONTINUOUS
 62
           3
100
AcDbLine
 10
1121.594218208691
 20
466.38450847832
 11
1119.500141131127
 21
466.38450847832
  0
LINE
  5
57
100
AcDbEntity
  8
1
  6
CONTINUOUS
 62
           3
100
AcDbLine
 10
1120.855188524292
 20
453.111781205662
 11
1124.107110701807
 21
466.38450847832
  0
LINE
  5
56
100
AcDbEntity
  8
1
  6
CONTINUOUS
 62
           3
100
AcDbLine
 10
1124.107110701807
 20
466.38450847832
 11
1127.248226318148
 21
466.38450847832
  0
LINE
  5
55
100
AcDbEntity
  8
1
  6
CONTINUOUS
 62
           3
100
AcDbLine
 10
1127.248226318148
 20
466.38450847832
 11
1131.732064184423
 21
454.770872114746
  0
LINE
  5
54
100
AcDbEntity
  8
1
  6
CONTINUOUS
 62
           3
100
AcDbLine
 10
1131.732064184423
 20
454.770872114746
 11
1134.577496089776
 21
466.38450847832
  0
LINE
  5
53
100
AcDbEntity
  8
1
  6
CONTINUOUS
 62
           3
100
AcDbLine
 10
1134.577496089776
 20
466.38450847832
 11
1136.67157316739
 21
466.38450847832
  0
LINE
  5
52
100
AcDbEntity
  8
1
  6
CONTINUOUS
 62
           3
100
AcDbLine
 10
1136.67157316739
 20
466.38450847832
 11
1133.41965098977
 21
453.111781205662
  0
LINE
  5
51
100
AcDbEntity
  8
1
  6
CONTINUOUS
 62
           3
100
AcDbLine
 10
1133.41965098977
 20
453.111781205662
 11
1130.176972501001
 21
453.111781205662
  0
LINE
  5
50
100
AcDbEntity
  8
1
  6
CONTINUOUS
 62
           3
100
AcDbLine
 10
1130.176972501001
 20
453.111781205662
 11
1126.395816165291
 21
462.905394629535
  0
LINE
  5
4F
100
AcDbEntity
  8
1
  6
CONTINUOUS
 62
           3
100
AcDbLine
 10
1126.395816165291
 20
462.905394629535
 11
1125.755267898781
 21
464.564485538598
  0
LINE
  5
4E
100
AcDbEntity
  8
1
  6
CONTINUOUS
 62
           3
100
AcDbLine
 10
1125.755267898781
 20
464.564485538598
 11
1122.949265601852
 21
453.111781205662
  0
LINE
  5
4D
100
AcDbEntity
  8
1
  6
CONTINUOUS
 62
           3
100
AcDbLine
 10
1122.949265601852
 20
453.111781205662
 11
1120.855188524292
 21
453.111781205662
  0
LINE
  5
4C
100
AcDbEntity
  8
1
  6
CONTINUOUS
 62
           3
100
AcDbLine
 10
1135.932543482886
 20
453.111781205662
 11
1143.443973761783
 21
466.38450847832
  0
LINE
  5
4B
100
AcDbEntity
  8
1
  6
CONTINUOUS
 62
           3
100
AcDbLine
 10
1143.443973761783
 20
466.38450847832
 11
1147.489420024758
 21
466.38450847832
  0
LINE
  5
4A
100
AcDbEntity
  8
1
  6
CONTINUOUS
 62
           3
100
AcDbLine
 10
1147.489420024758
 20
466.38450847832
 11
1148.49700594852
 21
453.111781205662
  0
LINE
  5
49
100
AcDbEntity
  8
1
  6
CONTINUOUS
 62
           3
100
AcDbLine
 10
1148.49700594852
 20
453.111781205662
 11
1146.467323785451
 21
453.111781205662
  0
LINE
  5
48
100
AcDbEntity
  8
1
  6
CONTINUOUS
 62
           3
100
AcDbLine
 10
1146.467323785451
 20
453.111781205662
 11
1146.299392798184
 21
455.323902417793
  0
LINE
  5
47
100
AcDbEntity
  8
1
  6
CONTINUOUS
 62
           3
100
AcDbLine
 10
1146.299392798184
 20
455.323902417793
 11
1139.56324551782
 21
455.323902417793
  0
LINE
  5
46
100
AcDbEntity
  8
1
  6
CONTINUOUS
 62
           3
100
AcDbLine
 10
1139.56324551782
 20
455.323902417793
 11
1138.311340471457
 21
453.111781205662
  0
LINE
  5
45
100
AcDbEntity
  8
1
  6
CONTINUOUS
 62
           3
100
AcDbLine
 10
1138.311340471457
 20
453.111781205662
 11
1135.932543482886
 21
453.111781205662
  0
LINE
  5
44
100
AcDbEntity
  8
1
  6
CONTINUOUS
 62
           3
100
AcDbLine
 10
1140.815150564351
 20
457.536023629844
 11
1146.131461810862
 21
457.536023629844
  0
LINE
  5
43
100
AcDbEntity
  8
1
  6
CONTINUOUS
 62
           3
100
AcDbLine
 10
1146.131461810862
 20
457.536023629844
 11
1145.627668849007
 21
464.172387266269
  0
LINE
  5
42
100
AcDbEntity
  8
1
  6
CONTINUOUS
 62
           3
100
AcDbLine
 10
1145.627668849007
 20
464.172387266269
 11
1144.570865703717
 21
464.172387266269
  0
LINE
  5
41
100
AcDbEntity
  8
1
  6
CONTINUOUS
 62
           3
100
AcDbLine
 10
1140.815150564351
 20
457.536023629844
 11
1144.570865703717
 21
464.172387266269
  0
LINE
  5
40
100
AcDbEntity
  8
1
  6
CONTINUOUS
 62
           3
100
AcDbLine
 10
1154.261820619209
 20
466.38450847832
 11
1151.00989844164
 21
453.111781205662
  0
LINE
  5
3F
100
AcDbEntity
  8
1
  6
CONTINUOUS
 62
           3
100
AcDbLine
 10
1151.00989844164
 20
453.111781205662
 11
1163.574360907219
 21
453.111781205662
  0
LINE
  5
3E
100
AcDbEntity
  8
1
  6
CONTINUOUS
 62
           3
100
AcDbLine
 10
1163.574360907219
 20
453.111781205662
 11
1164.11634793688
 21
455.323902417793
  0
LINE
  5
3D
100
AcDbEntity
  8
1
  6
CONTINUOUS
 62
           3
100
AcDbLine
 10
1164.11634793688
 20
455.323902417793
 11
1153.64596254886
 21
455.323902417793
  0
LINE
  5
3C
100
AcDbEntity
  8
1
  6
CONTINUOUS
 62
           3
100
AcDbLine
 10
1153.64596254886
 20
455.323902417793
 11
1156.355897696823
 21
466.38450847832
  0
LINE
  5
3B
100
AcDbEntity
  8
1
  6
CONTINUOUS
 62
           3
100
AcDbLine
 10
1156.355897696823
 20
466.38450847832
 11
1154.261820619209
 21
466.38450847832
  0
LINE
  5
3A
100
AcDbEntity
  8
1
  6
CONTINUOUS
 62
           3
100
AcDbLine
 10
1200.877132983492
 20
460.200111213842
 11
1200.877132983492
 21
457.451055788282
  0
LINE
  5
39
100
AcDbEntity
  8
1
  6
CONTINUOUS
 62
           3
100
AcDbLine
 10
1200.004685284377
 20
457.451055788282
 11
1200.004685284377
 21
464.309523963456
  0
LINE
  5
38
100
AcDbEntity
  8
1
  6
CONTINUOUS
 62
           3
100
AcDbLine
 10
1200.004685284377
 20
464.309523963456
 11
1202.446605143617
 21
464.309523963456
  0
LINE
  5
37
100
AcDbEntity
  8
1
  6
CONTINUOUS
 62
           3
100
AcDbLine
 10
1202.446605143617
 20
464.309523963456
 11
1202.742961725969
 21
464.309523963456
  0
LINE
  5
36
100
AcDbEntity
  8
1
  6
CONTINUOUS
 62
           3
100
AcDbLine
 10
1204.576596240535
 20
459.330689554626
 11
1204.576596240535
 21
457.451055788282
  0
LINE
  5
35
100
AcDbEntity
  8
1
  6
CONTINUOUS
 62
           3
100
AcDbLine
 10
1204.576596240535
 20
457.451055788282
 11
1203.61540942503
 21
457.451055788282
  0
LINE
  5
34
100
AcDbEntity
  8
1
  6
CONTINUOUS
 62
           3
100
AcDbLine
 10
1203.61540942503
 20
457.451055788282
 11
1203.61540942503
 21
459.0729110559
  0
LINE
  5
33
100
AcDbEntity
  8
1
  6
CONTINUOUS
 62
           3
100
AcDbLine
 10
1202.60219468511
 20
460.200111213842
 11
1200.877132983492
 21
460.200111213842
  0
LINE
  5
32
100
AcDbEntity
  8
1
  6
CONTINUOUS
 62
           3
100
AcDbLine
 10
1200.877132983492
 20
457.451055788282
 11
1200.004685284377
 21
457.451055788282
  0
LINE
  5
31
100
AcDbEntity
  8
1
  6
CONTINUOUS
 62
           3
100
AcDbLine
 10
1200.877132983492
 20
461.050334541276
 11
1202.864616211434
 21
461.050334541276
  0
LINE
  5
30
100
AcDbEntity
  8
1
  6
CONTINUOUS
 62
           3
100
AcDbLine
 10
1202.733105975578
 20
463.505992531278
 11
1200.877132983492
 21
463.505992531278
  0
LINE
  5
2F
100
AcDbEntity
  8
1
  6
CONTINUOUS
 62
           3
100
AcDbLine
 10
1200.877132983492
 20
463.505992531278
 11
1200.877132983492
 21
461.050334541276
  0
ENDBLK
  5
E3
100
AcDbEntity
  8
0
100
AcDbBlockEnd
  0
BLOCK
  5
2A
100
AcDbEntity
  8
0
100
AcDbBlockBegin
  2
WANNE_PICCOLO_CITY_164
 70
           0
 10
0.0
 20
0.0
 30
0.0
  3
WANNE_PICCOLO_CITY_164
  1

  0
SPLINE
  5
FA
100
AcDbEntity
  8
1
  6
CONTINUOUS
 62
           7
100
AcDbSpline
210
0.0
220
0.0
230
1.0
 70
           0
 71
           3
 72
           7
 73
           4
 74
           5
 42
0.00000000001
 43
0.00000000001
 44
0.00000000001
 40
2448.2671445448618
 40
2448.2671445448618
 40
2448.2671445448618
 40
2475.9672054965577
 40
2498.5819849834911
 40
2498.5819849834911
 40
2498.5819849834911
 10
1237.176843472681
 20
45.906468072318717
 30
0.0
 10
1222.075666874895
 20
45.819318013737757
 30
0.0
 10
1196.961026840534
 20
47.858204435112839
 30
0.0
 10
1187.041277675331
 20
49.244483385483363
 30
0.0
 11
1237.176843472681
 21
45.906468072318717
 31
0.0
 11
1222.3943413984671
 21
46.121724912511624
 31
0.0
 11
1208.2491883713958
 21
46.941795550252294
 31
0.0
 11
1197.3031299319484
 21
47.975671951490355
 31
0.0
 11
1187.041277675331
 21
49.244483385483363
 31
0.0
  0
SPLINE
  5
F9
100
AcDbEntity
  8
1
  6
CONTINUOUS
 62
           7
100
AcDbSpline
210
0.0
220
0.0
230
1.0
 70
           0
 71
           3
 72
          16
 73
          13
 74
          23
 42
0.00000000001
 43
0.00000000001
 44
0.00000000001
 40
1960.2173104784281
 40
1960.2173104784281
 40
1960.2173104784281
 40
1979.9226261958847
 40
1999.7168965368514
 40
2039.4221714007085
 40
2092.6380271342159
 40
2146.3635094141296
 40
2200.7085091289023
 40
2255.7061255740659
 40
2311.3108945182657
 40
2367.4063405068637
 40
2416.2445896732061
 40
2450.0279656329803
 40
2450.0279656329803
 40
2450.0279656329803
 10
1558.8723399999999
 20
346.7406840000001
 30
0.0
 10
1558.8723399999999
 20
333.62320786285198
 30
0.0
 10
1557.6352704243859
 20
320.505731725705
 30
0.0
 10
1555.155356714087
 20
294.20954793919918
 30
0.0
 10
1540.449324640706
 20
243.29307147156351
 30
0.0
 10
1516.4527079093291
 20
195.55045709757309
 30
0.0
 10
1483.91269505068
 20
152.4345956254738
 30
0.0
 10
1443.8336734823799
 20
115.2483708177474
 30
0.0
 10
1397.4426899284181
 20
85.108369738266447
 30
0.0
 10
1346.1507760352169
 20
62.91519676505186
 30
0.0
 10
1291.5108177217951
 20
49.329825355563123
 30
0.0
 10
1250.2735165977861
 20
45.982049986262609
 30
0.0
 10
1237.176843472681
 20
45.906468072318717
 30
0.0
 11
1558.8723399999999
 21
346.7406840000001
 31
0.0
 11
1558.7180545442241
 21
335.26658501410793
 31
0.0
 11
1558.2551981768961
 21
327.07924033072737
 31
0.0
 11
1557.5839983389117
 21
319.96205950954948
 31
0.0
 11
1556.8102543299781
 21
311.75753425606047
 31
0.0
 11
1553.9981062443239
 21
293.15738154157077
 31
0.0
 11
1548.8714572191441
 21
272.4528960318242
 31
0.0
 11
1539.5695751112085
 21
244.64364035955458
 31
0.0
 11
1528.5081939442771
 21
219.53552246326609
 31
0.0
 11
1515.4223948915474
 21
196.18813613387013
 31
0.0
 11
1500.2759698032523
 21
174.11610787706738
 31
0.0
 11
1483.0235377418346
 21
153.23443906165949
 31
0.0
 11
1463.9927910627262
 21
133.95245711862302
 31
0.0
 11
1443.1064128831827
 21
116.17757397401762
 31
0.0
 11
1420.7655135052437
 21
100.26109714195265
 31
0.0
 11
1396.8900709954228
 21
86.134591247265988
 31
0.0
 11
1371.9093906196108
 21
74.06052837057797
 31
0.0
 11
1345.2880735938259
 21
63.885912988180593
 31
0.0
 11
1316.9413516852587
 21
55.652730052040667
 31
0.0
 11
1291.7745333546918
 21
50.415827880186171
 31
0.0
 11
1267.1351462899192
 21
47.350930757577785
 31
0.0
 11
1251.2147557395431
 21
46.305374700605434
 31
0.0
 11
1237.176843472681
 21
45.906468072318717
 31
0.0
  0
SPLINE
  5
F8
100
AcDbEntity
  8
1
  6
CONTINUOUS
 62
           7
100
AcDbSpline
210
0.0
220
0.0
230
1.0
 70
           0
 71
           3
 72
          41
 73
          38
 74
          77
 42
0.00000000001
 43
0.00000000001
 44
0.00000000001
 40
-2.1109229907150251
 40
-0.050437089072048
 40
2.0100488125709148
 40
4.1733895121393898
 40
6.6177435086616399
 40
9.4536676296223145
 40
12.716751165809081
 40
16.384923030284032
 40
20.398680560404649
 40
24.674322265308898
 40
29.11281593813775
 40
33.606522531280966
 40
38.045016204109871
 40
42.320657909014152
 40
46.334415439135157
 40
50.002587303610568
 40
53.265670839797338
 40
56.101594960757666
 40
58.54594895727962
 40
60.709289656848043
 40
62.769775558491467
 40
64.93311625806065
 40
67.377470254582732
 40
70.213394375542748
 40
73.476477911729404
 40
77.144649776204574
 40
81.15840730632523
 40
85.43404901122986
 40
89.872542684058715
 40
94.366249277201462
 40
98.804742950030004
 40
103.08038465493453
 40
107.09414218505532
 40
110.76231404953052
 40
114.02539758571757
 40
116.86132170667767
 40
119.3056757031998
 40
121.46901640276866
 40
123.52950230441175
 40
125.58998820605473
 40
127.65047410769769
 10
264.29148864202222
 20
270.13459121626278
 30
0.0
 10
263.19379412639051
 20
268.3908398288163
 30
0.0
 10
261.37739730443991
 20
267.03572189370152
 30
0.0
 10
258.9378709259986
 20
266.07328600585879
 30
0.0
 10
255.9418975760905
 20
265.50531401646549
 30
0.0
 10
252.46893266105781
 20
265.34139096004668
 30
0.0
 10
248.61714987971001
 20
265.5855331190769
 30
0.0
 10
244.49944668510719
 20
266.23110770993981
 30
0.0
 10
240.2385016879484
 20
267.25945487240551
 30
0.0
 10
235.96214736945791
 20
268.64010424425442
 30
0.0
 10
231.79897518545951
 20
270.33167047459852
 30
0.0
 10
227.87408878724091
 20
272.28318704292269
 30
0.0
 10
224.30499360892051
 20
274.43581468357479
 30
0.0
 10
221.19765477147169
 20
276.72498076269449
 30
0.0
 10
218.6428134452681
 20
279.08318810459559
 30
0.0
 10
216.71308679392129
 20
281.4442479397494
 30
0.0
 10
215.46317419105529
 20
283.74973927014122
 30
0.0
 10
214.9430076736721
 20
285.95542937236678
 30
0.0
 10
215.22319135797849
 20
287.99677678373928
 30
0.0
 10
216.32088587361071
 20
289.74052817118672
 30
0.0
 10
218.13728269556171
 20
291.0956461063015
 30
0.0
 10
220.57680907400251
 20
292.05808199414378
 30
0.0
 10
223.57278242390981
 20
292.62605398353747
 30
0.0
 10
227.0457473389431
 20
292.78997703995452
 30
0.0
 10
230.8975301202909
 20
292.54583488092612
 30
0.0
 10
235.015233314894
 20
291.90026029006373
 30
0.0
 10
239.27617831205291
 20
290.87191312759609
 30
0.0
 10
243.5525326305428
 20
289.49126375574718
 30
0.0
 10
247.7157048145414
 20
287.79969752540461
 30
0.0
 10
251.6405912127598
 20
285.84818095708079
 30
0.0
 10
255.20968639108011
 20
283.69555331642692
 30
0.0
 10
258.31702522852862
 20
281.40638723730899
 30
0.0
 10
260.87186655473261
 20
279.04817989540697
 30
0.0
 10
262.80159320607942
 20
276.68712006025362
 30
0.0
 10
264.05150580894542
 20
274.38162872986192
 30
0.0
 10
264.5716723263281
 20
272.17593862763579
 30
0.0
 10
264.29148864202222
 20
270.13459121626278
 30
0.0
 10
263.19379412639051
 20
268.3908398288163
 30
0.0
 11
263.75600641528467
 21
269.28394664937332
 31
0.0
 11
263.12114485825361
 21
268.4550575047063
 31
0.0
 11
262.34098476494853
 21
267.75460371181919
 31
0.0
 11
261.33596689815784
 21
267.1040592943225
 31
0.0
 11
260.24808821880276
 21
266.59018967806776
 31
0.0
 11
258.91715740111772
 21
266.13648784445024
 31
0.0
 11
257.54479953367093
 21
265.80918968801552
 31
0.0
 11
255.93387407338685
 21
265.56199008638816
 31
0.0
 11
254.30690160769558
 21
265.42814262460615
 31
0.0
 11
252.46861198806761
 21
265.39222374828455
 31
0.0
 11
250.62968102245915
 21
265.45797044843886
 31
0.0
 11
248.62183091589338
 21
265.6317898479254
 31
0.0
 11
246.62334288169427
 21
265.8981227051089
 31
0.0
 11
244.50775631195492
 21
266.27400260252796
 31
0.0
 11
242.40878899591087
 21
266.73567228512343
 31
0.0
 11
240.24983342234665
 21
267.30002361506558
 31
0.0
 11
238.11354131757892
 21
267.94551243032788
 31
0.0
 11
235.97638258835272
 21
268.67920908671584
 31
0.0
 11
233.86769429691611
 21
269.49111542802666
 31
0.0
 11
231.81637550472186
 21
270.37003008845306
 31
0.0
 11
229.79985735105228
 21
271.32566397658849
 31
0.0
 11
227.89529937942481
 21
272.32138563566753
 31
0.0
 11
226.03316259216513
 21
273.39350448023623
 31
0.0
 11
224.33114483384369
 21
274.47425568380322
 31
0.0
 11
222.68142952536871
 21
275.63188888782713
 31
0.0
 11
221.23057899127642
 21
276.76371151199584
 31
0.0
 11
219.84557689679349
 21
277.97299563476724
 31
0.0
 11
218.68539431635548
 21
279.12144281561234
 31
0.0
 11
217.61037347809219
 21
280.34639941849088
 31
0.0
 11
216.76958315251389
 21
281.47934329528368
 31
0.0
 11
216.04178554412081
 21
282.682477883145
 31
0.0
 11
215.53884073631156
 21
283.77545021756259
 31
0.0
 11
215.18722901901484
 21
284.91984444682288
 31
0.0
 11
215.03993881794466
 21
285.95791519769887
 31
0.0
 11
215.08651090541963
 21
287.00095759923897
 31
0.0
 11
215.32289180152321
 21
287.96048312933669
 31
0.0
 11
215.75867358471623
 21
288.84742135062919
 31
0.0
 11
216.39353514174766
 21
289.67631049529666
 31
0.0
 11
217.173695235053
 21
290.37676428818395
 31
0.0
 11
218.17871310184381
 21
291.02730870568053
 31
0.0
 11
219.26659178119871
 21
291.54117832193515
 31
0.0
 11
220.59752259888333
 21
291.99488015555249
 31
0.0
 11
221.9698804663297
 21
292.32217831198716
 31
0.0
 11
223.58080592661355
 21
292.56937791361452
 31
0.0
 11
225.20777839230493
 21
292.70322537539596
 31
0.0
 11
227.04606801193324
 21
292.73914425171705
 31
0.0
 11
228.88499897754178
 21
292.6733975515632
 31
0.0
 11
230.89284908410758
 21
292.4995781520775
 31
0.0
 11
232.89133711830669
 21
292.23324529489435
 31
0.0
 11
235.00692368804627
 21
291.85736539747518
 31
0.0
 11
237.10589100409044
 21
291.39569571487914
 31
0.0
 11
239.26484657765462
 21
290.83134438493624
 31
0.0
 11
241.40113868242219
 21
290.18585556967366
 31
0.0
 11
243.5382974116481
 21
289.45215891328593
 31
0.0
 11
245.64698570308468
 21
288.64025257197568
 31
0.0
 11
247.69830449527899
 21
287.76133791154996
 31
0.0
 11
249.71482264894843
 21
286.80570402341493
 31
0.0
 11
251.6193806205759
 21
285.80998236433572
 31
0.0
 11
253.4815174078357
 21
284.73786351976628
 31
0.0
 11
255.18353516615696
 21
283.65711231619895
 31
0.0
 11
256.83325047463177
 21
282.49947911217555
 31
0.0
 11
258.28410100872395
 21
281.3676564880073
 31
0.0
 11
259.66910310320691
 21
280.15837236523583
 31
0.0
 11
260.82928568364514
 21
279.0099251843904
 31
0.0
 11
261.90430652190861
 21
277.78496858151186
 31
0.0
 11
262.74509684748682
 21
276.65202470471928
 31
0.0
 11
263.47289445587984
 21
275.44889011685814
 31
0.0
 11
263.97583926368907
 21
274.35591778244054
 31
0.0
 11
264.32745098098559
 21
273.21152355318003
 31
0.0
 11
264.47474118205565
 21
272.1734528023037
 31
0.0
 11
264.42816909458077
 21
271.13041040076314
 31
0.0
 11
264.18844694070788
 21
270.16557708895704
 31
0.0
 11
263.74264138420631
 21
269.26271552253951
 31
0.0
 11
263.46821775529844
 21
268.82677767567793
 31
0.0
 11
263.74264138420642
 21
269.26271552253957
 31
0.0
 11
264.02040627088388
 21
269.70396115110958
 31
0.0
 11
263.75600641528467
 21
269.28394664937332
 31
0.0
  0
CIRCLE
  5
F7
100
AcDbEntity
  8
WANNE
  6
CONTINUOUS
 62
           7
100
AcDbCircle
 10
235.000000000006
 20
470.0
 40
45.0
  0
CIRCLE
  5
F6
100
AcDbEntity
  8
WANNE
  6
CONTINUOUS
 62
           7
100
AcDbCircle
 10
235.000000000006
 20
470.0
 40
26.0
  0
ARC
  5
F5
100
AcDbEntity
  8
1
  6
CONTINUOUS
 62
           7
100
AcDbCircle
 10
261.343626000062
 20
479.933914208656
 40
219.301253128796
100
AcDbArc
 50
-179.8063064614
 51
-111.812449396239
  0
ARC
  5
F4
100
AcDbEntity
  8
1
  6
CONTINUOUS
 62
           7
100
AcDbCircle
 10
598.121895886314
 20
-3788.631584396495
 40
4499.611498536221
100
AcDbArc
 50
89.87039244761
 51
94.371370260183
  0
ARC
  5
F3
100
AcDbEntity
  8
1
  6
CONTINUOUS
 62
           7
100
AcDbCircle
 10
1237.176843472678
 20
344.092399284878
 40
321.488891526441
100
AcDbArc
 50
0.12613139969
 51
86.880974385732
  0
ARC
  5
F2
100
AcDbEntity
  8
1
  6
CONTINUOUS
 62
           7
100
AcDbCircle
 10
1190.960861000001
 20
360.939956
 40
312.000000000004
100
AcDbArc
 50
-90.205927486192
 51
76.690215373034
  0
ARC
  5
F1
100
AcDbEntity
  8
1
  6
CONTINUOUS
 62
           7
100
AcDbCircle
 10
1677.23485670308
 20
4570.41687622126
 40
4547.668584083543
100
AcDbArc
 50
-109.224020715376
 51
-95.888044999423
  0
ARC
  5
F0
100
AcDbEntity
  8
1
  6
CONTINUOUS
 62
           7
100
AcDbCircle
 10
613.841060127016
 20
-3788.631584396495
 40
4499.603397626359
100
AcDbArc
 50
81.812163939963
 51
90.070552598744
  0
ARC
  5
EF
100
AcDbEntity
  8
1
  6
CONTINUOUS
 62
           7
100
AcDbCircle
 10
261.343626000062
 20
478.677029042269
 40
219.300605926661
100
AcDbArc
 50
91.616341329568
 51
179.865312329552
  0
ARC
  5
EE
100
AcDbEntity
  8
1
  6
CONTINUOUS
 62
           7
100
AcDbCircle
 10
262.468942708664
 20
478.57312170566
 40
173.439303546451
100
AcDbArc
 50
91.951253998002
 51
-112.414744588951
  0
ARC
  5
ED
100
AcDbEntity
  8
1
  6
CONTINUOUS
 62
           7
100
AcDbCircle
 10
1671.549476705938
 20
4503.229577567777
 40
4437.388423682978
100
AcDbArc
 50
-109.417611083063
 51
-98.356945607639
  0
ARC
  5
EC
100
AcDbEntity
  8
1
  6
CONTINUOUS
 62
           7
100
AcDbCircle
 10
607.924609620195
 20
-3794.216172662693
 40
4459.989810918302
100
AcDbArc
 50
83.731223476422
 51
94.518484056148
  0
ARC
  5
EB
100
AcDbEntity
  8
1
  6
CONTINUOUS
 62
           7
100
AcDbCircle
 10
1057.076154119314
 20
376.511624086603
 40
265.307288897267
100
AcDbArc
 50
-96.5915922909
 51
81.798696022835
  0
ARC
  5
EA
100
AcDbEntity
  8
1
  6
CONTINUOUS
 62
           7
100
AcDbCircle
 10
2585.821140052996
 20
9082.513210857915
 40
9203.247284970919
100
AcDbArc
 50
-106.318006938903
 51
-99.293221528765
  0
LINE
  5
E9
100
AcDbEntity
  8
1
  6
CONTINUOUS
 62
           7
100
AcDbLine
 10
1100.0
 20
0.0
 11
1600.0
 21
0.0
  0
LINE
  5
E8
100
AcDbEntity
  8
1
  6
CONTINUOUS
 62
           7
100
AcDbLine
 10
0.0
 20
249.999999999998
 11
0.0
 21
750.0
  0
LINE
  5
E7
100
AcDbEntity
  8
1
  6
CONTINUOUS
 62
           7
100
AcDbLine
 10
1600.0
 20
750.0
 11
1600.0
 21
0.0
  0
LINE
  5
E6
100
AcDbEntity
  8
1
  6
CONTINUOUS
 62
           7
100
AcDbLine
 10
0.0
 20
750.0
 11
1600.0
 21
750.0
  0
LINE
  5
E5
100
AcDbEntity
  8
MITTELLINIEN
  6
DOT_CENTER
 62
           3
100
AcDbLine
 10
235.0
 20
404.321980999999
 11
235.0
 21
533.989954999999
  0
LINE
  5
E4
100
AcDbEntity
  8
MITTELLINIEN
  6
DOT_CENTER
 62
           3
100
AcDbLine
 10
300.678019000014
 20
470.0
 11
171.010045000002
 21
470.0
  0
ENDBLK
  5
FB
100
AcDbEntity
  8
0
100
AcDbBlockEnd
  0
ENDSEC
  0
SECTION
  2
ENTITIES
  0
TEXT
  5
FF
100
AcDbEntity
  8
1
 62
           3
100
AcDbText
 10
285.0
 20
520.000000000001
 40
35.0
  1
ø 52
 41
0.71262
  7
CONVERTER_1
100
AcDbText
  0
MTEXT
  5
FE
100
AcDbEntity
  8
1
 62
           2
100
AcDbMText
 10
1209.999999999999
 20
335.000000000001
 30
0.0
 40
35.0
 41
0.0
 71
           9
 72
           1
  1
PICCOLO City 164
  7
CONVERTER_1
  0
INSERT
  5
2D
100
AcDbEntity
  8
0
100
AcDbBlockReference
  2
DLX
 10
0.0
 20
0.0
  0
INSERT
  5
2E
100
AcDbEntity
  8
0
100
AcDbBlockReference
  2
WANNE_PICCOLO_CITY_164
 10
0.0
 20
0.0
  0
ENDSEC
  0
SECTION
  2
OBJECTS
  0
DICTIONARY
  5
19
100
AcDbDictionary
  3
ACAD_GROUP
350
1A
  3
ACAD_MLINESTYLE
350
1B
  0
DICTIONARY
  5
1A
102
{ACAD_REACTORS
330
19
102
}
100
AcDbDictionary
  0
DICTIONARY
  5
1B
102
{ACAD_REACTORS
330
19
102
}
100
AcDbDictionary
  3
STANDARD
350
1C
  0
MLINESTYLE
  5
1C
102
{ACAD_REACTORS
330
1B
102
}
100
AcDbMlineStyle
  2
STANDARD
 70
           0
  3

 62
           0
 51
90.0
 52
90.0
 71
           2
 49
0.5
 62
         256
  6
BYLAYER
 49
-0.5
 62
         256
  6
BYLAYER
  0
ENDSEC
  0
EOF
