  0
SECTION
  2
HEADER
  9
$ACADVER
  1
AC1009
  9
$INSBASE
 10
0
 20
0
  9
$EXTMIN
 10
0
 20
0
  9
$EXTMAX
 10
1650
 20
750
  9
$LIMMIN
 10
0
 20
0
  9
$LIMMAX
 10
1650
 20
750
  9
$VIEWCTR
 10
10
 20
10
  9
$VIEWSIZE
 40
10
  9
$SNAPMODE
 70
0
  9
$SNAPUNIT
 10
1
 20
1
  9
$SNAPBASE
 10
0
 20
0
  9
$SNAPANG
 50
0
  9
$SNAPSTYLE
 70
0
  9
$SNAPISOPAIR
 70
0
  9
$GRIDMODE
 70
0
  9
$GRIDUNIT
 10
0
 20
0
  9
$ORTHOMODE
 70
0
  9
$REGENMODE
 70
1
  9
$FILLMODE
 70
1
  9
$QTEXTMODE
 70
0
  9
$DRAGMODE
 70
2
  9
$LTSCALE
 40
1
  9
$OSMODE
 70
0
  9
$ATTMODE
 70
1
  9
$TEXTSIZE
 40
3.5
  9
$TRACEWID
 40
0.5
  9
$TEXTSTYLE
  7
STANDARD
  9
$CLAYER
  8
0
  9
$CELTYPE
  6
BYLAYER
  9
$CECOLOR
 62
256
  9
$DIMSCALE
 40
1
  9
$DIMASZ
 40
0.18
  9
$DIMEXO
 40
0.0625
  9
$DIMDLI
 40
0.38
  9
$DIMRND
 40
0
  9
$DIMDLE
 40
0
  9
$DIMEXE
 40
0.18
  9
$DIMTP
 40
0
  9
$DIMTM
 40
0
  9
$DIMTXT
 40
0.18
  9
$DIMCEN
 40
0.09
  9
$DIMTSZ
 40
0
  9
$DIMTOL
 70
0
  9
$DIMLIM
 70
0
  9
$DIMTIH
 70
1
  9
$DIMTOH
 70
1
  9
$DIMSE1
 70
0
  9
$DIMSE2
 70
0
  9
$DIMTAD
 70
0
  9
$DIMZIN
 70
0
  9
$DIMBLK
  1

  9
$DIMASO
 70
1
  9
$DIMSHO
 70
1
  9
$DIMPOST
  1

  9
$DIMAPOST
  1

  9
$DIMALT
 70
0
  9
$DIMALTD
 70
2
  9
$DIMALTF
 40
25.4
  9
$DIMLFAC
 40
1
  9
$DIMTOFL
 70
0
  9
$DIMTVP
 40
0
  9
$DIMTIX
 70
0
  9
$DIMSOXD
 70
0
  9
$DIMSAH
 70
0
  9
$DIMBLK1
  1

  9
$DIMBLK2
  1

  9
$DIMSTYLE
  2
*UNNAMED
  9
$DIMCLRD
 70
0
  9
$DIMCLRE
 70
0
  9
$DIMCLRT
 70
0
  9
$DIMTFAC
 40
1
  9
$DIMGAP
 40
0.09
  9
$LUNITS
 70
2
  9
$LUPREC
 70
4
  9
$AXISMODE
 70
0
  9
$AXISUNIT
 10
0
 20
0
  9
$SKETCHINC
 40
0.1
  9
$FILLETRAD
 40
2
  9
$AUNITS
 70
0
  9
$AUPREC
 70
0
  9
$MENU
  1
ACAD
  9
$ELEVATION
 40
0
  9
$THICKNESS
 40
0
  9
$VIEWDIR
 10
0
 20
0
 30
1
  9
$LIMCHECK
 70
0
  9
$BLIPMODE
 70
1
  9
$CHAMFERA
 40
0
  9
$CHAMFERB
 40
0
  9
$FASTZOOM
 70
1
  9
$SKPOLY
 70
0
  9
$ANGBASE
 50
0
  9
$ANGDIR
 70
0
  9
$PDMODE
 70
0
  9
$PDSIZE
 40
0
  9
$PLINEWID
 40
0
  9
$COORDS
 70
2
  0
ENDSEC
  0
SECTION
  2
TABLES
  0
TABLE
  2
DIMSTYLE
 70
0
  0
ENDTAB
  0
TABLE
  2
LTYPE
 70
9
  0
LTYPE
  2
CONTINUOUS
 70
64
  3
Solid line
 72
65
 73
0
 40
0
  0
LTYPE
  2
BORDER
 70
64
  3
__ __ . __ __ .
 72
65
 73
6
 40
75.98684210526315
 49
21.71052631578947
 49
-10.85526315789474
 49
21.71052631578947
 49
-10.85526315789474
 49
0
 49
-10.85526315789474
  0
LTYPE
  2
CENTER
 70
64
  3
____ _ ____ _
 72
65
 73
4
 40
86.84210526315789
 49
54.27631578947369
 49
-10.85526315789474
 49
10.85526315789474
 49
-10.85526315789474
  0
LTYPE
  2
DASHDOT
 70
64
  3
__ . __ . __ .
 72
65
 73
4
 40
43.42105263157895
 49
21.71052631578947
 49
-10.85526315789474
 49
0
 49
-10.85526315789474
  0
LTYPE
  2
DASHED
 70
64
  3
__ __ __ __ __
 72
65
 73
2
 40
32.56578947368421
 49
21.71052631578947
 49
-10.85526315789474
  0
LTYPE
  2
DIVIDE
 70
64
  3
__ . . __ . . 
 72
65
 73
6
 40
54.27631578947369
 49
21.71052631578947
 49
-10.85526315789474
 49
0
 49
-10.85526315789474
 49
0
 49
-10.85526315789474
  0
LTYPE
  2
DOT
 70
64
  3
..............
 72
65
 73
4
 40
21.71052631578947
 49
0
 49
-10.85526315789474
 49
0
 49
-10.85526315789474
  0
LTYPE
  2
HIDDEN
 70
64
  3
_ _ _ _ _ _ _
 72
65
 73
2
 40
16.2828947368421
 49
10.85526315789474
 49
-5.427631578947368
  0
LTYPE
  2
PHANTOM
 70
64
  3
_____ _ _ _____ _ _ 
 72
65
 73
6
 40
108.5526315789474
 49
54.27631578947369
 49
-10.85526315789474
 49
10.85526315789474
 49
-10.85526315789474
 49
10.85526315789474
 49
-10.85526315789474
  0
ENDTAB
  0
TABLE
  2
LAYER
 70
5
  0
LAYER
  2
MITTELLINIEN
 70
0
 62
7
  6
CONTINUOUS
  0
LAYER
  2
1
 70
0
 62
7
  6
CONTINUOUS
  0
LAYER
  2
WANNE
 70
0
 62
7
  6
CONTINUOUS
  0
LAYER
  2
0
 70
0
 62
7
  6
CONTINUOUS
  0
ENDTAB
  0
TABLE
  2
STYLE
 70
4
  0
STYLE
  2
STANDARD
 70
0
 40
0
 41
1
 50
0
 71
0
 42
3.5
  3
txt
  4

  0
STYLE
  2
SIMPLEX
 70
0
 40
0
 41
1
 50
0
 71
0
 42
3.5
  3
simplex
  4

  0
STYLE
  2
COMPLEX
 70
0
 40
0
 41
1
 50
0
 71
0
 42
3.5
  3
complex
  4

  0
STYLE
  2
ITALIC
 70
0
 40
0
 41
1
 50
0
 71
0
 42
3.5
  3
italic
  4

  0
ENDTAB
  0
TABLE
  2
VIEW
 70
0
  0
ENDTAB
  0
ENDSEC
  0
SECTION
  2
BLOCKS
  0
BLOCK
  8
0
  2
DLX
 70
0
 10
475
 20
410
 30
0
  0
LINE
  8
1
 62
3
 10
540.3282234693179
 20
456.979895810782
 30
0
 11
540.0328203819372
 21
457.978447872363
 31
0
  0
LINE
  8
1
 62
3
 10
540.7649031508845
 20
458.7622048583319
 30
0
 11
540.0328203819372
 21
457.978447872363
 31
0
  0
LINE
  8
1
 62
3
 10
575.7959271195539
 20
428.2377087845271
 30
0
 11
579.1803346104348
 21
442.051175145079
 31
0
  0
LINE
  8
1
 62
3
 10
571.6077729643148
 20
428.2377087845271
 30
0
 11
574.992180455331
 21
442.051175145079
 31
0
  0
LINE
  8
1
 62
3
 10
571.6077729643148
 20
428.2377087845271
 30
0
 11
575.7959271195539
 21
428.2377087845271
 31
0
  0
LINE
  8
1
 62
3
 10
570.5237989051459
 20
423.813466360341
 30
0
 11
574.7119530603338
 21
423.813466360341
 31
0
  0
LINE
  8
1
 62
3
 10
571.3275455694388
 20
410
 30
0
 11
577.609776802336
 21
410
 31
0
  0
LINE
  8
1
 62
3
 10
574.992180455331
 20
442.051175145079
 30
0
 11
568.7099492224659
 21
442.051175145079
 31
0
  0
LINE
  8
1
 62
3
 10
606.4033366192889
 20
442.051175145079
 30
0
 11
598.55054757827
 21
410
 31
0
  0
LINE
  8
1
 62
3
 10
599.037131327292
 20
437.626932720839
 30
0
 11
593.3522904045678
 21
414.424242424182
 31
0
  0
LINE
  8
1
 62
3
 10
594.8489771720419
 20
437.626932720839
 30
0
 11
599.037131327292
 21
437.626932720839
 31
0
  0
LINE
  8
1
 62
3
 10
606.4033366192889
 20
442.051175145079
 30
0
 11
589.650719998459
 21
442.051175145079
 31
0
  0
LINE
  8
1
 62
3
 10
589.164136249467
 20
414.424242424182
 30
0
 11
594.8489771720419
 21
437.626932720839
 31
0
  0
LINE
  8
1
 62
3
 10
589.650719998459
 20
442.051175145079
 30
0
 11
581.7979309574619
 21
410
 31
0
  0
LINE
  8
1
 62
3
 10
593.3522904045678
 20
414.424242424182
 30
0
 11
589.164136249467
 21
414.424242424182
 31
0
  0
LINE
  8
1
 62
3
 10
581.7979309574619
 20
410
 30
0
 11
598.55054757827
 21
410
 31
0
  0
LINE
  8
1
 62
3
 10
585.4625658433508
 20
442.051175145079
 30
0
 11
579.1803346104348
 21
442.051175145079
 31
0
  0
LINE
  8
1
 62
3
 10
568.7099492224659
 20
442.051175145079
 30
0
 11
560.8571601814729
 21
410
 31
0
  0
LINE
  8
1
 62
3
 10
567.1393914142609
 20
410
 30
0
 11
570.5237989051459
 21
423.813466360341
 31
0
  0
LINE
  8
1
 62
3
 10
571.3275455694388
 20
410
 30
0
 11
574.7119530603338
 21
423.813466360341
 31
0
  0
LINE
  8
1
 62
3
 10
577.609776802336
 20
410
 30
0
 11
585.4625658433508
 21
442.051175145079
 31
0
  0
LINE
  8
1
 62
3
 10
560.8571601814729
 20
410
 30
0
 11
567.1393914142609
 21
410
 31
0
  0
LINE
  8
1
 62
3
 10
555.5296286865159
 20
430.990569084413
 30
0
 11
561.8118599193219
 21
430.990569084413
 31
0
  0
LINE
  8
1
 62
3
 10
557.1555897753099
 20
437.626932720839
 30
0
 11
555.5296286865159
 21
430.990569084413
 31
0
  0
LINE
  8
1
 62
3
 10
552.9674356201178
 20
437.626932720839
 30
0
 11
557.1555897753099
 21
437.626932720839
 31
0
  0
LINE
  8
1
 62
3
 10
547.2825946974881
 20
414.424242424182
 30
0
 11
552.9674356201178
 21
437.626932720839
 31
0
  0
LINE
  8
1
 62
3
 10
551.470748852691
 20
414.424242424182
 30
0
 11
547.2825946974881
 21
414.424242424182
 31
0
  0
LINE
  8
1
 62
3
 10
553.0967099414779
 20
421.0606060606081
 30
0
 11
551.470748852691
 21
414.424242424182
 31
0
  0
LINE
  8
1
 62
3
 10
559.378941174266
 20
421.0606060606081
 30
0
 11
553.0967099414779
 21
421.0606060606081
 31
0
  0
LINE
  8
1
 62
3
 10
556.669006026292
 20
410
 30
0
 11
559.378941174266
 21
421.0606060606081
 31
0
  0
LINE
  8
1
 62
3
 10
539.9163894055382
 20
410
 30
0
 11
556.669006026292
 21
410
 31
0
  0
LINE
  8
1
 62
3
 10
547.7691784465314
 20
442.051175145079
 30
0
 11
539.9163894055382
 21
410
 31
0
  0
LINE
  8
1
 62
3
 10
564.5217950672518
 20
442.051175145079
 30
0
 11
547.7691784465314
 21
442.051175145079
 31
0
  0
LINE
  8
1
 62
3
 10
561.8118599193219
 20
430.990569084413
 30
0
 11
564.5217950672518
 21
442.051175145079
 31
0
  0
LINE
  8
1
 62
3
 10
542.4970502321557
 20
437.626932720839
 30
0
 11
543.581024291314
 21
442.051175145079
 31
0
  0
LINE
  8
1
 62
3
 10
532.0266648441757
 20
437.626932720839
 30
0
 11
542.4970502321557
 21
437.626932720839
 31
0
  0
LINE
  8
1
 62
3
 10
529.5937460991627
 20
427.6969696969529
 30
0
 11
532.0266648441757
 21
437.626932720839
 31
0
  0
LINE
  8
1
 62
3
 10
540.0641314872264
 20
427.6969696969529
 30
0
 11
529.5937460991627
 21
427.6969696969529
 31
0
  0
LINE
  8
1
 62
3
 10
535.7282352503025
 20
410
 30
0
 11
540.0641314872264
 21
427.6969696969529
 31
0
  0
LINE
  8
1
 62
3
 10
518.9756186294799
 20
410
 30
0
 11
535.7282352503025
 21
410
 31
0
  0
LINE
  8
1
 62
3
 10
520.0595926887872
 20
414.424242424182
 30
0
 11
518.9756186294799
 21
410
 31
0
  0
LINE
  8
1
 62
3
 10
530.5299780766982
 20
414.424242424182
 30
0
 11
520.0595926887872
 21
414.424242424182
 31
0
  0
LINE
  8
1
 62
3
 10
532.6979261951165
 20
423.2727272727971
 30
0
 11
530.5299780766982
 21
414.424242424182
 31
0
  0
LINE
  8
1
 62
3
 10
522.2275408071509
 20
423.2727272727971
 30
0
 11
532.6979261951165
 21
423.2727272727971
 31
0
  0
LINE
  8
1
 62
3
 10
526.8284076705422
 20
442.051175145079
 30
0
 11
522.2275408071509
 21
423.2727272727971
 31
0
  0
LINE
  8
1
 62
3
 10
543.581024291314
 20
442.051175145079
 30
0
 11
526.8284076705422
 21
442.051175145079
 31
0
  0
LINE
  8
1
 62
3
 10
522.6402535153793
 20
442.051175145079
 30
0
 11
514.7874644743642
 21
410
 31
0
  0
LINE
  8
1
 62
3
 10
516.3580222825731
 20
442.051175145079
 30
0
 11
522.6402535153793
 21
442.051175145079
 31
0
  0
LINE
  8
1
 62
3
 10
514.7874644743642
 20
410
 30
0
 11
496.9878093147745
 21
410
 31
0
  0
LINE
  8
1
 62
3
 10
509.5892073007672
 20
414.424242424182
 30
0
 11
516.3580222825731
 21
442.051175145079
 31
0
  0
LINE
  8
1
 62
3
 10
504.3540146067826
 20
414.424242424182
 30
0
 11
509.5892073007672
 21
414.424242424182
 31
0
  0
LINE
  8
1
 62
3
 10
511.1228295885776
 20
442.051175145079
 30
0
 11
504.3540146067826
 21
414.424242424182
 31
0
  0
LINE
  8
1
 62
3
 10
504.8405983557677
 20
442.051175145079
 30
0
 11
511.1228295885776
 21
442.051175145079
 31
0
  0
LINE
  8
1
 62
3
 10
496.9878093147745
 20
410
 30
0
 11
504.8405983557677
 21
442.051175145079
 31
0
  0
LINE
  8
1
 62
3
 10
492.799655159648
 20
410
 30
0
 11
475
 21
410
 31
0
  0
LINE
  8
1
 62
3
 10
503.3623793485676
 20
453.1117812056621
 30
0
 11
492.799655159648
 21
410
 31
0
  0
LINE
  8
1
 62
3
 10
479.3890522712754
 20
453.1117812056621
 30
0
 11
503.3623793485676
 21
453.1117812056621
 31
0
  0
LINE
  8
1
 62
3
 10
478.0340846972904
 20
447.581478175405
 30
0
 11
479.3890522712754
 21
453.1117812056621
 31
0
  0
LINE
  8
1
 62
3
 10
495.7251805418237
 20
447.581478175405
 30
0
 11
478.0340846972904
 21
447.581478175405
 31
0
  0
LINE
  8
1
 62
3
 10
487.6013979859417
 20
414.424242424182
 30
0
 11
495.7251805418237
 21
447.581478175405
 31
0
  0
LINE
  8
1
 62
3
 10
482.3662052920627
 20
414.424242424182
 30
0
 11
487.6013979859417
 21
414.424242424182
 31
0
  0
LINE
  8
1
 62
3
 10
489.1350202737522
 20
442.051175145079
 30
0
 11
482.3662052920627
 21
414.424242424182
 31
0
  0
LINE
  8
1
 62
3
 10
482.8527890410551
 20
442.051175145079
 30
0
 11
489.1350202737522
 21
442.051175145079
 31
0
  0
LINE
  8
1
 62
3
 10
475
 20
410
 30
0
 11
482.8527890410551
 21
442.051175145079
 31
0
  0
LINE
  8
1
 62
3
 10
610.1196812335149
 20
416.1939393939099
 30
0
 11
619.1648417396059
 21
453.1117812056621
 31
0
  0
LINE
  8
1
 62
3
 10
619.1648417396059
 20
453.1117812056621
 30
0
 11
613.301425922338
 21
453.1117812056621
 31
0
  0
LINE
  8
1
 62
3
 10
613.301425922338
 20
453.1117812056621
 30
0
 11
602.738701733397
 21
410
 31
0
  0
LINE
  8
1
 62
3
 10
620.643060746967
 20
442.051175145079
 30
0
 11
614.958219824279
 21
418.848484848477
 31
0
  0
LINE
  8
1
 62
3
 10
614.958219824279
 20
418.848484848477
 30
0
 11
630.6637979062
 21
418.848484848477
 31
0
  0
LINE
  8
1
 62
3
 10
630.6637979062
 20
418.848484848477
 30
0
 11
636.3486388288079
 21
442.051175145079
 31
0
  0
LINE
  8
1
 62
3
 10
636.3486388288079
 20
442.051175145079
 30
0
 11
631.113446134885
 21
442.051175145079
 31
0
  0
LINE
  8
1
 62
3
 10
631.113446134885
 20
442.051175145079
 30
0
 11
626.5125792714898
 21
423.2727272727971
 31
0
  0
LINE
  8
1
 62
3
 10
626.5125792714898
 20
423.2727272727971
 30
0
 11
621.277386577538
 21
423.2727272727971
 31
0
  0
LINE
  8
1
 62
3
 10
621.277386577538
 20
423.2727272727971
 30
0
 11
625.878253440889
 21
442.051175145079
 31
0
  0
LINE
  8
1
 62
3
 10
625.878253440889
 20
442.051175145079
 30
0
 11
620.643060746967
 21
442.051175145079
 31
0
  0
LINE
  8
1
 62
3
 10
642.9069775849489
 20
442.051175145079
 30
0
 11
638.8615313219339
 21
442.051175145079
 31
0
  0
LINE
  8
1
 62
3
 10
638.8615313219339
 20
442.051175145079
 30
0
 11
642.9838268441308
 21
431.4153012186609
 31
0
  0
LINE
  8
1
 62
3
 10
642.9838268441308
 20
431.4153012186609
 30
0
 11
633.1766903993409
 21
418.848484848477
 31
0
  0
LINE
  8
1
 62
3
 10
633.1766903993409
 20
418.848484848477
 30
0
 11
637.222136662338
 21
418.848484848477
 31
0
  0
LINE
  8
1
 62
3
 10
637.222136662338
 20
418.848484848477
 30
0
 11
644.3262692424398
 21
427.951685370502
 31
0
  0
LINE
  8
1
 62
3
 10
644.3262692424398
 20
427.951685370502
 30
0
 11
647.8545249371239
 21
418.848484848477
 31
0
  0
LINE
  8
1
 62
3
 10
647.8545249371239
 20
418.848484848477
 30
0
 11
651.8999712001719
 21
418.848484848477
 31
0
  0
LINE
  8
1
 62
3
 10
651.8999712001719
 20
418.848484848477
 30
0
 11
647.0292731071679
 21
431.415301218603
 31
0
  0
LINE
  8
1
 62
3
 10
647.0292731071679
 20
431.415301218603
 30
0
 11
655.32950315225
 21
442.051175145079
 31
0
  0
LINE
  8
1
 62
3
 10
655.32950315225
 20
442.051175145079
 30
0
 11
651.284056889192
 21
442.051175145079
 31
0
  0
LINE
  8
1
 62
3
 10
651.284056889192
 20
442.051175145079
 30
0
 11
645.686830708906
 21
434.878917066824
 31
0
  0
LINE
  8
1
 62
3
 10
645.686830708906
 20
434.878917066824
 30
0
 11
642.9069775849489
 21
442.051175145079
 31
0
  0
LINE
  8
1
 62
3
 10
652.928830785688
 20
416.1939393939099
 30
0
 11
655.3295031522068
 21
410
 31
0
  0
LINE
  8
1
 62
3
 10
652.928830785688
 20
416.1939393939099
 30
0
 11
610.1196812335149
 21
416.1939393939099
 31
0
  0
LINE
  8
1
 62
3
 10
655.3295031522068
 20
410
 30
0
 11
602.738701733397
 21
410
 31
0
  0
LINE
  8
1
 62
3
 10
511.7386876589662
 20
453.1117812056621
 30
0
 11
514.9906098364481
 21
466.38450847832
 31
0
  0
LINE
  8
1
 62
3
 10
514.9906098364481
 20
466.38450847832
 30
0
 11
527.5550723021661
 21
466.38450847832
 31
0
  0
LINE
  8
1
 62
3
 10
527.5550723021661
 20
466.38450847832
 30
0
 11
524.3031501244914
 21
453.1117812056621
 31
0
  0
LINE
  8
1
 62
3
 10
524.3031501244914
 20
453.1117812056621
 30
0
 11
511.7386876589662
 21
453.1117812056621
 31
0
  0
LINE
  8
1
 62
3
 10
522.7510600764872
 20
455.3239024177931
 30
0
 11
514.3747517661323
 21
455.3239024177931
 31
0
  0
LINE
  8
1
 62
3
 10
524.9190081949637
 20
464.172387266269
 30
0
 11
522.7510600764872
 21
455.3239024177931
 31
0
  0
LINE
  8
1
 62
3
 10
516.5426998844741
 20
464.172387266269
 30
0
 11
524.9190081949637
 21
464.172387266269
 31
0
  0
LINE
  8
1
 62
3
 10
514.3747517661323
 20
455.3239024177931
 30
0
 11
516.5426998844741
 21
464.172387266269
 31
0
  0
LINE
  8
1
 62
3
 10
530.0679647951583
 20
466.38450847832
 30
0
 11
526.8160426176219
 21
453.1117812056621
 31
0
  0
LINE
  8
1
 62
3
 10
530.0679647951583
 20
466.38450847832
 30
0
 11
542.632427260738
 21
466.38450847832
 31
0
  0
LINE
  8
1
 62
3
 10
542.632427260738
 20
466.38450847832
 30
0
 11
540.7649031508845
 21
458.7622048583319
 31
0
  0
LINE
  8
1
 62
3
 10
539.3805050832052
 20
453.1117812056621
 30
0
 11
537.2864280055655
 21
453.1117812056621
 31
0
  0
LINE
  8
1
 62
3
 10
537.2864280055655
 20
453.1117812056621
 30
0
 11
538.3704020649384
 21
457.5360236298441
 31
0
  0
LINE
  8
1
 62
3
 10
538.3704020649384
 20
457.5360236298441
 30
0
 11
529.9940937544088
 21
457.5360236298441
 31
0
  0
LINE
  8
1
 62
3
 10
530.5360807840007
 20
459.7481448420331
 30
0
 11
538.9123890943811
 21
459.7481448420331
 31
0
  0
LINE
  8
1
 62
3
 10
538.9123890943811
 20
459.7481448420331
 30
0
 11
539.996363153703
 21
464.172387266269
 31
0
  0
LINE
  8
1
 62
3
 10
539.996363153703
 20
464.172387266269
 30
0
 11
531.6200548431843
 21
464.172387266269
 31
0
  0
LINE
  8
1
 62
3
 10
531.6200548431843
 20
464.172387266269
 30
0
 11
530.5360807840007
 21
459.7481448420331
 31
0
  0
LINE
  8
1
 62
3
 10
540.3282234693179
 20
456.979895810782
 30
0
 11
539.3805050832052
 21
453.1117812056621
 31
0
  0
LINE
  8
1
 62
3
 10
526.8160426176219
 20
453.1117812056621
 30
0
 11
528.9101196952979
 21
453.1117812056621
 31
0
  0
LINE
  8
1
 62
3
 10
528.9101196952979
 20
453.1117812056621
 30
0
 11
529.9940937544088
 21
457.5360236298441
 31
0
  0
LINE
  8
1
 62
3
 10
547.2393968314646
 20
466.38450847832
 30
0
 11
545.1453197539013
 21
466.38450847832
 31
0
  0
LINE
  8
1
 62
3
 10
545.1453197539013
 20
466.38450847832
 30
0
 11
541.8933975763357
 21
453.1117812056621
 31
0
  0
LINE
  8
1
 62
3
 10
541.8933975763357
 20
453.1117812056621
 30
0
 11
543.9874746540554
 21
453.1117812056621
 31
0
  0
LINE
  8
1
 62
3
 10
543.9874746540554
 20
453.1117812056621
 30
0
 11
547.2393968314646
 21
466.38450847832
 31
0
  0
LINE
  8
1
 62
3
 10
546.5003671470404
 20
453.1117812056621
 30
0
 11
549.7522893245841
 21
466.38450847832
 31
0
  0
LINE
  8
1
 62
3
 10
549.7522893245841
 20
466.38450847832
 30
0
 11
562.316751790175
 21
466.38450847832
 31
0
  0
LINE
  8
1
 62
3
 10
562.316751790175
 20
466.38450847832
 30
0
 11
561.1785790280478
 21
461.739053932891
 31
0
  0
LINE
  8
1
 62
3
 10
559.0648296126528
 20
453.1117812056621
 30
0
 11
546.5003671470404
 21
453.1117812056621
 31
0
  0
LINE
  8
1
 62
3
 10
557.512739564605
 20
455.3239024177931
 30
0
 11
549.1364312542755
 21
455.3239024177931
 31
0
  0
LINE
  8
1
 62
3
 10
559.6806876828998
 20
464.172387266269
 30
0
 11
559.0845019505218
 21
461.739053932891
 31
0
  0
LINE
  8
1
 62
3
 10
551.3043793726031
 20
464.172387266269
 30
0
 11
559.6806876828998
 21
464.172387266269
 31
0
  0
LINE
  8
1
 62
3
 10
549.1364312542755
 20
455.3239024177931
 30
0
 11
551.3043793726031
 21
464.172387266269
 31
0
  0
LINE
  8
1
 62
3
 10
560.6907907014249
 20
459.7481448420331
 30
0
 11
554.4085594686189
 21
459.7481448420331
 31
0
  0
LINE
  8
1
 62
3
 10
560.6907907014249
 20
459.7481448420331
 30
0
 11
559.0648296126528
 21
453.1117812056621
 31
0
  0
LINE
  8
1
 62
3
 10
554.4085594686189
 20
459.7481448420331
 30
0
 11
553.8665724389718
 21
457.5360236298441
 31
0
  0
LINE
  8
1
 62
3
 10
553.8665724389718
 20
457.5360236298441
 30
0
 11
558.0547265943719
 21
457.5360236298441
 31
0
  0
LINE
  8
1
 62
3
 10
558.0547265943719
 20
457.5360236298441
 30
0
 11
557.512739564605
 21
455.3239024177931
 31
0
  0
LINE
  8
1
 62
3
 10
559.0845019505218
 20
461.739053932891
 30
0
 11
561.1785790280478
 21
461.739053932891
 31
0
  0
LINE
  8
1
 62
3
 10
561.5777221057688
 20
453.1117812056621
 30
0
 11
563.6717991833289
 21
453.1117812056621
 31
0
  0
LINE
  8
1
 62
3
 10
563.6717991833289
 20
453.1117812056621
 30
0
 11
566.9237213608981
 21
466.38450847832
 31
0
  0
LINE
  8
1
 62
3
 10
564.8296442833339
 20
466.38450847832
 30
0
 11
561.5777221057688
 21
453.1117812056621
 31
0
  0
LINE
  8
1
 62
3
 10
566.9237213608981
 20
466.38450847832
 30
0
 11
564.8296442833339
 21
466.38450847832
 31
0
  0
LINE
  8
1
 62
3
 10
566.1846916764989
 20
453.1117812056621
 30
0
 11
569.436613854014
 21
466.38450847832
 31
0
  0
LINE
  8
1
 62
3
 10
569.436613854014
 20
466.38450847832
 30
0
 11
572.5777294703548
 21
466.38450847832
 31
0
  0
LINE
  8
1
 62
3
 10
572.5777294703548
 20
466.38450847832
 30
0
 11
577.0615673366299
 21
454.770872114746
 31
0
  0
LINE
  8
1
 62
3
 10
577.0615673366299
 20
454.770872114746
 30
0
 11
579.9069992419829
 21
466.38450847832
 31
0
  0
LINE
  8
1
 62
3
 10
579.9069992419829
 20
466.38450847832
 30
0
 11
582.0010763195969
 21
466.38450847832
 31
0
  0
LINE
  8
1
 62
3
 10
582.0010763195969
 20
466.38450847832
 30
0
 11
578.7491541419768
 21
453.1117812056621
 31
0
  0
LINE
  8
1
 62
3
 10
578.7491541419768
 20
453.1117812056621
 30
0
 11
575.5064756532079
 21
453.1117812056621
 31
0
  0
LINE
  8
1
 62
3
 10
575.5064756532079
 20
453.1117812056621
 30
0
 11
571.7253193174979
 21
462.9053946295351
 31
0
  0
LINE
  8
1
 62
3
 10
571.7253193174979
 20
462.9053946295351
 30
0
 11
571.0847710509879
 21
464.5644855385979
 31
0
  0
LINE
  8
1
 62
3
 10
571.0847710509879
 20
464.5644855385979
 30
0
 11
568.278768754059
 21
453.1117812056621
 31
0
  0
LINE
  8
1
 62
3
 10
568.278768754059
 20
453.1117812056621
 30
0
 11
566.1846916764989
 21
453.1117812056621
 31
0
  0
LINE
  8
1
 62
3
 10
581.2620466350929
 20
453.1117812056621
 30
0
 11
588.77347691399
 21
466.38450847832
 31
0
  0
LINE
  8
1
 62
3
 10
588.77347691399
 20
466.38450847832
 30
0
 11
592.818923176965
 21
466.38450847832
 31
0
  0
LINE
  8
1
 62
3
 10
592.818923176965
 20
466.38450847832
 30
0
 11
593.826509100727
 21
453.1117812056621
 31
0
  0
LINE
  8
1
 62
3
 10
593.826509100727
 20
453.1117812056621
 30
0
 11
591.7968269376579
 21
453.1117812056621
 31
0
  0
LINE
  8
1
 62
3
 10
591.7968269376579
 20
453.1117812056621
 30
0
 11
591.6288959503909
 21
455.3239024177931
 31
0
  0
LINE
  8
1
 62
3
 10
591.6288959503909
 20
455.3239024177931
 30
0
 11
584.892748670027
 21
455.3239024177931
 31
0
  0
LINE
  8
1
 62
3
 10
584.892748670027
 20
455.3239024177931
 30
0
 11
583.6408436236638
 21
453.1117812056621
 31
0
  0
LINE
  8
1
 62
3
 10
583.6408436236638
 20
453.1117812056621
 30
0
 11
581.2620466350929
 21
453.1117812056621
 31
0
  0
LINE
  8
1
 62
3
 10
586.144653716558
 20
457.5360236298441
 30
0
 11
591.4609649630688
 21
457.5360236298441
 31
0
  0
LINE
  8
1
 62
3
 10
591.4609649630688
 20
457.5360236298441
 30
0
 11
590.9571720012139
 21
464.172387266269
 31
0
  0
LINE
  8
1
 62
3
 10
590.9571720012139
 20
464.172387266269
 30
0
 11
589.9003688559239
 21
464.172387266269
 31
0
  0
LINE
  8
1
 62
3
 10
586.144653716558
 20
457.5360236298441
 30
0
 11
589.9003688559239
 21
464.172387266269
 31
0
  0
LINE
  8
1
 62
3
 10
599.591323771416
 20
466.38450847832
 30
0
 11
596.339401593847
 21
453.1117812056621
 31
0
  0
LINE
  8
1
 62
3
 10
596.339401593847
 20
453.1117812056621
 30
0
 11
608.9038640594258
 21
453.1117812056621
 31
0
  0
LINE
  8
1
 62
3
 10
608.9038640594258
 20
453.1117812056621
 30
0
 11
609.445851089087
 21
455.3239024177931
 31
0
  0
LINE
  8
1
 62
3
 10
609.445851089087
 20
455.3239024177931
 30
0
 11
598.9754657010669
 21
455.3239024177931
 31
0
  0
LINE
  8
1
 62
3
 10
598.9754657010669
 20
455.3239024177931
 30
0
 11
601.68540084903
 21
466.38450847832
 31
0
  0
LINE
  8
1
 62
3
 10
601.68540084903
 20
466.38450847832
 30
0
 11
599.591323771416
 21
466.38450847832
 31
0
  0
LINE
  8
1
 62
3
 10
646.206636135699
 20
460.2001112138419
 30
0
 11
646.206636135699
 21
457.451055788282
 31
0
  0
LINE
  8
1
 62
3
 10
645.3341884365839
 20
457.451055788282
 30
0
 11
645.3341884365839
 21
464.3095239634561
 31
0
  0
LINE
  8
1
 62
3
 10
645.3341884365839
 20
464.3095239634561
 30
0
 11
647.7761082958239
 21
464.3095239634561
 31
0
  0
LINE
  8
1
 62
3
 10
647.7761082958239
 20
464.3095239634561
 30
0
 11
648.0724648781759
 21
464.3095239634561
 31
0
  0
LINE
  8
1
 62
3
 10
649.9060993927419
 20
459.3306895546259
 30
0
 11
649.9060993927419
 21
457.451055788282
 31
0
  0
LINE
  8
1
 62
3
 10
649.9060993927419
 20
457.451055788282
 30
0
 11
648.9449125772369
 21
457.451055788282
 31
0
  0
LINE
  8
1
 62
3
 10
648.9449125772369
 20
457.451055788282
 30
0
 11
648.9449125772369
 21
459.0729110559
 31
0
  0
LINE
  8
1
 62
3
 10
647.931697837317
 20
460.2001112138419
 30
0
 11
646.206636135699
 21
460.2001112138419
 31
0
  0
LINE
  8
1
 62
3
 10
646.206636135699
 20
457.451055788282
 30
0
 11
645.3341884365839
 21
457.451055788282
 31
0
  0
LINE
  8
1
 62
3
 10
646.206636135699
 20
461.050334541276
 30
0
 11
648.194119363641
 21
461.050334541276
 31
0
  0
LINE
  8
1
 62
3
 10
648.062609127785
 20
463.505992531278
 30
0
 11
646.206636135699
 21
463.505992531278
 31
0
  0
LINE
  8
1
 62
3
 10
646.206636135699
 20
463.505992531278
 30
0
 11
646.206636135699
 21
461.050334541276
 31
0
  0
ARC
  8
1
 62
3
 10
647.9426940693159
 20
462.3039199213811
 30
0
 40
2.009798008861834
 50
304.0700115354259
 51
86.29788871825861
  0
ARC
  8
1
 62
3
 10
647.8643762433019
 20
462.264025930551
 30
0
 40
1.257687287767188
 50
285.1995809529435
 51
80.93139523878851
  0
ARC
  8
1
 62
3
 10
647.789193605106
 20
459.0530393898221
 30
0
 40
1.155889798231653
 50
0.9850581704823435
 51
82.91825463293205
  0
ARC
  8
1
 62
3
 10
648.514586791596
 20
459.3622336822259
 30
0
 40
1.39187009132817
 50
358.7013873342734
 51
66.54486649404458
  0
CIRCLE
  8
1
 62
3
 10
647.7358752379369
 20
460.878787878755
 30
0
 40
5.972862778753957
  0
CIRCLE
  8
1
 62
3
 10
647.7358752379369
 20
460.878787878755
 30
0
 40
5.530127989695984
  0
ENDBLK
  8
0
  0
BLOCK
  8
0
  2
WANNE_PICCOLO_167
 70
0
 10
450.000000000001
 20
399.9999999999991
 30
0
  0
LINE
  8
MITTELLINIEN
 62
3
  6
DASHDOT
 10
1478.989954999998
 20
470
 30
0
 11
1349.321980999986
 21
470
 31
0
  0
LINE
  8
MITTELLINIEN
 62
3
  6
DASHDOT
 10
1415
 20
533.9899549999991
 30
0
 11
1415
 21
404.3219809999989
 31
0
  0
LINE
  8
1
 62
7
 10
0
 20
750
 30
0
 11
1650
 21
750
 31
0
  0
LINE
  8
1
 62
7
 10
0
 20
0
 30
0
 11
0
 21
750
 31
0
  0
LINE
  8
1
 62
7
 10
1650
 20
750
 30
0
 11
1650
 21
249.999999999998
 31
0
  0
LINE
  8
1
 62
7
 10
0
 20
0
 30
0
 11
500
 21
0
 31
0
  0
ARC
  8
1
 62
7
 10
340.9999998122278
 20
348.1325470787961
 30
0
 40
299.9999998122283
 50
102.2078739054101
 51
180
  0
ARC
  8
1
 62
7
 10
1403.26742800002
 20
470.0930220000021
 30
0
 40
204.9999999999962
 50
288.3598719999948
 51
357.0730765670623
  0
ARC
  8
1
 62
7
 10
965.12651138088
 20
-2188.980069568667
 30
0
 40
2899.923444875839
 50
80.67147761183192
 51
90.2564259142937
  0
ARC
  8
1
 62
7
 10
-135.129492362328
 20
5327.222586886157
 30
0
 40
5254.921412990003
 50
277.1318511566357
 51
287.5984493378715
  0
ARC
  8
1
 62
7
 10
481.5799547542449
 20
370.494767949197
 30
0
 40
260.0000001021866
 50
99.48138791458132
 51
277.8932767713872
  0
ARC
  8
1
 62
7
 10
937.0939721187831
 20
-2358.128632897827
 30
0
 40
3026.383682952934
 50
80.64034073001527
 51
99.4778440061025
  0
ARC
  8
1
 62
7
 10
1403.267427999955
 20
470.0930219999959
 30
0
 40
160.0000000000109
 50
288.3598720000157
 51
81.04150899998425
  0
ARC
  8
1
 62
7
 10
-121.9370400213979
 20
5233.201852236536
 30
0
 40
5206.334309711623
 50
275.1947657433566
 51
287.779477552447
  0
ARC
  8
1
 62
7
 10
340.9999998122278
 20
348.1325470787961
 30
0
 40
299.9999998122278
 50
180
 51
271.6145798560614
  0
ARC
  8
1
 62
7
 10
937.079755548883
 20
-2447.925568136855
 30
0
 40
3158.875839930342
 50
89.72669043742042
 51
102.0900693248576
  0
ARC
  8
1
 62
7
 10
1403.26742800002
 20
470.0930220000021
 30
0
 40
204.9999999999952
 50
357.0730765670623
 51
81.04150900000555
  0
ARC
  8
1
 62
7
 10
-1060.101626016417
 20
9946.467479675601
 30
0
 40
10068.07491071373
 50
278.9142041426619
 51
285.6153433131227
  0
CIRCLE
  8
WANNE
 62
7
 10
1414.999999999994
 20
470
 30
0
 40
26
  0
CIRCLE
  8
WANNE
 62
7
 10
1414.999999999994
 20
470
 30
0
 40
45
  0
POLYLINE
  8
1
 62
7
 66
1
 70
1
  0
VERTEX
  8
1
 10
1485.730972162209
 20
297.828904931767
 30
0
 42
0.02577925283846072
  0
VERTEX
  8
1
 10
1485.276810267076
 20
298.4763038081065
 30
0
 42
0.07065744835479161
  0
VERTEX
  8
1
 10
1484.595924053564
 20
299.1074101794537
 30
0
 42
0.007043464639512688
  0
VERTEX
  8
1
 10
1483.715114304903
 20
299.6705806893523
 30
0
 42
0.05502302674312029
  0
VERTEX
  8
1
 10
1481.681500302273
 20
300.4868110057882
 30
0
 42
0.04329096597605796
  0
VERTEX
  8
1
 10
1480.325863225308
 20
300.8263233272826
 30
0
 42
0.002381693203158725
  0
VERTEX
  8
1
 10
1478.831181407762
 20
301.0788196061707
 30
0
 42
0.02738275818640305
  0
VERTEX
  8
1
 10
1475.694209101891
 20
301.3255777491024
 30
0
 42
0.02353267619723067
  0
VERTEX
  8
1
 10
1473.856670299298
 20
301.3366289589853
 30
0
 42
0.0008208123466287227
  0
VERTEX
  8
1
 10
1471.938707335825
 20
301.2633412107495
 30
0
 42
0.01821061406789454
  0
VERTEX
  8
1
 10
1468.037092347704
 20
300.8914363899229
 30
0
 42
0.01685274441943363
  0
VERTEX
  8
1
 10
1465.946007528854
 20
300.5834960998328
 30
0
 42
0.0002096116074058971
  0
VERTEX
  8
1
 10
1463.837715858326
 20
300.2018621825187
 30
0
 42
0.0154552588470725
  0
VERTEX
  8
1
 10
1459.633711327276
 20
299.2367507834134
 30
0
 42
0.01524977217519658
  0
VERTEX
  8
1
 10
1455.496144629973
 20
298.017884123293
 30
0
 42
0.01535122720823143
  0
VERTEX
  8
1
 10
1453.471335042028
 20
297.3173954742528
 30
0
 42
0.0004628065938386217
  0
VERTEX
  8
1
 10
1451.497637812362
 20
296.5611004342762
 30
0
 42
0.01746727649803211
  0
VERTEX
  8
1
 10
1447.914361140593
 20
294.973321795791
 30
0
 42
0.01848802659716856
  0
VERTEX
  8
1
 10
1446.206564044391
 20
294.0973183132057
 30
0
 42
0.001392270056813961
  0
VERTEX
  8
1
 10
1444.610202344521
 20
293.1872082630114
 30
0
 42
0.02540660412509757
  0
VERTEX
  8
1
 10
1441.996635205563
 20
291.4348522378112
 30
0
 42
0.02832226798842064
  0
VERTEX
  8
1
 10
1440.81745990772
 20
290.4822905739204
 30
0
 42
0.0041767403475675
  0
VERTEX
  8
1
 10
1439.802131288895
 20
289.5220154588198
 30
0
 42
0.04964022990270155
  0
VERTEX
  8
1
 10
1438.42942541369
 20
287.8139474211396
 30
0
 42
0.05867445087291861
  0
VERTEX
  8
1
 10
1437.937604993331
 20
286.8913968747343
 30
0
 42
0.008947349409847375
  0
VERTEX
  8
1
 10
1437.653348974363
 20
286.0075983663701
 30
0
 42
0.1101071493376163
  0
VERTEX
  8
1
 10
1437.670855290526
 20
284.4415480205429
 30
0
 42
0.1109071365000181
  0
VERTEX
  8
1
 10
1438.423030260708
 20
283.0678475542836
 30
0
 42
0.1056729782842283
  0
VERTEX
  8
1
 10
1439.10391647422
 20
282.4367411829365
 30
0
 42
0.007043464639588297
  0
VERTEX
  8
1
 10
1439.98472622288
 20
281.8735706730384
 30
0
 42
0.05502302674321064
  0
VERTEX
  8
1
 10
1442.018340225511
 20
281.0573403566029
 30
0
 42
0.04329096597654888
  0
VERTEX
  8
1
 10
1443.373977302476
 20
280.7178280351078
 30
0
 42
0.002381693203058885
  0
VERTEX
  8
1
 10
1444.868659120023
 20
280.465331756219
 30
0
 42
0.02738275818648941
  0
VERTEX
  8
1
 10
1448.005631425893
 20
280.2185736132877
 30
0
 42
0.02353267619667241
  0
VERTEX
  8
1
 10
1449.843170228485
 20
280.2075224034048
 30
0
 42
0.0008208123466290237
  0
VERTEX
  8
1
 10
1451.761133191959
 20
280.2808101516407
 30
0
 42
0.01821061406790771
  0
VERTEX
  8
1
 10
1455.66274818008
 20
280.6527149724672
 30
0
 42
0.01685274441953697
  0
VERTEX
  8
1
 10
1457.75383299893
 20
280.9606552625576
 30
0
 42
0.0002096116074571583
  0
VERTEX
  8
1
 10
1459.86212466946
 20
281.3422891798721
 30
0
 42
0.01545525884703879
  0
VERTEX
  8
1
 10
1464.066129200509
 20
282.3074005789767
 30
0
 42
0.01524977217526139
  0
VERTEX
  8
1
 10
1468.203695897812
 20
283.5262672390972
 30
0
 42
0.01535122721336242
  0
VERTEX
  8
1
 10
1470.228505485756
 20
284.2267558881379
 30
0
 42
0.0004628065937983684
  0
VERTEX
  8
1
 10
1472.202202715422
 20
284.9830509281144
 30
0
 42
0.01746727649805735
  0
VERTEX
  8
1
 10
1475.785479387193
 20
286.5708295665987
 30
0
 42
0.01848802659852743
  0
VERTEX
  8
1
 10
1477.493276483394
 20
287.446833049184
 30
0
 42
0.001392270056800311
  0
VERTEX
  8
1
 10
1479.089638183263
 20
288.3569430993784
 30
0
 42
0.02540660412510742
  0
VERTEX
  8
1
 10
1481.703205322223
 20
290.1092991245783
 30
0
 42
0.02832226798866043
  0
VERTEX
  8
1
 10
1482.882380620065
 20
291.0618607884694
 30
0
 42
0.004176740347542326
  0
VERTEX
  8
1
 10
1483.897709238891
 20
292.0221359035702
 30
0
 42
0.04964022990274852
  0
VERTEX
  8
1
 10
1485.270415114095
 20
293.7302039412509
 30
0
 42
0.05867445087454467
  0
VERTEX
  8
1
 10
1485.762235534454
 20
294.6527544876561
 30
0
 42
0.008947349409832814
  0
VERTEX
  8
1
 10
1486.046491553422
 20
295.5365529960203
 30
0
 42
0.1101071493376557
  0
VERTEX
  8
1
 10
1486.028985237258
 20
297.1026033418468
 30
0
  0
VERTEX
  8
1
 10
1485.730972162209
 20
297.828904931767
 30
0
  0
SEQEND
  8
1
  0
ENDBLK
  8
0
  0
ENDSEC
  0
SECTION
  2
ENTITIES
  0
TEXT
  8
1
 62
2
 10
475
 20
335
 30
0
 40
35
  1
PICCOLO 167
 41
0.5993999999999999
  0
TEXT
  8
1
 62
3
 10
1281.084
 20
520.0000000000009
 30
0
 40
35
  1
Ö 52
 41
0.5993999999999999
 72
2
 11
1365
 21
520.0000000000009
 31
0
  0
INSERT
  8
0
  2
DLX
 10
475
 20
410
 30
0
  0
INSERT
  8
0
  2
WANNE_PICCOLO_167
 10
450.000000000001
 20
399.9999999999991
 30
0
  0
ENDSEC
  0
EOF
