  0
SECTION
  2
HEADER
  9
$ACADVER
  1
AC1009
  9
$INSBASE
 10
0
 20
0
  9
$EXTMIN
 10
0
 20
0
  9
$EXTMAX
 10
1650
 20
750
  9
$LIMMIN
 10
0
 20
0
  9
$LIMMAX
 10
1650
 20
750
  9
$VIEWCTR
 10
10
 20
10
  9
$VIEWSIZE
 40
10
  9
$SNAPMODE
 70
0
  9
$SNAPUNIT
 10
1
 20
1
  9
$SNAPBASE
 10
0
 20
0
  9
$SNAPANG
 50
0
  9
$SNAPSTYLE
 70
0
  9
$SNAPISOPAIR
 70
0
  9
$GRIDMODE
 70
0
  9
$GRIDUNIT
 10
0
 20
0
  9
$ORTHOMODE
 70
0
  9
$REGENMODE
 70
1
  9
$FILLMODE
 70
1
  9
$QTEXTMODE
 70
0
  9
$DRAGMODE
 70
2
  9
$LTSCALE
 40
1
  9
$OSMODE
 70
0
  9
$ATTMODE
 70
1
  9
$TEXTSIZE
 40
3.5
  9
$TRACEWID
 40
0.5
  9
$TEXTSTYLE
  7
STANDARD
  9
$CLAYER
  8
0
  9
$CELTYPE
  6
BYLAYER
  9
$CECOLOR
 62
256
  9
$DIMSCALE
 40
1
  9
$DIMASZ
 40
0.18
  9
$DIMEXO
 40
0.0625
  9
$DIMDLI
 40
0.38
  9
$DIMRND
 40
0
  9
$DIMDLE
 40
0
  9
$DIMEXE
 40
0.18
  9
$DIMTP
 40
0
  9
$DIMTM
 40
0
  9
$DIMTXT
 40
0.18
  9
$DIMCEN
 40
0.09
  9
$DIMTSZ
 40
0
  9
$DIMTOL
 70
0
  9
$DIMLIM
 70
0
  9
$DIMTIH
 70
1
  9
$DIMTOH
 70
1
  9
$DIMSE1
 70
0
  9
$DIMSE2
 70
0
  9
$DIMTAD
 70
0
  9
$DIMZIN
 70
0
  9
$DIMBLK
  1

  9
$DIMASO
 70
1
  9
$DIMSHO
 70
1
  9
$DIMPOST
  1

  9
$DIMAPOST
  1

  9
$DIMALT
 70
0
  9
$DIMALTD
 70
2
  9
$DIMALTF
 40
25.4
  9
$DIMLFAC
 40
1
  9
$DIMTOFL
 70
0
  9
$DIMTVP
 40
0
  9
$DIMTIX
 70
0
  9
$DIMSOXD
 70
0
  9
$DIMSAH
 70
0
  9
$DIMBLK1
  1

  9
$DIMBLK2
  1

  9
$DIMSTYLE
  2
*UNNAMED
  9
$DIMCLRD
 70
0
  9
$DIMCLRE
 70
0
  9
$DIMCLRT
 70
0
  9
$DIMTFAC
 40
1
  9
$DIMGAP
 40
0.09
  9
$LUNITS
 70
2
  9
$LUPREC
 70
4
  9
$AXISMODE
 70
0
  9
$AXISUNIT
 10
0
 20
0
  9
$SKETCHINC
 40
0.1
  9
$FILLETRAD
 40
2
  9
$AUNITS
 70
0
  9
$AUPREC
 70
0
  9
$MENU
  1
ACAD
  9
$ELEVATION
 40
0
  9
$THICKNESS
 40
0
  9
$VIEWDIR
 10
0
 20
0
 30
1
  9
$LIMCHECK
 70
0
  9
$BLIPMODE
 70
1
  9
$CHAMFERA
 40
0
  9
$CHAMFERB
 40
0
  9
$FASTZOOM
 70
1
  9
$SKPOLY
 70
0
  9
$ANGBASE
 50
0
  9
$ANGDIR
 70
0
  9
$PDMODE
 70
0
  9
$PDSIZE
 40
0
  9
$PLINEWID
 40
0
  9
$COORDS
 70
2
  0
ENDSEC
  0
SECTION
  2
TABLES
  0
TABLE
  2
DIMSTYLE
 70
0
  0
ENDTAB
  0
TABLE
  2
LTYPE
 70
9
  0
LTYPE
  2
CONTINUOUS
 70
64
  3
Solid line
 72
65
 73
0
 40
0
  0
LTYPE
  2
BORDER
 70
64
  3
__ __ . __ __ .
 72
65
 73
6
 40
75.98684210526315
 49
21.71052631578947
 49
-10.85526315789474
 49
21.71052631578947
 49
-10.85526315789474
 49
0
 49
-10.85526315789474
  0
LTYPE
  2
CENTER
 70
64
  3
____ _ ____ _
 72
65
 73
4
 40
86.84210526315789
 49
54.27631578947369
 49
-10.85526315789474
 49
10.85526315789474
 49
-10.85526315789474
  0
LTYPE
  2
DASHDOT
 70
64
  3
__ . __ . __ .
 72
65
 73
4
 40
43.42105263157895
 49
21.71052631578947
 49
-10.85526315789474
 49
0
 49
-10.85526315789474
  0
LTYPE
  2
DASHED
 70
64
  3
__ __ __ __ __
 72
65
 73
2
 40
32.56578947368421
 49
21.71052631578947
 49
-10.85526315789474
  0
LTYPE
  2
DIVIDE
 70
64
  3
__ . . __ . . 
 72
65
 73
6
 40
54.27631578947369
 49
21.71052631578947
 49
-10.85526315789474
 49
0
 49
-10.85526315789474
 49
0
 49
-10.85526315789474
  0
LTYPE
  2
DOT
 70
64
  3
..............
 72
65
 73
4
 40
21.71052631578947
 49
0
 49
-10.85526315789474
 49
0
 49
-10.85526315789474
  0
LTYPE
  2
HIDDEN
 70
64
  3
_ _ _ _ _ _ _
 72
65
 73
2
 40
16.2828947368421
 49
10.85526315789474
 49
-5.427631578947368
  0
LTYPE
  2
PHANTOM
 70
64
  3
_____ _ _ _____ _ _ 
 72
65
 73
6
 40
108.5526315789474
 49
54.27631578947369
 49
-10.85526315789474
 49
10.85526315789474
 49
-10.85526315789474
 49
10.85526315789474
 49
-10.85526315789474
  0
ENDTAB
  0
TABLE
  2
LAYER
 70
5
  0
LAYER
  2
MITTELLINIEN
 70
0
 62
7
  6
CONTINUOUS
  0
LAYER
  2
1
 70
0
 62
7
  6
CONTINUOUS
  0
LAYER
  2
WANNE
 70
0
 62
7
  6
CONTINUOUS
  0
LAYER
  2
0
 70
0
 62
7
  6
CONTINUOUS
  0
ENDTAB
  0
TABLE
  2
STYLE
 70
4
  0
STYLE
  2
STANDARD
 70
0
 40
0
 41
1
 50
0
 71
0
 42
3.5
  3
txt
  4

  0
STYLE
  2
SIMPLEX
 70
0
 40
0
 41
1
 50
0
 71
0
 42
3.5
  3
simplex
  4

  0
STYLE
  2
COMPLEX
 70
0
 40
0
 41
1
 50
0
 71
0
 42
3.5
  3
complex
  4

  0
STYLE
  2
ITALIC
 70
0
 40
0
 41
1
 50
0
 71
0
 42
3.5
  3
italic
  4

  0
ENDTAB
  0
TABLE
  2
VIEW
 70
0
  0
ENDTAB
  0
ENDSEC
  0
SECTION
  2
BLOCKS
  0
BLOCK
  8
0
  2
DLX
 70
0
 10
994.6704968477918
 20
410
 30
0
  0
LINE
  8
1
 62
3
 10
1165.877132983491
 20
463.505992531278
 30
0
 11
1165.877132983491
 21
461.050334541276
 31
0
  0
LINE
  8
1
 62
3
 10
1167.733105975577
 20
463.505992531278
 30
0
 11
1165.877132983491
 21
463.505992531278
 31
0
  0
LINE
  8
1
 62
3
 10
1165.877132983491
 20
461.050334541276
 30
0
 11
1167.864616211433
 21
461.050334541276
 31
0
  0
LINE
  8
1
 62
3
 10
1165.877132983491
 20
457.451055788282
 30
0
 11
1165.004685284376
 21
457.451055788282
 31
0
  0
LINE
  8
1
 62
3
 10
1167.602194685109
 20
460.2001112138421
 30
0
 11
1165.877132983491
 21
460.2001112138421
 31
0
  0
LINE
  8
1
 62
3
 10
1168.615409425029
 20
457.451055788282
 30
0
 11
1168.615409425029
 21
459.0729110559
 31
0
  0
LINE
  8
1
 62
3
 10
1169.576596240534
 20
457.451055788282
 30
0
 11
1168.615409425029
 21
457.451055788282
 31
0
  0
LINE
  8
1
 62
3
 10
1169.576596240534
 20
459.3306895546259
 30
0
 11
1169.576596240534
 21
457.451055788282
 31
0
  0
LINE
  8
1
 62
3
 10
1167.446605143616
 20
464.3095239634561
 30
0
 11
1167.742961725968
 21
464.3095239634561
 31
0
  0
LINE
  8
1
 62
3
 10
1165.004685284376
 20
464.3095239634561
 30
0
 11
1167.446605143616
 21
464.3095239634561
 31
0
  0
LINE
  8
1
 62
3
 10
1165.004685284376
 20
457.451055788282
 30
0
 11
1165.004685284376
 21
464.3095239634561
 31
0
  0
LINE
  8
1
 62
3
 10
1165.877132983491
 20
460.2001112138421
 30
0
 11
1165.877132983491
 21
457.451055788282
 31
0
  0
LINE
  8
1
 62
3
 10
1121.355897696822
 20
466.38450847832
 30
0
 11
1119.261820619208
 21
466.38450847832
 31
0
  0
LINE
  8
1
 62
3
 10
1118.645962548859
 20
455.3239024177931
 30
0
 11
1121.355897696822
 21
466.38450847832
 31
0
  0
LINE
  8
1
 62
3
 10
1129.116347936879
 20
455.3239024177931
 30
0
 11
1118.645962548859
 21
455.3239024177931
 31
0
  0
LINE
  8
1
 62
3
 10
1128.574360907218
 20
453.1117812056621
 30
0
 11
1129.116347936879
 21
455.3239024177931
 31
0
  0
LINE
  8
1
 62
3
 10
1116.009898441639
 20
453.1117812056621
 30
0
 11
1128.574360907218
 21
453.1117812056621
 31
0
  0
LINE
  8
1
 62
3
 10
1119.261820619208
 20
466.38450847832
 30
0
 11
1116.009898441639
 21
453.1117812056621
 31
0
  0
LINE
  8
1
 62
3
 10
1105.81515056435
 20
457.5360236298441
 30
0
 11
1109.570865703716
 21
464.172387266269
 31
0
  0
LINE
  8
1
 62
3
 10
1110.627668849006
 20
464.172387266269
 30
0
 11
1109.570865703716
 21
464.172387266269
 31
0
  0
LINE
  8
1
 62
3
 10
1111.131461810861
 20
457.5360236298441
 30
0
 11
1110.627668849006
 21
464.172387266269
 31
0
  0
LINE
  8
1
 62
3
 10
1105.81515056435
 20
457.5360236298441
 30
0
 11
1111.131461810861
 21
457.5360236298441
 31
0
  0
LINE
  8
1
 62
3
 10
1103.311340471456
 20
453.1117812056621
 30
0
 11
1100.932543482885
 21
453.1117812056621
 31
0
  0
LINE
  8
1
 62
3
 10
1104.563245517819
 20
455.3239024177931
 30
0
 11
1103.311340471456
 21
453.1117812056621
 31
0
  0
LINE
  8
1
 62
3
 10
1111.299392798183
 20
455.3239024177931
 30
0
 11
1104.563245517819
 21
455.3239024177931
 31
0
  0
LINE
  8
1
 62
3
 10
1111.46732378545
 20
453.1117812056621
 30
0
 11
1111.299392798183
 21
455.3239024177931
 31
0
  0
LINE
  8
1
 62
3
 10
1113.497005948519
 20
453.1117812056621
 30
0
 11
1111.46732378545
 21
453.1117812056621
 31
0
  0
LINE
  8
1
 62
3
 10
1112.489420024757
 20
466.38450847832
 30
0
 11
1113.497005948519
 21
453.1117812056621
 31
0
  0
LINE
  8
1
 62
3
 10
1108.443973761782
 20
466.38450847832
 30
0
 11
1112.489420024757
 21
466.38450847832
 31
0
  0
LINE
  8
1
 62
3
 10
1100.932543482885
 20
453.1117812056621
 30
0
 11
1108.443973761782
 21
466.38450847832
 31
0
  0
LINE
  8
1
 62
3
 10
1087.949265601851
 20
453.1117812056621
 30
0
 11
1085.855188524291
 21
453.1117812056621
 31
0
  0
LINE
  8
1
 62
3
 10
1090.75526789878
 20
464.5644855385981
 30
0
 11
1087.949265601851
 21
453.1117812056621
 31
0
  0
LINE
  8
1
 62
3
 10
1091.39581616529
 20
462.9053946295351
 30
0
 11
1090.75526789878
 21
464.5644855385981
 31
0
  0
LINE
  8
1
 62
3
 10
1095.176972501
 20
453.1117812056621
 30
0
 11
1091.39581616529
 21
462.9053946295351
 31
0
  0
LINE
  8
1
 62
3
 10
1098.419650989769
 20
453.1117812056621
 30
0
 11
1095.176972501
 21
453.1117812056621
 31
0
  0
LINE
  8
1
 62
3
 10
1101.671573167389
 20
466.38450847832
 30
0
 11
1098.419650989769
 21
453.1117812056621
 31
0
  0
LINE
  8
1
 62
3
 10
1099.577496089775
 20
466.38450847832
 30
0
 11
1101.671573167389
 21
466.38450847832
 31
0
  0
LINE
  8
1
 62
3
 10
1096.732064184422
 20
454.770872114746
 30
0
 11
1099.577496089775
 21
466.38450847832
 31
0
  0
LINE
  8
1
 62
3
 10
1092.248226318147
 20
466.38450847832
 30
0
 11
1096.732064184422
 21
454.770872114746
 31
0
  0
LINE
  8
1
 62
3
 10
1089.107110701806
 20
466.38450847832
 30
0
 11
1092.248226318147
 21
466.38450847832
 31
0
  0
LINE
  8
1
 62
3
 10
1085.855188524291
 20
453.1117812056621
 30
0
 11
1089.107110701806
 21
466.38450847832
 31
0
  0
LINE
  8
1
 62
3
 10
1086.59421820869
 20
466.38450847832
 30
0
 11
1084.500141131126
 21
466.38450847832
 31
0
  0
LINE
  8
1
 62
3
 10
1084.500141131126
 20
466.38450847832
 30
0
 11
1081.248218953561
 21
453.1117812056621
 31
0
  0
LINE
  8
1
 62
3
 10
1083.342296031121
 20
453.1117812056621
 30
0
 11
1086.59421820869
 21
466.38450847832
 31
0
  0
LINE
  8
1
 62
3
 10
1081.248218953561
 20
453.1117812056621
 30
0
 11
1083.342296031121
 21
453.1117812056621
 31
0
  0
LINE
  8
1
 62
3
 10
1078.754998798314
 20
461.739053932891
 30
0
 11
1080.84907587584
 21
461.739053932891
 31
0
  0
LINE
  8
1
 62
3
 10
1077.725223442164
 20
457.5360236298441
 30
0
 11
1077.183236412397
 21
455.3239024177931
 31
0
  0
LINE
  8
1
 62
3
 10
1073.537069286764
 20
457.5360236298441
 30
0
 11
1077.725223442164
 21
457.5360236298441
 31
0
  0
LINE
  8
1
 62
3
 10
1074.079056316411
 20
459.7481448420331
 30
0
 11
1073.537069286764
 21
457.5360236298441
 31
0
  0
LINE
  8
1
 62
3
 10
1080.361287549217
 20
459.7481448420331
 30
0
 11
1078.735326460445
 21
453.1117812056621
 31
0
  0
LINE
  8
1
 62
3
 10
1080.361287549217
 20
459.7481448420331
 30
0
 11
1074.079056316411
 21
459.7481448420331
 31
0
  0
LINE
  8
1
 62
3
 10
1068.806928102067
 20
455.3239024177931
 30
0
 11
1070.974876220395
 21
464.172387266269
 31
0
  0
LINE
  8
1
 62
3
 10
1070.974876220395
 20
464.172387266269
 30
0
 11
1079.351184530692
 21
464.172387266269
 31
0
  0
LINE
  8
1
 62
3
 10
1079.351184530692
 20
464.172387266269
 30
0
 11
1078.754998798314
 21
461.739053932891
 31
0
  0
LINE
  8
1
 62
3
 10
1077.183236412397
 20
455.3239024177931
 30
0
 11
1068.806928102067
 21
455.3239024177931
 31
0
  0
LINE
  8
1
 62
3
 10
1078.735326460445
 20
453.1117812056621
 30
0
 11
1066.170863994832
 21
453.1117812056621
 31
0
  0
LINE
  8
1
 62
3
 10
1081.987248637967
 20
466.38450847832
 30
0
 11
1080.84907587584
 21
461.739053932891
 31
0
  0
LINE
  8
1
 62
3
 10
1069.422786172376
 20
466.38450847832
 30
0
 11
1081.987248637967
 21
466.38450847832
 31
0
  0
LINE
  8
1
 62
3
 10
1066.170863994832
 20
453.1117812056621
 30
0
 11
1069.422786172376
 21
466.38450847832
 31
0
  0
LINE
  8
1
 62
3
 10
1063.657971501847
 20
453.1117812056621
 30
0
 11
1066.909893679256
 21
466.38450847832
 31
0
  0
LINE
  8
1
 62
3
 10
1061.563894424128
 20
453.1117812056621
 30
0
 11
1063.657971501847
 21
453.1117812056621
 31
0
  0
LINE
  8
1
 62
3
 10
1064.815816601693
 20
466.38450847832
 30
0
 11
1061.563894424128
 21
453.1117812056621
 31
0
  0
LINE
  8
1
 62
3
 10
1066.909893679256
 20
466.38450847832
 30
0
 11
1064.815816601693
 21
466.38450847832
 31
0
  0
LINE
  8
1
 62
3
 10
1048.58061654309
 20
453.1117812056621
 30
0
 11
1049.664590602201
 21
457.5360236298441
 31
0
  0
LINE
  8
1
 62
3
 10
1046.486539465414
 20
453.1117812056621
 30
0
 11
1048.58061654309
 21
453.1117812056621
 31
0
  0
LINE
  8
1
 62
3
 10
1059.99872031711
 20
456.979895810782
 30
0
 11
1059.051001930997
 21
453.1117812056621
 31
0
  0
LINE
  8
1
 62
3
 10
1051.290551690976
 20
464.172387266269
 30
0
 11
1050.206577631793
 21
459.7481448420331
 31
0
  0
LINE
  8
1
 62
3
 10
1059.666860001495
 20
464.172387266269
 30
0
 11
1051.290551690976
 21
464.172387266269
 31
0
  0
LINE
  8
1
 62
3
 10
1058.582885942173
 20
459.7481448420331
 30
0
 11
1059.666860001495
 21
464.172387266269
 31
0
  0
LINE
  8
1
 62
3
 10
1050.206577631793
 20
459.7481448420331
 30
0
 11
1058.582885942173
 21
459.7481448420331
 31
0
  0
LINE
  8
1
 62
3
 10
1058.04089891273
 20
457.5360236298441
 30
0
 11
1049.664590602201
 21
457.5360236298441
 31
0
  0
LINE
  8
1
 62
3
 10
1056.956924853357
 20
453.1117812056621
 30
0
 11
1058.04089891273
 21
457.5360236298441
 31
0
  0
LINE
  8
1
 62
3
 10
1059.051001930997
 20
453.1117812056621
 30
0
 11
1056.956924853357
 21
453.1117812056621
 31
0
  0
LINE
  8
1
 62
3
 10
1062.30292410853
 20
466.38450847832
 30
0
 11
1060.435399998676
 21
458.7622048583321
 31
0
  0
LINE
  8
1
 62
3
 10
1049.73846164295
 20
466.38450847832
 30
0
 11
1062.30292410853
 21
466.38450847832
 31
0
  0
LINE
  8
1
 62
3
 10
1049.73846164295
 20
466.38450847832
 30
0
 11
1046.486539465414
 21
453.1117812056621
 31
0
  0
LINE
  8
1
 62
3
 10
1034.045248613924
 20
455.3239024177931
 30
0
 11
1036.213196732266
 21
464.172387266269
 31
0
  0
LINE
  8
1
 62
3
 10
1036.213196732266
 20
464.172387266269
 30
0
 11
1044.589505042756
 21
464.172387266269
 31
0
  0
LINE
  8
1
 62
3
 10
1044.589505042756
 20
464.172387266269
 30
0
 11
1042.421556924279
 21
455.3239024177931
 31
0
  0
LINE
  8
1
 62
3
 10
1042.421556924279
 20
455.3239024177931
 30
0
 11
1034.045248613924
 21
455.3239024177931
 31
0
  0
LINE
  8
1
 62
3
 10
1043.973646972283
 20
453.1117812056621
 30
0
 11
1031.409184506758
 21
453.1117812056621
 31
0
  0
LINE
  8
1
 62
3
 10
1047.225569149958
 20
466.38450847832
 30
0
 11
1043.973646972283
 21
453.1117812056621
 31
0
  0
LINE
  8
1
 62
3
 10
1034.66110668424
 20
466.38450847832
 30
0
 11
1047.225569149958
 21
466.38450847832
 31
0
  0
LINE
  8
1
 62
3
 10
1031.409184506758
 20
453.1117812056621
 30
0
 11
1034.66110668424
 21
466.38450847832
 31
0
  0
LINE
  8
1
 62
3
 10
1174.999999999999
 20
410
 30
0
 11
1122.409198581189
 21
410
 31
0
  0
LINE
  8
1
 62
3
 10
1172.59932763348
 20
416.1939393939099
 30
0
 11
1129.790178081307
 21
416.1939393939099
 31
0
  0
LINE
  8
1
 62
3
 10
1172.59932763348
 20
416.1939393939099
 30
0
 11
1174.999999999999
 21
410
 31
0
  0
LINE
  8
1
 62
3
 10
1165.357327556698
 20
434.878917066824
 30
0
 11
1162.577474432741
 21
442.051175145079
 31
0
  0
LINE
  8
1
 62
3
 10
1170.954553736984
 20
442.051175145079
 30
0
 11
1165.357327556698
 21
434.878917066824
 31
0
  0
LINE
  8
1
 62
3
 10
1175.000000000042
 20
442.051175145079
 30
0
 11
1170.954553736984
 21
442.051175145079
 31
0
  0
LINE
  8
1
 62
3
 10
1166.69976995496
 20
431.415301218603
 30
0
 11
1175.000000000042
 21
442.051175145079
 31
0
  0
LINE
  8
1
 62
3
 10
1171.570468047964
 20
418.848484848477
 30
0
 11
1166.69976995496
 21
431.415301218603
 31
0
  0
LINE
  8
1
 62
3
 10
1167.525021784916
 20
418.848484848477
 30
0
 11
1171.570468047964
 21
418.848484848477
 31
0
  0
LINE
  8
1
 62
3
 10
1163.996766090232
 20
427.951685370502
 30
0
 11
1167.525021784916
 21
418.848484848477
 31
0
  0
LINE
  8
1
 62
3
 10
1156.89263351013
 20
418.848484848477
 30
0
 11
1163.996766090232
 21
427.951685370502
 31
0
  0
LINE
  8
1
 62
3
 10
1152.847187247133
 20
418.848484848477
 30
0
 11
1156.89263351013
 21
418.848484848477
 31
0
  0
LINE
  8
1
 62
3
 10
1162.654323691923
 20
431.4153012186609
 30
0
 11
1152.847187247133
 21
418.848484848477
 31
0
  0
LINE
  8
1
 62
3
 10
1158.532028169726
 20
442.051175145079
 30
0
 11
1162.654323691923
 21
431.4153012186609
 31
0
  0
LINE
  8
1
 62
3
 10
1162.577474432741
 20
442.051175145079
 30
0
 11
1158.532028169726
 21
442.051175145079
 31
0
  0
LINE
  8
1
 62
3
 10
1145.548750288681
 20
442.051175145079
 30
0
 11
1140.313557594759
 21
442.051175145079
 31
0
  0
LINE
  8
1
 62
3
 10
1140.94788342533
 20
423.2727272727971
 30
0
 11
1145.548750288681
 21
442.051175145079
 31
0
  0
LINE
  8
1
 62
3
 10
1146.183076119282
 20
423.2727272727971
 30
0
 11
1140.94788342533
 21
423.2727272727971
 31
0
  0
LINE
  8
1
 62
3
 10
1150.783942982677
 20
442.051175145079
 30
0
 11
1146.183076119282
 21
423.2727272727971
 31
0
  0
LINE
  8
1
 62
3
 10
1156.0191356766
 20
442.051175145079
 30
0
 11
1150.783942982677
 21
442.051175145079
 31
0
  0
LINE
  8
1
 62
3
 10
1150.334294753992
 20
418.848484848477
 30
0
 11
1156.0191356766
 21
442.051175145079
 31
0
  0
LINE
  8
1
 62
3
 10
1134.628716672071
 20
418.848484848477
 30
0
 11
1150.334294753992
 21
418.848484848477
 31
0
  0
LINE
  8
1
 62
3
 10
1140.313557594759
 20
442.051175145079
 30
0
 11
1134.628716672071
 21
418.848484848477
 31
0
  0
LINE
  8
1
 62
3
 10
1132.97192277013
 20
453.1117812056621
 30
0
 11
1122.409198581189
 21
410
 31
0
  0
LINE
  8
1
 62
3
 10
1138.835338587398
 20
453.1117812056621
 30
0
 11
1132.97192277013
 21
453.1117812056621
 31
0
  0
LINE
  8
1
 62
3
 10
1129.790178081307
 20
416.1939393939099
 30
0
 11
1138.835338587398
 21
453.1117812056621
 31
0
  0
LINE
  8
1
 62
3
 10
994.6704968477918
 20
410
 30
0
 11
1002.523285888847
 21
442.051175145079
 31
0
  0
LINE
  8
1
 62
3
 10
1002.523285888847
 20
442.051175145079
 30
0
 11
1008.805517121544
 21
442.051175145079
 31
0
  0
LINE
  8
1
 62
3
 10
1008.805517121544
 20
442.051175145079
 30
0
 11
1002.036702139855
 21
414.424242424182
 31
0
  0
LINE
  8
1
 62
3
 10
1002.036702139855
 20
414.424242424182
 30
0
 11
1007.271894833734
 21
414.424242424182
 31
0
  0
LINE
  8
1
 62
3
 10
1007.271894833734
 20
414.424242424182
 30
0
 11
1015.395677389616
 21
447.581478175405
 31
0
  0
LINE
  8
1
 62
3
 10
1015.395677389616
 20
447.581478175405
 30
0
 11
997.704581545082
 21
447.581478175405
 31
0
  0
LINE
  8
1
 62
3
 10
997.704581545082
 20
447.581478175405
 30
0
 11
999.059549119067
 21
453.1117812056621
 31
0
  0
LINE
  8
1
 62
3
 10
999.059549119067
 20
453.1117812056621
 30
0
 11
1023.03287619636
 21
453.1117812056621
 31
0
  0
LINE
  8
1
 62
3
 10
1023.03287619636
 20
453.1117812056621
 30
0
 11
1012.47015200744
 21
410
 31
0
  0
LINE
  8
1
 62
3
 10
1012.47015200744
 20
410
 30
0
 11
994.6704968477918
 21
410
 31
0
  0
LINE
  8
1
 62
3
 10
1016.658306162566
 20
410
 30
0
 11
1024.51109520356
 21
442.051175145079
 31
0
  0
LINE
  8
1
 62
3
 10
1024.51109520356
 20
442.051175145079
 30
0
 11
1030.79332643637
 21
442.051175145079
 31
0
  0
LINE
  8
1
 62
3
 10
1030.79332643637
 20
442.051175145079
 30
0
 11
1024.024511454575
 21
414.424242424182
 31
0
  0
LINE
  8
1
 62
3
 10
1024.024511454575
 20
414.424242424182
 30
0
 11
1029.259704148559
 21
414.424242424182
 31
0
  0
LINE
  8
1
 62
3
 10
1029.259704148559
 20
414.424242424182
 30
0
 11
1036.028519130365
 21
442.051175145079
 31
0
  0
LINE
  8
1
 62
3
 10
1034.457961322156
 20
410
 30
0
 11
1016.658306162566
 21
410
 31
0
  0
LINE
  8
1
 62
3
 10
1036.028519130365
 20
442.051175145079
 30
0
 11
1042.310750363171
 21
442.051175145079
 31
0
  0
LINE
  8
1
 62
3
 10
1042.310750363171
 20
442.051175145079
 30
0
 11
1034.457961322156
 21
410
 31
0
  0
LINE
  8
1
 62
3
 10
1063.251521139106
 20
442.051175145079
 30
0
 11
1046.498904518334
 21
442.051175145079
 31
0
  0
LINE
  8
1
 62
3
 10
1046.498904518334
 20
442.051175145079
 30
0
 11
1041.898037654943
 21
423.2727272727971
 31
0
  0
LINE
  8
1
 62
3
 10
1041.898037654943
 20
423.2727272727971
 30
0
 11
1052.368423042908
 21
423.2727272727971
 31
0
  0
LINE
  8
1
 62
3
 10
1052.368423042908
 20
423.2727272727971
 30
0
 11
1050.20047492449
 21
414.424242424182
 31
0
  0
LINE
  8
1
 62
3
 10
1050.20047492449
 20
414.424242424182
 30
0
 11
1039.730089536579
 21
414.424242424182
 31
0
  0
LINE
  8
1
 62
3
 10
1039.730089536579
 20
414.424242424182
 30
0
 11
1038.646115477272
 21
410
 31
0
  0
LINE
  8
1
 62
3
 10
1038.646115477272
 20
410
 30
0
 11
1055.398732098094
 21
410
 31
0
  0
LINE
  8
1
 62
3
 10
1055.398732098094
 20
410
 30
0
 11
1059.734628335018
 21
427.6969696969529
 31
0
  0
LINE
  8
1
 62
3
 10
1059.734628335018
 20
427.6969696969529
 30
0
 11
1049.264242946955
 21
427.6969696969529
 31
0
  0
LINE
  8
1
 62
3
 10
1049.264242946955
 20
427.6969696969529
 30
0
 11
1051.697161691968
 21
437.626932720839
 31
0
  0
LINE
  8
1
 62
3
 10
1051.697161691968
 20
437.626932720839
 30
0
 11
1062.167547079948
 21
437.626932720839
 31
0
  0
LINE
  8
1
 62
3
 10
1062.167547079948
 20
437.626932720839
 30
0
 11
1063.251521139106
 21
442.051175145079
 31
0
  0
LINE
  8
1
 62
3
 10
1081.482356767114
 20
430.990569084413
 30
0
 11
1084.192291915044
 21
442.051175145079
 31
0
  0
LINE
  8
1
 62
3
 10
1084.192291915044
 20
442.051175145079
 30
0
 11
1067.439675294323
 21
442.051175145079
 31
0
  0
LINE
  8
1
 62
3
 10
1067.439675294323
 20
442.051175145079
 30
0
 11
1059.58688625333
 21
410
 31
0
  0
LINE
  8
1
 62
3
 10
1059.58688625333
 20
410
 30
0
 11
1076.339502874084
 21
410
 31
0
  0
LINE
  8
1
 62
3
 10
1076.339502874084
 20
410
 30
0
 11
1079.049438022058
 21
421.0606060606081
 31
0
  0
LINE
  8
1
 62
3
 10
1079.049438022058
 20
421.0606060606081
 30
0
 11
1072.76720678927
 21
421.0606060606081
 31
0
  0
LINE
  8
1
 62
3
 10
1072.76720678927
 20
421.0606060606081
 30
0
 11
1071.141245700483
 21
414.424242424182
 31
0
  0
LINE
  8
1
 62
3
 10
1071.141245700483
 20
414.424242424182
 30
0
 11
1066.95309154528
 21
414.424242424182
 31
0
  0
LINE
  8
1
 62
3
 10
1066.95309154528
 20
414.424242424182
 30
0
 11
1072.63793246791
 21
437.626932720839
 31
0
  0
LINE
  8
1
 62
3
 10
1072.63793246791
 20
437.626932720839
 30
0
 11
1076.826086623102
 21
437.626932720839
 31
0
  0
LINE
  8
1
 62
3
 10
1076.826086623102
 20
437.626932720839
 30
0
 11
1075.200125534308
 21
430.990569084413
 31
0
  0
LINE
  8
1
 62
3
 10
1075.200125534308
 20
430.990569084413
 30
0
 11
1081.482356767114
 21
430.990569084413
 31
0
  0
LINE
  8
1
 62
3
 10
1080.527657029265
 20
410
 30
0
 11
1086.809888262053
 21
410
 31
0
  0
LINE
  8
1
 62
3
 10
1097.280273650128
 20
410
 30
0
 11
1105.133062691143
 21
442.051175145079
 31
0
  0
LINE
  8
1
 62
3
 10
1090.998042417231
 20
410
 30
0
 11
1094.382449908126
 21
423.813466360341
 31
0
  0
LINE
  8
1
 62
3
 10
1086.809888262053
 20
410
 30
0
 11
1090.194295752938
 21
423.813466360341
 31
0
  0
LINE
  8
1
 62
3
 10
1088.380446070258
 20
442.051175145079
 30
0
 11
1080.527657029265
 21
410
 31
0
  0
LINE
  8
1
 62
3
 10
1105.133062691143
 20
442.051175145079
 30
0
 11
1098.850831458227
 21
442.051175145079
 31
0
  0
LINE
  8
1
 62
3
 10
1101.468427805254
 20
410
 30
0
 11
1118.221044426062
 21
410
 31
0
  0
LINE
  8
1
 62
3
 10
1113.02278725236
 20
414.424242424182
 30
0
 11
1108.834633097259
 21
414.424242424182
 31
0
  0
LINE
  8
1
 62
3
 10
1109.321216846251
 20
442.051175145079
 30
0
 11
1101.468427805254
 21
410
 31
0
  0
LINE
  8
1
 62
3
 10
1108.834633097259
 20
414.424242424182
 30
0
 11
1114.519474019834
 21
437.626932720839
 31
0
  0
LINE
  8
1
 62
3
 10
1126.073833467081
 20
442.051175145079
 30
0
 11
1109.321216846251
 21
442.051175145079
 31
0
  0
LINE
  8
1
 62
3
 10
1114.519474019834
 20
437.626932720839
 30
0
 11
1118.707628175084
 21
437.626932720839
 31
0
  0
LINE
  8
1
 62
3
 10
1118.707628175084
 20
437.626932720839
 30
0
 11
1113.02278725236
 21
414.424242424182
 31
0
  0
LINE
  8
1
 62
3
 10
1126.073833467081
 20
442.051175145079
 30
0
 11
1118.221044426062
 21
410
 31
0
  0
LINE
  8
1
 62
3
 10
1094.662677303123
 20
442.051175145079
 30
0
 11
1088.380446070258
 21
442.051175145079
 31
0
  0
LINE
  8
1
 62
3
 10
1090.998042417231
 20
410
 30
0
 11
1097.280273650128
 21
410
 31
0
  0
LINE
  8
1
 62
3
 10
1090.194295752938
 20
423.813466360341
 30
0
 11
1094.382449908126
 21
423.813466360341
 31
0
  0
LINE
  8
1
 62
3
 10
1091.278269812107
 20
428.2377087845271
 30
0
 11
1095.466423967346
 21
428.2377087845271
 31
0
  0
LINE
  8
1
 62
3
 10
1091.278269812107
 20
428.2377087845271
 30
0
 11
1094.662677303123
 21
442.051175145079
 31
0
  0
LINE
  8
1
 62
3
 10
1095.466423967346
 20
428.2377087845271
 30
0
 11
1098.850831458227
 21
442.051175145079
 31
0
  0
LINE
  8
1
 62
3
 10
1060.435399998676
 20
458.7622048583321
 30
0
 11
1059.703317229729
 21
457.978447872363
 31
0
  0
LINE
  8
1
 62
3
 10
1059.99872031711
 20
456.979895810782
 30
0
 11
1059.703317229729
 21
457.978447872363
 31
0
  0
ARC
  8
1
 62
3
 10
1168.185083639388
 20
459.3622336822259
 30
0
 40
1.39187009132817
 50
358.7013873342734
 51
66.544866494036
  0
ARC
  8
1
 62
3
 10
1167.459690452898
 20
459.0530393898221
 30
0
 40
1.155889798231653
 50
0.9850581704823435
 51
82.91825463293309
  0
ARC
  8
1
 62
3
 10
1167.534873091094
 20
462.264025930551
 30
0
 40
1.257687287767188
 50
285.1995809529435
 51
80.93139523878851
  0
ARC
  8
1
 62
3
 10
1167.613190917108
 20
462.3039199213811
 30
0
 40
2.009798008861834
 50
304.0700115354259
 51
86.29788871826509
  0
CIRCLE
  8
1
 62
3
 10
1167.406372085729
 20
460.878787878755
 30
0
 40
5.530127989695984
  0
CIRCLE
  8
1
 62
3
 10
1167.406372085729
 20
460.878787878755
 30
0
 40
5.972862778753957
  0
ENDBLK
  8
0
  0
BLOCK
  8
0
  2
WANNE_PICCOLO_168
 70
0
 10
1199.999999999999
 20
399.9999999999991
 30
0
  0
LINE
  8
MITTELLINIEN
 62
3
  6
DASHDOT
 10
300.6780190000141
 20
470
 30
0
 11
171.0100450000018
 21
470
 31
0
  0
LINE
  8
MITTELLINIEN
 62
3
  6
DASHDOT
 10
235
 20
404.3219809999989
 30
0
 11
235
 21
533.9899549999991
 31
0
  0
LINE
  8
1
 62
7
 10
0
 20
750
 30
0
 11
1650
 21
750
 31
0
  0
LINE
  8
1
 62
7
 10
1650
 20
750
 30
0
 11
1650
 21
0
 31
0
  0
LINE
  8
1
 62
7
 10
0
 20
249.999999999998
 30
0
 11
0
 21
750
 31
0
  0
LINE
  8
1
 62
7
 10
1150
 20
0
 30
0
 11
1650
 21
0
 31
0
  0
ARC
  8
1
 62
7
 10
1309.000000187773
 20
348.1325470787961
 30
0
 40
299.9999998122271
 50
0
 51
77.79212609458998
  0
ARC
  8
1
 62
7
 10
246.7325719999799
 20
470.0930220000021
 30
0
 40
204.999999999995
 50
182.9269234329378
 51
251.6401280000054
  0
ARC
  8
1
 62
7
 10
684.8734886191201
 20
-2188.980069568667
 30
0
 40
2899.923444875839
 50
89.74357408570629
 51
99.32852238816807
  0
ARC
  8
1
 62
7
 10
1785.129492362328
 20
5327.222586886157
 30
0
 40
5254.921412990004
 50
252.4015506621285
 51
262.8681488433643
  0
ARC
  8
1
 62
7
 10
1168.420045245755
 20
370.494767949197
 30
0
 40
260.0000001021871
 50
262.1067232286126
 51
80.51861208541875
  0
ARC
  8
1
 62
7
 10
712.9060278812181
 20
-2358.128632897827
 30
0
 40
3026.383682952934
 50
80.52215599389751
 51
99.35965926998476
  0
ARC
  8
1
 62
7
 10
246.7325720000449
 20
470.0930219999959
 30
0
 40
160.0000000000111
 50
98.95849100001568
 51
251.6401279999843
  0
ARC
  8
1
 62
7
 10
1771.937040021398
 20
5233.201852236536
 30
0
 40
5206.334309711623
 50
252.2205224475531
 51
264.8052342566434
  0
ARC
  8
1
 62
7
 10
1309.000000187773
 20
348.1325470787961
 30
0
 40
299.9999998122277
 50
268.3854201439385
 51
0
  0
ARC
  8
1
 62
7
 10
712.920244451117
 20
-2447.925568136855
 30
0
 40
3158.875839930341
 50
77.90993067514238
 51
90.27330956257957
  0
ARC
  8
1
 62
7
 10
246.7325719999799
 20
470.0930220000021
 30
0
 40
204.9999999999949
 50
98.95849099999447
 51
182.9269234329378
  0
ARC
  8
1
 62
7
 10
2710.101626016417
 20
9946.467479675601
 30
0
 40
10068.07491071373
 50
254.3846566868773
 51
261.0857958573381
  0
CIRCLE
  8
WANNE
 62
7
 10
235.0000000000059
 20
470
 30
0
 40
26
  0
CIRCLE
  8
WANNE
 62
7
 10
235.0000000000059
 20
470
 30
0
 40
45
  0
POLYLINE
  8
1
 62
7
 66
1
 70
1
  0
VERTEX
  8
1
 10
164.2690278377915
 20
297.8289049317669
 30
0
 42
-0.02577925283825458
  0
VERTEX
  8
1
 10
164.7231897329242
 20
298.4763038081063
 30
0
 42
-0.0706574483545938
  0
VERTEX
  8
1
 10
165.4040759464367
 20
299.1074101794538
 30
0
 42
-0.007043464639475494
  0
VERTEX
  8
1
 10
166.2848856950969
 20
299.6705806893526
 30
0
 42
-0.05502302674319987
  0
VERTEX
  8
1
 10
168.3184996977268
 20
300.4868110057883
 30
0
 42
-0.04329096597702029
  0
VERTEX
  8
1
 10
169.6741367746915
 20
300.8263233272826
 30
0
 42
-0.002381693203128777
  0
VERTEX
  8
1
 10
171.168818592238
 20
301.0788196061707
 30
0
 42
-0.02738275818639004
  0
VERTEX
  8
1
 10
174.3057908981092
 20
301.3255777491024
 30
0
 42
-0.02353267619714836
  0
VERTEX
  8
1
 10
176.1433297007019
 20
301.3366289589853
 30
0
 42
-0.0008208123466275966
  0
VERTEX
  8
1
 10
178.0612926641747
 20
301.2633412107495
 30
0
 42
-0.01821061406789138
  0
VERTEX
  8
1
 10
181.9629076522955
 20
300.8914363899229
 30
0
 42
-0.01685274441872588
  0
VERTEX
  8
1
 10
184.0539924711455
 20
300.5834960998328
 30
0
 42
-0.0002096116073971246
  0
VERTEX
  8
1
 10
186.1622841416748
 20
300.2018621825188
 30
0
 42
-0.01545525884703923
  0
VERTEX
  8
1
 10
190.3662886727246
 20
299.2367507834136
 30
0
 42
-0.01524977217521892
  0
VERTEX
  8
1
 10
194.5038553700266
 20
298.017884123293
 30
0
 42
-0.01535122721290168
  0
VERTEX
  8
1
 10
196.5286649579716
 20
297.3173954742526
 30
0
 42
-0.0004628065938550178
  0
VERTEX
  8
1
 10
198.5023621876378
 20
296.561100434276
 30
0
 42
-0.01746727649800633
  0
VERTEX
  8
1
 10
202.0856388594075
 20
294.9733217957912
 30
0
 42
-0.01848802659616984
  0
VERTEX
  8
1
 10
203.7934359556095
 20
294.097318313206
 30
0
 42
-0.001392270056789704
  0
VERTEX
  8
1
 10
205.389797655479
 20
293.1872082630116
 30
0
 42
-0.02540660412513382
  0
VERTEX
  8
1
 10
208.0033647944377
 20
291.4348522378112
 30
0
 42
-0.0283222679887952
  0
VERTEX
  8
1
 10
209.1825400922799
 20
290.4822905739202
 30
0
 42
-0.004176740347545912
  0
VERTEX
  8
1
 10
210.1978687111057
 20
289.5220154588197
 30
0
 42
-0.04964022990264403
  0
VERTEX
  8
1
 10
211.5705745863099
 20
287.8139474211397
 30
0
 42
-0.0586744508734937
  0
VERTEX
  8
1
 10
212.0623950066686
 20
286.8913968747344
 30
0
 42
-0.008947349409488511
  0
VERTEX
  8
1
 10
212.3466510256374
 20
286.0075983663701
 30
0
 42
-0.1101071493375617
  0
VERTEX
  8
1
 10
212.3291447094742
 20
284.441548020543
 30
0
 42
-0.1109071365000122
  0
VERTEX
  8
1
 10
211.5769697392923
 20
283.0678475542838
 30
0
 42
-0.1056729782851437
  0
VERTEX
  8
1
 10
210.8960835257801
 20
282.4367411829368
 30
0
 42
-0.007043464639554311
  0
VERTEX
  8
1
 10
210.0152737771202
 20
281.8735706730384
 30
0
 42
-0.05502302674319068
  0
VERTEX
  8
1
 10
207.9816597744892
 20
281.057340356603
 30
0
 42
-0.04329096597637751
  0
VERTEX
  8
1
 10
206.6260226975236
 20
280.717828035108
 30
0
 42
-0.002381693203127648
  0
VERTEX
  8
1
 10
205.1313408799767
 20
280.4653317562191
 30
0
 42
-0.02738275818653241
  0
VERTEX
  8
1
 10
201.9943685741075
 20
280.2185736132875
 30
0
 42
-0.02353267619669636
  0
VERTEX
  8
1
 10
200.1568297715147
 20
280.2075224034047
 30
0
 42
-0.0008208123466214504
  0
VERTEX
  8
1
 10
198.2388668080413
 20
280.2808101516408
 30
0
 42
-0.01821061406789007
  0
VERTEX
  8
1
 10
194.3372518199199
 20
280.6527149724672
 30
0
 42
-0.01685274441992239
  0
VERTEX
  8
1
 10
192.2461670010697
 20
280.9606552625578
 30
0
 42
-0.0002096116074215388
  0
VERTEX
  8
1
 10
190.1378753305403
 20
281.3422891798722
 30
0
 42
-0.01545525884703875
  0
VERTEX
  8
1
 10
185.9338707994908
 20
282.3074005789766
 30
0
 42
-0.01524977217527079
  0
VERTEX
  8
1
 10
181.7963041021883
 20
283.5262672390974
 30
0
 42
-0.01535122720904456
  0
VERTEX
  8
1
 10
179.7714945142439
 20
284.2267558881381
 30
0
 42
-0.0004628065938581387
  0
VERTEX
  8
1
 10
177.7977972845781
 20
284.9830509281147
 30
0
 42
-0.01746727649805407
  0
VERTEX
  8
1
 10
174.2145206128071
 20
286.5708295665987
 30
0
 42
-0.01848802659738907
  0
VERTEX
  8
1
 10
172.5067235166056
 20
287.4468330491839
 30
0
 42
-0.001392270056771676
  0
VERTEX
  8
1
 10
170.9103618167366
 20
288.3569430993782
 30
0
 42
-0.02540660412511808
  0
VERTEX
  8
1
 10
168.2967946777772
 20
290.1092991245782
 30
0
 42
-0.02832226798950104
  0
VERTEX
  8
1
 10
167.1176193799352
 20
291.0618607884694
 30
0
 42
-0.004176740347491163
  0
VERTEX
  8
1
 10
166.1022907611097
 20
292.0221359035704
 30
0
 42
-0.04964022990255239
  0
VERTEX
  8
1
 10
164.7295848859055
 20
293.7302039412512
 30
0
 42
-0.05867445087339403
  0
VERTEX
  8
1
 10
164.2377644655466
 20
294.6527544876563
 30
0
 42
-0.008947349409599553
  0
VERTEX
  8
1
 10
163.9535084465778
 20
295.5365529960203
 30
0
 42
-0.1101071493376693
  0
VERTEX
  8
1
 10
163.9710147627419
 20
297.1026033418467
 30
0
  0
VERTEX
  8
1
 10
164.2690278377915
 20
297.8289049317669
 30
0
  0
SEQEND
  8
1
  0
ENDBLK
  8
0
  0
ENDSEC
  0
SECTION
  2
ENTITIES
  0
TEXT
  8
1
 62
2
 10
944.230999999998
 20
335.0000000000009
 30
0
 40
35
  1
PICCOLO 168
 41
0.5993999999999999
 72
2
 11
1174.999999999998
 21
335.0000000000009
 31
0
  0
TEXT
  8
1
 62
3
 10
284.9999999999996
 20
520.0000000000021
 30
0
 40
35
  1
Ö 52
 41
0.5993999999999999
  0
INSERT
  8
0
  2
DLX
 10
994.6704968477918
 20
410
 30
0
  0
INSERT
  8
0
  2
WANNE_PICCOLO_168
 10
1199.999999999999
 20
399.9999999999991
 30
0
  0
ENDSEC
  0
EOF
