  0
SECTION
  2
HEADER
  9
$ACADVER
  1
AC1014
  9
$ACADMAINTVER
 70
           0
  9
$DWGCODEPAGE
  3
ANSI_1252
  9
$INSBASE
 10
0.0
 20
0.0
 30
0.0
  9
$EXTMIN
 10
1.000000000000E+20
 20
1.000000000000E+20
 30
1.000000000000E+20
  9
$EXTMAX
 10
-1.000000000000E+20
 20
-1.000000000000E+20
 30
-1.000000000000E+20
  9
$LIMMIN
 10
0.0
 20
0.0
  9
$LIMMAX
 10
0.0
 20
0.0
  9
$ORTHOMODE
 70
           0
  9
$REGENMODE
 70
           1
  9
$FILLMODE
 70
           1
  9
$QTEXTMODE
 70
           0
  9
$MIRRTEXT
 70
           1
  9
$DRAGMODE
 70
           2
  9
$LTSCALE
 40
1.0
  9
$OSMODE
 70
           0
  9
$ATTMODE
 70
           1
  9
$TEXTSIZE
 40
0.2
  9
$TRACEWID
 40
0.05
  9
$TEXTSTYLE
  7
STANDARD
  9
$CLAYER
  8
0
  9
$CELTYPE
  6
CONTINUOUS
  9
$CECOLOR
 62
         256
  9
$CELTSCALE
 40
1.0
  9
$DELOBJ
 70
           1
  9
$DISPSILH
 70
           0
  9
$DIMSCALE
 40
1.0
  9
$DIMASZ
 40
0.18
  9
$DIMEXO
 40
0.0625
  9
$DIMDLI
 40
0.38
  9
$DIMRND
 40
0.0
  9
$DIMDLE
 40
0.0
  9
$DIMEXE
 40
0.18
  9
$DIMTP
 40
0.0
  9
$DIMTM
 40
0.0
  9
$DIMTXT
 40
0.18
  9
$DIMCEN
 40
0.09
  9
$DIMTSZ
 40
0.0
  9
$DIMTOL
 70
           0
  9
$DIMLIM
 70
           0
  9
$DIMTIH
 70
           1
  9
$DIMTOH
 70
           1
  9
$DIMSE1
 70
           0
  9
$DIMSE2
 70
           0
  9
$DIMTAD
 70
           0
  9
$DIMZIN
 70
           0
  9
$DIMBLK
  1

  9
$DIMASO
 70
           1
  9
$DIMSHO
 70
           1
  9
$DIMPOST
  1

  9
$DIMAPOST
  1

  9
$DIMALT
 70
           0
  9
$DIMALTD
 70
           2
  9
$DIMALTF
 40
25.4
  9
$DIMLFAC
 40
1.0
  9
$DIMTOFL
 70
           0
  9
$DIMTVP
 40
0.0
  9
$DIMTIX
 70
           0
  9
$DIMSOXD
 70
           0
  9
$DIMSAH
 70
           0
  9
$DIMBLK1
  1

  9
$DIMBLK2
  1

  9
$DIMSTYLE
  2
STANDARD
  9
$DIMCLRD
 70
           0
  9
$DIMCLRE
 70
           0
  9
$DIMCLRT
 70
           0
  9
$DIMTFAC
 40
1.0
  9
$DIMGAP
 40
0.09
  9
$DIMJUST
 70
           0
  9
$DIMSD1
 70
           0
  9
$DIMSD2
 70
           0
  9
$DIMTOLJ
 70
           1
  9
$DIMTZIN
 70
           0
  9
$DIMALTZ
 70
           0
  9
$DIMALTTZ
 70
           0
  9
$DIMFIT
 70
           3
  9
$DIMUPT
 70
           0
  9
$DIMUNIT
 70
           2
  9
$DIMDEC
 70
           4
  9
$DIMTDEC
 70
           4
  9
$DIMALTU
 70
           2
  9
$DIMALTTD
 70
           2
  9
$DIMTXSTY
  7
STANDARD
  9
$DIMAUNIT
 70
           0
  9
$LUNITS
 70
           2
  9
$LUPREC
 70
           4
  9
$SKETCHINC
 40
0.1
  9
$FILLETRAD
 40
0.0
  9
$AUNITS
 70
           0
  9
$AUPREC
 70
           0
  9
$MENU
  1
acad
  9
$ELEVATION
 40
0.0
  9
$PELEVATION
 40
0.0
  9
$THICKNESS
 40
0.0
  9
$LIMCHECK
 70
           0
  9
$BLIPMODE
 70
           1
  9
$CHAMFERA
 40
0.0
  9
$CHAMFERB
 40
0.0
  9
$CHAMFERC
 40
0.0
  9
$CHAMFERD
 40
0.0
  9
$SKPOLY
 70
           0
  9
$TDCREATE
 40
0.000000000
  9
$TDUPDATE
 40
0.000000000
  9
$TDINDWG
 40
0.0000000000
  9
$TDUSRTIMER
 40
0.0000000000
  9
$USRTIMER
 70
           1
  9
$ANGBASE
 50
0.0
  9
$ANGDIR
 70
           0
  9
$PDMODE
 70
           0
  9
$PDSIZE
 40
0.0
  9
$PLINEWID
 40
0.0
  9
$COORDS
 70
           0
  9
$SPLFRAME
 70
           0
  9
$SPLINETYPE
 70
           6
  9
$SPLINESEGS
 70
           8
  9
$ATTDIA
 70
           0
  9
$ATTREQ
 70
           1
  9
$HANDLING
 70
           1
  9
$HANDSEED
  5
101
  9
$SURFTAB1
 70
           6
  9
$SURFTAB2
 70
           6
  9
$SURFTYPE
 70
           6
  9
$SURFU
 70
           6
  9
$SURFV
 70
           6
  9
$UCSNAME
  2

  9
$UCSORG
 10
0.0
 20
0.0
 30
0.0
  9
$UCSXDIR
 10
1.0
 20
0.0
 30
0.0
  9
$UCSYDIR
 10
0.0
 20
1.0
 30
0.0
  9
$PUCSNAME
  2

  9
$PUCSORG
 10
0.0
 20
0.0
 30
0.0
  9
$PUCSXDIR
 10
1.0
 20
0.0
 30
0.0
  9
$PUCSYDIR
 10
0.0
 20
1.0
 30
0.0
  9
$USERI1
 70
           0
  9
$USERI2
 70
           0
  9
$USERI3
 70
           0
  9
$USERI4
 70
           0
  9
$USERI5
 70
           0
  9
$USERR1
 40
0.0
  9
$USERR2
 40
0.0
  9
$USERR3
 40
0.0
  9
$USERR4
 40
0.0
  9
$USERR5
 40
0.0
  9
$WORLDVIEW
 70
           1
  9
$SHADEDGE
 70
           3
  9
$SHADEDIF
 70
          70
  9
$TILEMODE
 70
           1
  9
$MAXACTVP
 70
          16
  9
$PINSBASE
 10
0.0
 20
0.0
 30
0.0
  9
$PLIMCHECK
 70
           0
  9
$PEXTMIN
 10
1.000000000000E+20
 20
1.000000000000E+20
 30
1.000000000000E+20
  9
$PEXTMAX
 10
-1.000000000000E+20
 20
-1.000000000000E+20
 30
-1.000000000000E+20
  9
$PLIMMIN
 10
0.0
 20
0.0
  9
$PLIMMAX
 10
12.0
 20
9.0
  9
$UNITMODE
 70
           0
  9
$VISRETAIN
 70
           0
  9
$PLINEGEN
 70
           1
  9
$PSLTSCALE
 70
           0
  9
$TREEDEPTH
 70
        3020
  9
$PICKSTYLE
 70
           1
  9
$CMLSTYLE
  2
STANDARD
  9
$CMLJUST
 70
           0
  9
$CMLSCALE
 40
1.0
  9
$PROXYGRAPHICS
 70
           0
  9
$MEASUREMENT
 70
           0
  0
ENDSEC
  0
SECTION
  2
CLASSES
  0
CLASS
  1
LWPOLYLINE
  2
AcDbPolyline
  3
"AutoCAD"
 90
        0
280
           0
281
           1
  0
CLASS
  1
IMAGE
  2
AcDbRasterImage
  3
ISM
 90
      127
280
           0
281
           1
  0
CLASS
  1
OLE2FRAME
  2
AcDbOle2Frame
  3
""
 90
        0
280
           0
281
           1
  0
CLASS
  1
HATCH
  2
AcDbHatch
  3
"ACAD_SEDONA"
 90
        0
280
           0
281
           1
  0
CLASS
  1
DICTIONARYVAR
  2
AcDbDictionaryVar
  3
"AutoCAD"
 90
        0
280
           0
281
           0
  0
CLASS
  1
RASTERVARIABLES
  2
AcDbRasterVariables
  3
ISM
 90
        0
280
           0
281
           0
  0
CLASS
  1
IMAGEDEF
  2
AcDbRasterImageDef
  3
ISM
 90
        0
280
           0
281
           0
  0
CLASS
  1
IMAGEDEF_REACTOR
  2
AcDbRasterImageDefReactor
  3
ISM
 90
        1
280
           0
281
           0
  0
CLASS
  1
IDBUFFER
  2
AcDbIdBuffer
  3
"Acad"
 90
        0
280
           0
281
           0
  0
CLASS
  1
SPATIAL_FILTER
  2
AcDbSpatialFilter
  3
"Acad"
 90
        0
280
           0
281
           0
  0
CLASS
  1
XRECORD
  2
AcDbXrecord
  3
"<Built In>"
 90
        0
280
           0
281
           0
  0
CLASS
  1
SORTENTSTABLE
  2
AcDbSortentsTable
  3
"AutoCAD"
 90
        0
280
           0
281
           0
  0
CLASS
  1
LAYER_INDEX
  2
AcDbLayerIndex
  3
"Acad"
 90
        0
280
           0
281
           0
  0
CLASS
  1
SPATIAL_INDEX
  2
AcDbSpatialIndex
  3
"Acad"
 90
        0
280
           0
281
           0
  0
CLASS
  1
OBJECT_PTR
  2
CAseDLPNTableRecord
  3
"ASE-LPNTableRecord"
 90
        1
280
           0
281
           0
  0
CLASS
  1
LAYOUT
  2
AcDbLayout
  3
"AutoCAD 2000"
 90
        1
280
           0
281
           0
  0
CLASS
  1
PLOTSETTINGS
  2
AcDbPlotSettings
  3
"AutoCAD 2000"
 90
        1
280
           0
281
           0
  0
CLASS
  1
ACDBDICTIONARYWDFLT
  2
AcDbDictionaryWithDefault
  3
"AutoCAD 2000"
 90
        1
280
           0
281
           0
  0
CLASS
  1
ACDBPLACEHOLDER
  2
AcDbPlaceHolder
  3
"AutoCAD 2000"
 90
        1
280
           0
281
           0
  0
CLASS
  1
VBA_PROJECT
  2
AcDbVbaProject
  3
"acadvba"
 90
        1
280
           0
281
           0
  0
CLASS
  1
WIPEOUT
  2
AcDbWipeout
  3
WipeOut|AutoCAD Express Tool|expresstools@autodesk.com
 90
      127
280
           0
281
           1
  0
CLASS
  1
WIPEOUTVARIABLES
  2
AcDbWipeoutVariables
  3
WipeOut|AutoCAD Express Tool|expresstools@autodesk.com
 90
        0
280
           0
281
           0
  0
CLASS
  1
RTEXT
  2
RText
  3
RText|AutoCAD Express Tool|expresstools@autodesk.com
 90
        0
280
           0
281
           1
  0
CLASS
  1
ARCALIGNEDTEXT
  2
AcDbArcAlignedText
  3
ATEXT|AutoCAD Express Tool|expresstools@autodesk.com
 90
        0
280
           0
281
           1
  0
ENDSEC
  0
SECTION
  2
TABLES
  0
TABLE
  2
VPORT
  5
7
100
AcDbSymbolTable
 70
           1
  0
VPORT
  5
15
100
AcDbSymbolTableRecord
100
AcDbViewportTableRecord
  2
*ACTIVE
 70
           0
 10
0.0
 20
0.0
 11
1.0
 21
1.0
 12
6.591288
 22
4.579184
 13
0.0
 23
0.0
 14
1.0
 24
1.0
 15
0.0
 25
0.0
 16
0.0
 26
0.0
 36
1.0
 17
0.0
 27
0.0
 37
0.0
 40
9.158369
 41
0.688564
 42
50.0
 43
0.0
 44
0.0
 50
0.0
 51
0.0
 71
           0
 72
         100
 73
           1
 74
           1
 75
           0
 76
           0
 77
           0
 78
           0
  0
ENDTAB
  0
TABLE
  2
LTYPE
  5
4
100
AcDbSymbolTable
 70
          10
  0
LTYPE
  5
11
100
AcDbSymbolTableRecord
100
AcDbLinetypeTableRecord
  2
BYBLOCK
 70
          64
  3

 72
          65
 73
           0
 40
0.0
  0
LTYPE
  5
12
100
AcDbSymbolTableRecord
100
AcDbLinetypeTableRecord
  2
BYLAYER
 70
          64
  3

 72
          65
 73
           0
 40
0.0
  0
LTYPE
  5
13
100
AcDbSymbolTableRecord
100
AcDbLinetypeTableRecord
  2
CONTINUOUS
 70
          64
  3
Solid line
 72
          65
 73
           0
 40
0.0
  0
LTYPE
  5
1D
100
AcDbSymbolTableRecord
100
AcDbLinetypeTableRecord
  2
DASHED
 70
          64
  3
Dashed
 72
          65
 73
           2
 40
15.0
 49
12.0
 74
           0
 49
-3.0
 74
           0
  0
LTYPE
  5
1E
100
AcDbSymbolTableRecord
100
AcDbLinetypeTableRecord
  2
DOTTED
 70
          64
  3
Dotted
 72
          65
 73
           2
 40
3.5
 49
0.5
 74
           0
 49
-3.0
 74
           0
  0
LTYPE
  5
1F
100
AcDbSymbolTableRecord
100
AcDbLinetypeTableRecord
  2
DOT_CENTER
 70
          64
  3
Dot_Center
 72
          65
 73
           4
 40
2.0
 49
1.25
 74
           0
 49
-0.25
 74
           0
 49
0.25
 74
           0
 49
-0.25
 74
           0
  0
LTYPE
  5
20
100
AcDbSymbolTableRecord
100
AcDbLinetypeTableRecord
  2
LONG_DASHED
 70
          64
  3
Long_Dashed
 72
          65
 73
           2
 40
2.0
 49
1.5
 74
           0
 49
-0.5
 74
           0
  0
LTYPE
  5
21
100
AcDbSymbolTableRecord
100
AcDbLinetypeTableRecord
  2
DASH_CENTER
 70
          64
  3
Dash_Center
 72
          65
 73
           4
 40
36.0
 49
24.0
 74
           0
 49
-3.0
 74
           0
 49
6.0
 74
           0
 49
-3.0
 74
           0
  0
LTYPE
  5
22
100
AcDbSymbolTableRecord
100
AcDbLinetypeTableRecord
  2
PHANTOM
 70
          64
  3
Phantom
 72
          65
 73
           6
 40
2.5
 49
1.25
 74
           0
 49
-0.25
 74
           0
 49
0.25
 74
           0
 49
-0.25
 74
           0
 49
0.25
 74
           0
 49
-0.25
 74
           0
  0
LTYPE
  5
23
100
AcDbSymbolTableRecord
100
AcDbLinetypeTableRecord
  2
CENTER_DASH_DASH
 70
          64
  3
Center_Dash_Dash
 72
          65
 73
           6
 40
22.0
 49
12.0
 74
           0
 49
-3.0
 74
           0
 49
0.5
 74
           0
 49
-3.0
 74
           0
 49
0.5
 74
           0
 49
-3.0
 74
           0
  0
ENDTAB
  0
TABLE
  2
LAYER
  5
2
100
AcDbSymbolTable
 70
           4
  0
LAYER
  5
14
100
AcDbSymbolTableRecord
100
AcDbLayerTableRecord
  2
0
 70
           0
 62
           7
  6
CONTINUOUS
  0
LAYER
  5
24
100
AcDbSymbolTableRecord
100
AcDbLayerTableRecord
  2
MITTELLINIEN
 70
           0
 62
           7
  6
CONTINUOUS
  0
LAYER
  5
25
100
AcDbSymbolTableRecord
100
AcDbLayerTableRecord
  2
1
 70
           0
 62
           7
  6
CONTINUOUS
  0
LAYER
  5
26
100
AcDbSymbolTableRecord
100
AcDbLayerTableRecord
  2
WANNE
 70
           0
 62
           7
  6
CONTINUOUS
  0
ENDTAB
  0
TABLE
  2
STYLE
  5
3
100
AcDbSymbolTable
 70
           2
  0
STYLE
  5
17
100
AcDbSymbolTableRecord
100
AcDbTextStyleTableRecord
  2
STANDARD
 70
           0
 40
0.0
 41
1.0
 50
0.0
 71
           0
 42
0.0
  3
txt
  4

  0
STYLE
  5
FD
100
AcDbSymbolTableRecord
100
AcDbTextStyleTableRecord
  2
CONVERTER_1
 70
           0
 40
0.0
 41
0.71262
 50
0.0
 71
           0
 42
0.0
  3
txt.shx
  4

  0
ENDTAB
  0
TABLE
  2
VIEW
  5
5
100
AcDbSymbolTable
 70
           0
  0
ENDTAB
  0
TABLE
  2
UCS
  5
6
100
AcDbSymbolTable
 70
           0
  0
ENDTAB
  0
TABLE
  2
APPID
  5
8
100
AcDbSymbolTable
 70
           1
  0
APPID
  5
16
100
AcDbSymbolTableRecord
100
AcDbRegAppTableRecord
  2
ACAD
 70
           0
  0
ENDTAB
  0
TABLE
  2
DIMSTYLE
  5
9
100
AcDbSymbolTable
 70
           1
  0
DIMSTYLE
105
18
100
AcDbSymbolTableRecord
100
AcDbDimStyleTableRecord
  2
STANDARD
 70
           0
  3

  4

  5

  6

  7

 40
1.0
 41
0.18
 42
0.0625
 43
0.38
 44
0.18
 45
0.0
 46
0.0
 47
0.0
 48
0.0
 71
           0
 72
           0
 73
           1
 74
           1
 75
           0
 76
           0
 77
           0
 78
           0
140
0.18
141
0.09
142
0.0
143
25.4
144
1.0
145
0.0
146
1.0
147
0.09
170
           0
171
           2
172
           0
173
           0
174
           0
175
           0
176
           0
177
           0
178
           0
270
           2
271
           4
272
           4
273
           2
274
           2
275
           0
280
           0
281
           0
282
           0
283
           1
284
           0
285
           0
286
           0
287
           0
288
           0
340
17
  0
ENDTAB
  0
TABLE
  2
BLOCK_RECORD
  5
1
100
AcDbSymbolTable
 70
           2
  0
BLOCK_RECORD
  5
A
100
AcDbSymbolTableRecord
100
AcDbBlockTableRecord
  2
*MODEL_SPACE
  0
BLOCK_RECORD
  5
B
100
AcDbSymbolTableRecord
100
AcDbBlockTableRecord
  2
*PAPER_SPACE
  0
BLOCK_RECORD
  5
27
100
AcDbSymbolTableRecord
100
AcDbBlockTableRecord
  2
DLX
  0
BLOCK_RECORD
  5
29
100
AcDbSymbolTableRecord
100
AcDbBlockTableRecord
  2
WANNE_PICCOLO_CITY_173
  0
ENDTAB
  0
ENDSEC
  0
SECTION
  2
BLOCKS
  0
BLOCK
  5
D
100
AcDbEntity
  8
0
100
AcDbBlockBegin
  2
*MODEL_SPACE
 70
           0
 10
0.0
 20
0.0
 30
0.0
  3
*MODEL_SPACE
  1

  0
ENDBLK
  5
E
100
AcDbEntity
  8
0
100
AcDbBlockEnd
  0
BLOCK
  5
F
100
AcDbEntity
 67
           1
  8
0
100
AcDbBlockBegin
  2
*PAPER_SPACE
 70
           0
 10
0.0
 20
0.0
 30
0.0
  3
*PAPER_SPACE
  1

  0
ENDBLK
  5
10
100
AcDbEntity
 67
           1
  8
0
100
AcDbBlockEnd
  0
BLOCK
  5
28
100
AcDbEntity
  8
0
100
AcDbBlockBegin
  2
DLX
 70
           0
 10
0.0
 20
0.0
 30
0.0
  3
DLX
  1

  0
CIRCLE
  5
E2
100
AcDbEntity
  8
1
  6
CONTINUOUS
 62
           3
100
AcDbCircle
 10
612.735875237937
 20
460.878787878755
 40
5.530127989696
  0
CIRCLE
  5
E1
100
AcDbEntity
  8
1
  6
CONTINUOUS
 62
           3
100
AcDbCircle
 10
612.735875237937
 20
460.878787878755
 40
5.972862778754
  0
ARC
  5
E0
100
AcDbEntity
  8
1
  6
CONTINUOUS
 62
           3
100
AcDbCircle
 10
613.514586791596
 20
459.362233682226
 40
1.391870091328
100
AcDbArc
 50
-1.298612665727
 51
66.544866494044
  0
ARC
  5
DF
100
AcDbEntity
  8
1
  6
CONTINUOUS
 62
           3
100
AcDbCircle
 10
612.789193605106
 20
459.053039389822
 40
1.155889798232
100
AcDbArc
 50
0.985058170482
 51
82.918254632932
  0
ARC
  5
DE
100
AcDbEntity
  8
1
  6
CONTINUOUS
 62
           3
100
AcDbCircle
 10
612.864376243302
 20
462.264025930551
 40
1.257687287767
100
AcDbArc
 50
-74.800419047056
 51
80.931395238788
  0
ARC
  5
DD
100
AcDbEntity
  8
1
  6
CONTINUOUS
 62
           3
100
AcDbCircle
 10
612.942694069316
 20
462.303919921381
 40
2.009798008862
100
AcDbArc
 50
-55.929988464574
 51
86.297888718258
  0
LINE
  5
DC
100
AcDbEntity
  8
1
  6
CONTINUOUS
 62
           3
100
AcDbLine
 10
611.206636135699
 20
463.505992531278
 11
611.206636135699
 21
461.050334541276
  0
LINE
  5
DB
100
AcDbEntity
  8
1
  6
CONTINUOUS
 62
           3
100
AcDbLine
 10
613.062609127785
 20
463.505992531278
 11
611.206636135699
 21
463.505992531278
  0
LINE
  5
DA
100
AcDbEntity
  8
1
  6
CONTINUOUS
 62
           3
100
AcDbLine
 10
611.206636135699
 20
461.050334541276
 11
613.194119363641
 21
461.050334541276
  0
LINE
  5
D9
100
AcDbEntity
  8
1
  6
CONTINUOUS
 62
           3
100
AcDbLine
 10
611.206636135699
 20
457.451055788282
 11
610.334188436584
 21
457.451055788282
  0
LINE
  5
D8
100
AcDbEntity
  8
1
  6
CONTINUOUS
 62
           3
100
AcDbLine
 10
612.931697837317
 20
460.200111213842
 11
611.206636135699
 21
460.200111213842
  0
LINE
  5
D7
100
AcDbEntity
  8
1
  6
CONTINUOUS
 62
           3
100
AcDbLine
 10
613.944912577237
 20
457.451055788282
 11
613.944912577237
 21
459.0729110559
  0
LINE
  5
D6
100
AcDbEntity
  8
1
  6
CONTINUOUS
 62
           3
100
AcDbLine
 10
614.906099392742
 20
457.451055788282
 11
613.944912577237
 21
457.451055788282
  0
LINE
  5
D5
100
AcDbEntity
  8
1
  6
CONTINUOUS
 62
           3
100
AcDbLine
 10
614.906099392742
 20
459.330689554626
 11
614.906099392742
 21
457.451055788282
  0
LINE
  5
D4
100
AcDbEntity
  8
1
  6
CONTINUOUS
 62
           3
100
AcDbLine
 10
612.776108295824
 20
464.309523963456
 11
613.072464878176
 21
464.309523963456
  0
LINE
  5
D3
100
AcDbEntity
  8
1
  6
CONTINUOUS
 62
           3
100
AcDbLine
 10
610.334188436584
 20
464.309523963456
 11
612.776108295824
 21
464.309523963456
  0
LINE
  5
D2
100
AcDbEntity
  8
1
  6
CONTINUOUS
 62
           3
100
AcDbLine
 10
610.334188436584
 20
457.451055788282
 11
610.334188436584
 21
464.309523963456
  0
LINE
  5
D1
100
AcDbEntity
  8
1
  6
CONTINUOUS
 62
           3
100
AcDbLine
 10
611.206636135699
 20
460.200111213842
 11
611.206636135699
 21
457.451055788282
  0
LINE
  5
D0
100
AcDbEntity
  8
1
  6
CONTINUOUS
 62
           3
100
AcDbLine
 10
566.68540084903
 20
466.38450847832
 11
564.591323771416
 21
466.38450847832
  0
LINE
  5
CF
100
AcDbEntity
  8
1
  6
CONTINUOUS
 62
           3
100
AcDbLine
 10
563.975465701067
 20
455.323902417793
 11
566.68540084903
 21
466.38450847832
  0
LINE
  5
CE
100
AcDbEntity
  8
1
  6
CONTINUOUS
 62
           3
100
AcDbLine
 10
574.445851089087
 20
455.323902417793
 11
563.975465701067
 21
455.323902417793
  0
LINE
  5
CD
100
AcDbEntity
  8
1
  6
CONTINUOUS
 62
           3
100
AcDbLine
 10
573.903864059426
 20
453.111781205662
 11
574.445851089087
 21
455.323902417793
  0
LINE
  5
CC
100
AcDbEntity
  8
1
  6
CONTINUOUS
 62
           3
100
AcDbLine
 10
561.339401593847
 20
453.111781205662
 11
573.903864059426
 21
453.111781205662
  0
LINE
  5
CB
100
AcDbEntity
  8
1
  6
CONTINUOUS
 62
           3
100
AcDbLine
 10
564.591323771416
 20
466.38450847832
 11
561.339401593847
 21
453.111781205662
  0
LINE
  5
CA
100
AcDbEntity
  8
1
  6
CONTINUOUS
 62
           3
100
AcDbLine
 10
551.144653716558
 20
457.536023629844
 11
554.900368855924
 21
464.172387266269
  0
LINE
  5
C9
100
AcDbEntity
  8
1
  6
CONTINUOUS
 62
           3
100
AcDbLine
 10
555.957172001214
 20
464.172387266269
 11
554.900368855924
 21
464.172387266269
  0
LINE
  5
C8
100
AcDbEntity
  8
1
  6
CONTINUOUS
 62
           3
100
AcDbLine
 10
556.460964963069
 20
457.536023629844
 11
555.957172001214
 21
464.172387266269
  0
LINE
  5
C7
100
AcDbEntity
  8
1
  6
CONTINUOUS
 62
           3
100
AcDbLine
 10
551.144653716558
 20
457.536023629844
 11
556.460964963069
 21
457.536023629844
  0
LINE
  5
C6
100
AcDbEntity
  8
1
  6
CONTINUOUS
 62
           3
100
AcDbLine
 10
548.640843623664
 20
453.111781205662
 11
546.262046635093
 21
453.111781205662
  0
LINE
  5
C5
100
AcDbEntity
  8
1
  6
CONTINUOUS
 62
           3
100
AcDbLine
 10
549.892748670027
 20
455.323902417793
 11
548.640843623664
 21
453.111781205662
  0
LINE
  5
C4
100
AcDbEntity
  8
1
  6
CONTINUOUS
 62
           3
100
AcDbLine
 10
556.628895950391
 20
455.323902417793
 11
549.892748670027
 21
455.323902417793
  0
LINE
  5
C3
100
AcDbEntity
  8
1
  6
CONTINUOUS
 62
           3
100
AcDbLine
 10
556.796826937658
 20
453.111781205662
 11
556.628895950391
 21
455.323902417793
  0
LINE
  5
C2
100
AcDbEntity
  8
1
  6
CONTINUOUS
 62
           3
100
AcDbLine
 10
558.826509100727
 20
453.111781205662
 11
556.796826937658
 21
453.111781205662
  0
LINE
  5
C1
100
AcDbEntity
  8
1
  6
CONTINUOUS
 62
           3
100
AcDbLine
 10
557.818923176965
 20
466.38450847832
 11
558.826509100727
 21
453.111781205662
  0
LINE
  5
C0
100
AcDbEntity
  8
1
  6
CONTINUOUS
 62
           3
100
AcDbLine
 10
553.77347691399
 20
466.38450847832
 11
557.818923176965
 21
466.38450847832
  0
LINE
  5
BF
100
AcDbEntity
  8
1
  6
CONTINUOUS
 62
           3
100
AcDbLine
 10
546.262046635093
 20
453.111781205662
 11
553.77347691399
 21
466.38450847832
  0
LINE
  5
BE
100
AcDbEntity
  8
1
  6
CONTINUOUS
 62
           3
100
AcDbLine
 10
533.278768754059
 20
453.111781205662
 11
531.184691676499
 21
453.111781205662
  0
LINE
  5
BD
100
AcDbEntity
  8
1
  6
CONTINUOUS
 62
           3
100
AcDbLine
 10
536.084771050988
 20
464.564485538598
 11
533.278768754059
 21
453.111781205662
  0
LINE
  5
BC
100
AcDbEntity
  8
1
  6
CONTINUOUS
 62
           3
100
AcDbLine
 10
536.725319317498
 20
462.905394629535
 11
536.084771050988
 21
464.564485538598
  0
LINE
  5
BB
100
AcDbEntity
  8
1
  6
CONTINUOUS
 62
           3
100
AcDbLine
 10
540.506475653208
 20
453.111781205662
 11
536.725319317498
 21
462.905394629535
  0
LINE
  5
BA
100
AcDbEntity
  8
1
  6
CONTINUOUS
 62
           3
100
AcDbLine
 10
543.749154141977
 20
453.111781205662
 11
540.506475653208
 21
453.111781205662
  0
LINE
  5
B9
100
AcDbEntity
  8
1
  6
CONTINUOUS
 62
           3
100
AcDbLine
 10
547.001076319597
 20
466.38450847832
 11
543.749154141977
 21
453.111781205662
  0
LINE
  5
B8
100
AcDbEntity
  8
1
  6
CONTINUOUS
 62
           3
100
AcDbLine
 10
544.906999241983
 20
466.38450847832
 11
547.001076319597
 21
466.38450847832
  0
LINE
  5
B7
100
AcDbEntity
  8
1
  6
CONTINUOUS
 62
           3
100
AcDbLine
 10
542.06156733663
 20
454.770872114746
 11
544.906999241983
 21
466.38450847832
  0
LINE
  5
B6
100
AcDbEntity
  8
1
  6
CONTINUOUS
 62
           3
100
AcDbLine
 10
537.577729470355
 20
466.38450847832
 11
542.06156733663
 21
454.770872114746
  0
LINE
  5
B5
100
AcDbEntity
  8
1
  6
CONTINUOUS
 62
           3
100
AcDbLine
 10
534.436613854014
 20
466.38450847832
 11
537.577729470355
 21
466.38450847832
  0
LINE
  5
B4
100
AcDbEntity
  8
1
  6
CONTINUOUS
 62
           3
100
AcDbLine
 10
531.184691676499
 20
453.111781205662
 11
534.436613854014
 21
466.38450847832
  0
LINE
  5
B3
100
AcDbEntity
  8
1
  6
CONTINUOUS
 62
           3
100
AcDbLine
 10
531.923721360899
 20
466.38450847832
 11
529.829644283334
 21
466.38450847832
  0
LINE
  5
B2
100
AcDbEntity
  8
1
  6
CONTINUOUS
 62
           3
100
AcDbLine
 10
529.829644283334
 20
466.38450847832
 11
526.577722105769
 21
453.111781205662
  0
LINE
  5
B1
100
AcDbEntity
  8
1
  6
CONTINUOUS
 62
           3
100
AcDbLine
 10
528.671799183329
 20
453.111781205662
 11
531.923721360899
 21
466.38450847832
  0
LINE
  5
B0
100
AcDbEntity
  8
1
  6
CONTINUOUS
 62
           3
100
AcDbLine
 10
526.577722105769
 20
453.111781205662
 11
528.671799183329
 21
453.111781205662
  0
LINE
  5
AF
100
AcDbEntity
  8
1
  6
CONTINUOUS
 62
           3
100
AcDbLine
 10
524.084501950522
 20
461.739053932891
 11
526.178579028048
 21
461.739053932891
  0
LINE
  5
AE
100
AcDbEntity
  8
1
  6
CONTINUOUS
 62
           3
100
AcDbLine
 10
523.054726594372
 20
457.536023629844
 11
522.512739564605
 21
455.323902417793
  0
LINE
  5
AD
100
AcDbEntity
  8
1
  6
CONTINUOUS
 62
           3
100
AcDbLine
 10
518.866572438972
 20
457.536023629844
 11
523.054726594372
 21
457.536023629844
  0
LINE
  5
AC
100
AcDbEntity
  8
1
  6
CONTINUOUS
 62
           3
100
AcDbLine
 10
519.408559468619
 20
459.748144842033
 11
518.866572438972
 21
457.536023629844
  0
LINE
  5
AB
100
AcDbEntity
  8
1
  6
CONTINUOUS
 62
           3
100
AcDbLine
 10
525.690790701425
 20
459.748144842033
 11
524.064829612653
 21
453.111781205662
  0
LINE
  5
AA
100
AcDbEntity
  8
1
  6
CONTINUOUS
 62
           3
100
AcDbLine
 10
525.690790701425
 20
459.748144842033
 11
519.408559468619
 21
459.748144842033
  0
LINE
  5
A9
100
AcDbEntity
  8
1
  6
CONTINUOUS
 62
           3
100
AcDbLine
 10
514.136431254276
 20
455.323902417793
 11
516.304379372604
 21
464.172387266269
  0
LINE
  5
A8
100
AcDbEntity
  8
1
  6
CONTINUOUS
 62
           3
100
AcDbLine
 10
516.304379372604
 20
464.172387266269
 11
524.6806876829
 21
464.172387266269
  0
LINE
  5
A7
100
AcDbEntity
  8
1
  6
CONTINUOUS
 62
           3
100
AcDbLine
 10
524.6806876829
 20
464.172387266269
 11
524.084501950522
 21
461.739053932891
  0
LINE
  5
A6
100
AcDbEntity
  8
1
  6
CONTINUOUS
 62
           3
100
AcDbLine
 10
522.512739564605
 20
455.323902417793
 11
514.136431254276
 21
455.323902417793
  0
LINE
  5
A5
100
AcDbEntity
  8
1
  6
CONTINUOUS
 62
           3
100
AcDbLine
 10
524.064829612653
 20
453.111781205662
 11
511.500367147041
 21
453.111781205662
  0
LINE
  5
A4
100
AcDbEntity
  8
1
  6
CONTINUOUS
 62
           3
100
AcDbLine
 10
527.316751790175
 20
466.38450847832
 11
526.178579028048
 21
461.739053932891
  0
LINE
  5
A3
100
AcDbEntity
  8
1
  6
CONTINUOUS
 62
           3
100
AcDbLine
 10
514.752289324585
 20
466.38450847832
 11
527.316751790175
 21
466.38450847832
  0
LINE
  5
A2
100
AcDbEntity
  8
1
  6
CONTINUOUS
 62
           3
100
AcDbLine
 10
511.500367147041
 20
453.111781205662
 11
514.752289324585
 21
466.38450847832
  0
LINE
  5
A1
100
AcDbEntity
  8
1
  6
CONTINUOUS
 62
           3
100
AcDbLine
 10
508.987474654056
 20
453.111781205662
 11
512.239396831465
 21
466.38450847832
  0
LINE
  5
A0
100
AcDbEntity
  8
1
  6
CONTINUOUS
 62
           3
100
AcDbLine
 10
506.893397576336
 20
453.111781205662
 11
508.987474654056
 21
453.111781205662
  0
LINE
  5
9F
100
AcDbEntity
  8
1
  6
CONTINUOUS
 62
           3
100
AcDbLine
 10
510.145319753902
 20
466.38450847832
 11
506.893397576336
 21
453.111781205662
  0
LINE
  5
9E
100
AcDbEntity
  8
1
  6
CONTINUOUS
 62
           3
100
AcDbLine
 10
512.239396831465
 20
466.38450847832
 11
510.145319753902
 21
466.38450847832
  0
LINE
  5
9D
100
AcDbEntity
  8
1
  6
CONTINUOUS
 62
           3
100
AcDbLine
 10
493.910119695298
 20
453.111781205662
 11
494.994093754409
 21
457.536023629844
  0
LINE
  5
9C
100
AcDbEntity
  8
1
  6
CONTINUOUS
 62
           3
100
AcDbLine
 10
491.816042617622
 20
453.111781205662
 11
493.910119695298
 21
453.111781205662
  0
LINE
  5
9B
100
AcDbEntity
  8
1
  6
CONTINUOUS
 62
           3
100
AcDbLine
 10
505.328223469318
 20
456.979895810782
 11
504.380505083206
 21
453.111781205662
  0
LINE
  5
9A
100
AcDbEntity
  8
1
  6
CONTINUOUS
 62
           3
100
AcDbLine
 10
496.620054843185
 20
464.172387266269
 11
495.536080784001
 21
459.748144842033
  0
LINE
  5
99
100
AcDbEntity
  8
1
  6
CONTINUOUS
 62
           3
100
AcDbLine
 10
504.996363153703
 20
464.172387266269
 11
496.620054843185
 21
464.172387266269
  0
LINE
  5
98
100
AcDbEntity
  8
1
  6
CONTINUOUS
 62
           3
100
AcDbLine
 10
503.912389094382
 20
459.748144842033
 11
504.996363153703
 21
464.172387266269
  0
LINE
  5
97
100
AcDbEntity
  8
1
  6
CONTINUOUS
 62
           3
100
AcDbLine
 10
495.536080784001
 20
459.748144842033
 11
503.912389094382
 21
459.748144842033
  0
LINE
  5
96
100
AcDbEntity
  8
1
  6
CONTINUOUS
 62
           3
100
AcDbLine
 10
503.370402064939
 20
457.536023629844
 11
494.994093754409
 21
457.536023629844
  0
LINE
  5
95
100
AcDbEntity
  8
1
  6
CONTINUOUS
 62
           3
100
AcDbLine
 10
502.286428005566
 20
453.111781205662
 11
503.370402064939
 21
457.536023629844
  0
LINE
  5
94
100
AcDbEntity
  8
1
  6
CONTINUOUS
 62
           3
100
AcDbLine
 10
504.380505083206
 20
453.111781205662
 11
502.286428005566
 21
453.111781205662
  0
LINE
  5
93
100
AcDbEntity
  8
1
  6
CONTINUOUS
 62
           3
100
AcDbLine
 10
507.632427260738
 20
466.38450847832
 11
505.764903150885
 21
458.762204858332
  0
LINE
  5
92
100
AcDbEntity
  8
1
  6
CONTINUOUS
 62
           3
100
AcDbLine
 10
495.067964795159
 20
466.38450847832
 11
507.632427260738
 21
466.38450847832
  0
LINE
  5
91
100
AcDbEntity
  8
1
  6
CONTINUOUS
 62
           3
100
AcDbLine
 10
495.067964795159
 20
466.38450847832
 11
491.816042617622
 21
453.111781205662
  0
LINE
  5
90
100
AcDbEntity
  8
1
  6
CONTINUOUS
 62
           3
100
AcDbLine
 10
479.374751766133
 20
455.323902417793
 11
481.542699884474
 21
464.172387266269
  0
LINE
  5
8F
100
AcDbEntity
  8
1
  6
CONTINUOUS
 62
           3
100
AcDbLine
 10
481.542699884474
 20
464.172387266269
 11
489.919008194964
 21
464.172387266269
  0
LINE
  5
8E
100
AcDbEntity
  8
1
  6
CONTINUOUS
 62
           3
100
AcDbLine
 10
489.919008194964
 20
464.172387266269
 11
487.751060076488
 21
455.323902417793
  0
LINE
  5
8D
100
AcDbEntity
  8
1
  6
CONTINUOUS
 62
           3
100
AcDbLine
 10
487.751060076488
 20
455.323902417793
 11
479.374751766133
 21
455.323902417793
  0
LINE
  5
8C
100
AcDbEntity
  8
1
  6
CONTINUOUS
 62
           3
100
AcDbLine
 10
489.303150124492
 20
453.111781205662
 11
476.738687658967
 21
453.111781205662
  0
LINE
  5
8B
100
AcDbEntity
  8
1
  6
CONTINUOUS
 62
           3
100
AcDbLine
 10
492.555072302166
 20
466.38450847832
 11
489.303150124492
 21
453.111781205662
  0
LINE
  5
8A
100
AcDbEntity
  8
1
  6
CONTINUOUS
 62
           3
100
AcDbLine
 10
479.990609836448
 20
466.38450847832
 11
492.555072302166
 21
466.38450847832
  0
LINE
  5
89
100
AcDbEntity
  8
1
  6
CONTINUOUS
 62
           3
100
AcDbLine
 10
476.738687658967
 20
453.111781205662
 11
479.990609836448
 21
466.38450847832
  0
LINE
  5
88
100
AcDbEntity
  8
1
  6
CONTINUOUS
 62
           3
100
AcDbLine
 10
620.329503152207
 20
410.0
 11
567.738701733397
 21
410.0
  0
LINE
  5
87
100
AcDbEntity
  8
1
  6
CONTINUOUS
 62
           3
100
AcDbLine
 10
617.928830785688
 20
416.19393939391
 11
575.119681233515
 21
416.19393939391
  0
LINE
  5
86
100
AcDbEntity
  8
1
  6
CONTINUOUS
 62
           3
100
AcDbLine
 10
617.928830785688
 20
416.19393939391
 11
620.329503152207
 21
410.0
  0
LINE
  5
85
100
AcDbEntity
  8
1
  6
CONTINUOUS
 62
           3
100
AcDbLine
 10
610.686830708906
 20
434.878917066824
 11
607.906977584949
 21
442.051175145079
  0
LINE
  5
84
100
AcDbEntity
  8
1
  6
CONTINUOUS
 62
           3
100
AcDbLine
 10
616.284056889192
 20
442.051175145079
 11
610.686830708906
 21
434.878917066824
  0
LINE
  5
83
100
AcDbEntity
  8
1
  6
CONTINUOUS
 62
           3
100
AcDbLine
 10
620.32950315225
 20
442.051175145079
 11
616.284056889192
 21
442.051175145079
  0
LINE
  5
82
100
AcDbEntity
  8
1
  6
CONTINUOUS
 62
           3
100
AcDbLine
 10
612.029273107168
 20
431.415301218603
 11
620.32950315225
 21
442.051175145079
  0
LINE
  5
81
100
AcDbEntity
  8
1
  6
CONTINUOUS
 62
           3
100
AcDbLine
 10
616.899971200172
 20
418.848484848477
 11
612.029273107168
 21
431.415301218603
  0
LINE
  5
80
100
AcDbEntity
  8
1
  6
CONTINUOUS
 62
           3
100
AcDbLine
 10
612.854524937124
 20
418.848484848477
 11
616.899971200172
 21
418.848484848477
  0
LINE
  5
7F
100
AcDbEntity
  8
1
  6
CONTINUOUS
 62
           3
100
AcDbLine
 10
609.32626924244
 20
427.951685370502
 11
612.854524937124
 21
418.848484848477
  0
LINE
  5
7E
100
AcDbEntity
  8
1
  6
CONTINUOUS
 62
           3
100
AcDbLine
 10
602.222136662338
 20
418.848484848477
 11
609.32626924244
 21
427.951685370502
  0
LINE
  5
7D
100
AcDbEntity
  8
1
  6
CONTINUOUS
 62
           3
100
AcDbLine
 10
598.176690399341
 20
418.848484848477
 11
602.222136662338
 21
418.848484848477
  0
LINE
  5
7C
100
AcDbEntity
  8
1
  6
CONTINUOUS
 62
           3
100
AcDbLine
 10
607.983826844131
 20
431.415301218661
 11
598.176690399341
 21
418.848484848477
  0
LINE
  5
7B
100
AcDbEntity
  8
1
  6
CONTINUOUS
 62
           3
100
AcDbLine
 10
603.861531321934
 20
442.051175145079
 11
607.983826844131
 21
431.415301218661
  0
LINE
  5
7A
100
AcDbEntity
  8
1
  6
CONTINUOUS
 62
           3
100
AcDbLine
 10
607.906977584949
 20
442.051175145079
 11
603.861531321934
 21
442.051175145079
  0
LINE
  5
79
100
AcDbEntity
  8
1
  6
CONTINUOUS
 62
           3
100
AcDbLine
 10
590.878253440889
 20
442.051175145079
 11
585.643060746967
 21
442.051175145079
  0
LINE
  5
78
100
AcDbEntity
  8
1
  6
CONTINUOUS
 62
           3
100
AcDbLine
 10
586.277386577538
 20
423.272727272797
 11
590.878253440889
 21
442.051175145079
  0
LINE
  5
77
100
AcDbEntity
  8
1
  6
CONTINUOUS
 62
           3
100
AcDbLine
 10
591.51257927149
 20
423.272727272797
 11
586.277386577538
 21
423.272727272797
  0
LINE
  5
76
100
AcDbEntity
  8
1
  6
CONTINUOUS
 62
           3
100
AcDbLine
 10
596.113446134885
 20
442.051175145079
 11
591.51257927149
 21
423.272727272797
  0
LINE
  5
75
100
AcDbEntity
  8
1
  6
CONTINUOUS
 62
           3
100
AcDbLine
 10
601.348638828808
 20
442.051175145079
 11
596.113446134885
 21
442.051175145079
  0
LINE
  5
74
100
AcDbEntity
  8
1
  6
CONTINUOUS
 62
           3
100
AcDbLine
 10
595.6637979062
 20
418.848484848477
 11
601.348638828808
 21
442.051175145079
  0
LINE
  5
73
100
AcDbEntity
  8
1
  6
CONTINUOUS
 62
           3
100
AcDbLine
 10
579.958219824279
 20
418.848484848477
 11
595.6637979062
 21
418.848484848477
  0
LINE
  5
72
100
AcDbEntity
  8
1
  6
CONTINUOUS
 62
           3
100
AcDbLine
 10
585.643060746967
 20
442.051175145079
 11
579.958219824279
 21
418.848484848477
  0
LINE
  5
71
100
AcDbEntity
  8
1
  6
CONTINUOUS
 62
           3
100
AcDbLine
 10
578.301425922338
 20
453.111781205662
 11
567.738701733397
 21
410.0
  0
LINE
  5
70
100
AcDbEntity
  8
1
  6
CONTINUOUS
 62
           3
100
AcDbLine
 10
584.164841739606
 20
453.111781205662
 11
578.301425922338
 21
453.111781205662
  0
LINE
  5
6F
100
AcDbEntity
  8
1
  6
CONTINUOUS
 62
           3
100
AcDbLine
 10
575.119681233515
 20
416.19393939391
 11
584.164841739606
 21
453.111781205662
  0
LINE
  5
6E
100
AcDbEntity
  8
1
  6
CONTINUOUS
 62
           3
100
AcDbLine
 10
440.000000000001
 20
410.0
 11
447.852789041055
 21
442.051175145079
  0
LINE
  5
6D
100
AcDbEntity
  8
1
  6
CONTINUOUS
 62
           3
100
AcDbLine
 10
447.852789041055
 20
442.051175145079
 11
454.135020273753
 21
442.051175145079
  0
LINE
  5
6C
100
AcDbEntity
  8
1
  6
CONTINUOUS
 62
           3
100
AcDbLine
 10
454.135020273753
 20
442.051175145079
 11
447.366205292063
 21
414.424242424182
  0
LINE
  5
6B
100
AcDbEntity
  8
1
  6
CONTINUOUS
 62
           3
100
AcDbLine
 10
447.366205292063
 20
414.424242424182
 11
452.601397985942
 21
414.424242424182
  0
LINE
  5
6A
100
AcDbEntity
  8
1
  6
CONTINUOUS
 62
           3
100
AcDbLine
 10
452.601397985942
 20
414.424242424182
 11
460.725180541824
 21
447.581478175405
  0
LINE
  5
69
100
AcDbEntity
  8
1
  6
CONTINUOUS
 62
           3
100
AcDbLine
 10
460.725180541824
 20
447.581478175405
 11
443.034084697291
 21
447.581478175405
  0
LINE
  5
68
100
AcDbEntity
  8
1
  6
CONTINUOUS
 62
           3
100
AcDbLine
 10
443.034084697291
 20
447.581478175405
 11
444.389052271276
 21
453.111781205662
  0
LINE
  5
67
100
AcDbEntity
  8
1
  6
CONTINUOUS
 62
           3
100
AcDbLine
 10
444.389052271276
 20
453.111781205662
 11
468.362379348568
 21
453.111781205662
  0
LINE
  5
66
100
AcDbEntity
  8
1
  6
CONTINUOUS
 62
           3
100
AcDbLine
 10
468.362379348568
 20
453.111781205662
 11
457.799655159648
 21
410.0
  0
LINE
  5
65
100
AcDbEntity
  8
1
  6
CONTINUOUS
 62
           3
100
AcDbLine
 10
457.799655159648
 20
410.0
 11
440.000000000001
 21
410.0
  0
LINE
  5
64
100
AcDbEntity
  8
1
  6
CONTINUOUS
 62
           3
100
AcDbLine
 10
461.987809314775
 20
410.0
 11
469.840598355768
 21
442.051175145079
  0
LINE
  5
63
100
AcDbEntity
  8
1
  6
CONTINUOUS
 62
           3
100
AcDbLine
 10
469.840598355768
 20
442.051175145079
 11
476.122829588578
 21
442.051175145079
  0
LINE
  5
62
100
AcDbEntity
  8
1
  6
CONTINUOUS
 62
           3
100
AcDbLine
 10
476.122829588578
 20
442.051175145079
 11
469.354014606783
 21
414.424242424182
  0
LINE
  5
61
100
AcDbEntity
  8
1
  6
CONTINUOUS
 62
           3
100
AcDbLine
 10
469.354014606783
 20
414.424242424182
 11
474.589207300768
 21
414.424242424182
  0
LINE
  5
60
100
AcDbEntity
  8
1
  6
CONTINUOUS
 62
           3
100
AcDbLine
 10
474.589207300768
 20
414.424242424182
 11
481.358022282573
 21
442.051175145079
  0
LINE
  5
5F
100
AcDbEntity
  8
1
  6
CONTINUOUS
 62
           3
100
AcDbLine
 10
479.787464474365
 20
410.0
 11
461.987809314775
 21
410.0
  0
LINE
  5
5E
100
AcDbEntity
  8
1
  6
CONTINUOUS
 62
           3
100
AcDbLine
 10
481.358022282573
 20
442.051175145079
 11
487.64025351538
 21
442.051175145079
  0
LINE
  5
5D
100
AcDbEntity
  8
1
  6
CONTINUOUS
 62
           3
100
AcDbLine
 10
487.64025351538
 20
442.051175145079
 11
479.787464474365
 21
410.0
  0
LINE
  5
5C
100
AcDbEntity
  8
1
  6
CONTINUOUS
 62
           3
100
AcDbLine
 10
508.581024291314
 20
442.051175145079
 11
491.828407670543
 21
442.051175145079
  0
LINE
  5
5B
100
AcDbEntity
  8
1
  6
CONTINUOUS
 62
           3
100
AcDbLine
 10
491.828407670543
 20
442.051175145079
 11
487.227540807151
 21
423.272727272797
  0
LINE
  5
5A
100
AcDbEntity
  8
1
  6
CONTINUOUS
 62
           3
100
AcDbLine
 10
487.227540807151
 20
423.272727272797
 11
497.697926195117
 21
423.272727272797
  0
LINE
  5
59
100
AcDbEntity
  8
1
  6
CONTINUOUS
 62
           3
100
AcDbLine
 10
497.697926195117
 20
423.272727272797
 11
495.529978076699
 21
414.424242424182
  0
LINE
  5
58
100
AcDbEntity
  8
1
  6
CONTINUOUS
 62
           3
100
AcDbLine
 10
495.529978076699
 20
414.424242424182
 11
485.059592688787
 21
414.424242424182
  0
LINE
  5
57
100
AcDbEntity
  8
1
  6
CONTINUOUS
 62
           3
100
AcDbLine
 10
485.059592688787
 20
414.424242424182
 11
483.97561862948
 21
410.0
  0
LINE
  5
56
100
AcDbEntity
  8
1
  6
CONTINUOUS
 62
           3
100
AcDbLine
 10
483.97561862948
 20
410.0
 11
500.728235250303
 21
410.0
  0
LINE
  5
55
100
AcDbEntity
  8
1
  6
CONTINUOUS
 62
           3
100
AcDbLine
 10
500.728235250303
 20
410.0
 11
505.064131487227
 21
427.696969696953
  0
LINE
  5
54
100
AcDbEntity
  8
1
  6
CONTINUOUS
 62
           3
100
AcDbLine
 10
505.064131487227
 20
427.696969696953
 11
494.593746099163
 21
427.696969696953
  0
LINE
  5
53
100
AcDbEntity
  8
1
  6
CONTINUOUS
 62
           3
100
AcDbLine
 10
494.593746099163
 20
427.696969696953
 11
497.026664844176
 21
437.626932720839
  0
LINE
  5
52
100
AcDbEntity
  8
1
  6
CONTINUOUS
 62
           3
100
AcDbLine
 10
497.026664844176
 20
437.626932720839
 11
507.497050232156
 21
437.626932720839
  0
LINE
  5
51
100
AcDbEntity
  8
1
  6
CONTINUOUS
 62
           3
100
AcDbLine
 10
507.497050232156
 20
437.626932720839
 11
508.581024291314
 21
442.051175145079
  0
LINE
  5
50
100
AcDbEntity
  8
1
  6
CONTINUOUS
 62
           3
100
AcDbLine
 10
526.811859919322
 20
430.990569084413
 11
529.521795067252
 21
442.051175145079
  0
LINE
  5
4F
100
AcDbEntity
  8
1
  6
CONTINUOUS
 62
           3
100
AcDbLine
 10
529.521795067252
 20
442.051175145079
 11
512.769178446532
 21
442.051175145079
  0
LINE
  5
4E
100
AcDbEntity
  8
1
  6
CONTINUOUS
 62
           3
100
AcDbLine
 10
512.769178446532
 20
442.051175145079
 11
504.916389405539
 21
410.0
  0
LINE
  5
4D
100
AcDbEntity
  8
1
  6
CONTINUOUS
 62
           3
100
AcDbLine
 10
504.916389405539
 20
410.0
 11
521.669006026292
 21
410.0
  0
LINE
  5
4C
100
AcDbEntity
  8
1
  6
CONTINUOUS
 62
           3
100
AcDbLine
 10
521.669006026292
 20
410.0
 11
524.378941174266
 21
421.060606060608
  0
LINE
  5
4B
100
AcDbEntity
  8
1
  6
CONTINUOUS
 62
           3
100
AcDbLine
 10
524.378941174266
 20
421.060606060608
 11
518.096709941478
 21
421.060606060608
  0
LINE
  5
4A
100
AcDbEntity
  8
1
  6
CONTINUOUS
 62
           3
100
AcDbLine
 10
518.096709941478
 20
421.060606060608
 11
516.470748852691
 21
414.424242424182
  0
LINE
  5
49
100
AcDbEntity
  8
1
  6
CONTINUOUS
 62
           3
100
AcDbLine
 10
516.470748852691
 20
414.424242424182
 11
512.282594697489
 21
414.424242424182
  0
LINE
  5
48
100
AcDbEntity
  8
1
  6
CONTINUOUS
 62
           3
100
AcDbLine
 10
512.282594697489
 20
414.424242424182
 11
517.967435620118
 21
437.626932720839
  0
LINE
  5
47
100
AcDbEntity
  8
1
  6
CONTINUOUS
 62
           3
100
AcDbLine
 10
517.967435620118
 20
437.626932720839
 11
522.15558977531
 21
437.626932720839
  0
LINE
  5
46
100
AcDbEntity
  8
1
  6
CONTINUOUS
 62
           3
100
AcDbLine
 10
522.15558977531
 20
437.626932720839
 11
520.529628686516
 21
430.990569084413
  0
LINE
  5
45
100
AcDbEntity
  8
1
  6
CONTINUOUS
 62
           3
100
AcDbLine
 10
520.529628686516
 20
430.990569084413
 11
526.811859919322
 21
430.990569084413
  0
LINE
  5
44
100
AcDbEntity
  8
1
  6
CONTINUOUS
 62
           3
100
AcDbLine
 10
525.857160181473
 20
410.0
 11
532.139391414261
 21
410.0
  0
LINE
  5
43
100
AcDbEntity
  8
1
  6
CONTINUOUS
 62
           3
100
AcDbLine
 10
542.609776802336
 20
410.0
 11
550.462565843351
 21
442.051175145079
  0
LINE
  5
42
100
AcDbEntity
  8
1
  6
CONTINUOUS
 62
           3
100
AcDbLine
 10
536.327545569439
 20
410.0
 11
539.711953060334
 21
423.813466360341
  0
LINE
  5
41
100
AcDbEntity
  8
1
  6
CONTINUOUS
 62
           3
100
AcDbLine
 10
532.139391414261
 20
410.0
 11
535.523798905146
 21
423.813466360341
  0
LINE
  5
40
100
AcDbEntity
  8
1
  6
CONTINUOUS
 62
           3
100
AcDbLine
 10
533.709949222466
 20
442.051175145079
 11
525.857160181473
 21
410.0
  0
LINE
  5
3F
100
AcDbEntity
  8
1
  6
CONTINUOUS
 62
           3
100
AcDbLine
 10
550.462565843351
 20
442.051175145079
 11
544.180334610435
 21
442.051175145079
  0
LINE
  5
3E
100
AcDbEntity
  8
1
  6
CONTINUOUS
 62
           3
100
AcDbLine
 10
546.797930957462
 20
410.0
 11
563.55054757827
 21
410.0
  0
LINE
  5
3D
100
AcDbEntity
  8
1
  6
CONTINUOUS
 62
           3
100
AcDbLine
 10
558.352290404568
 20
414.424242424182
 11
554.164136249467
 21
414.424242424182
  0
LINE
  5
3C
100
AcDbEntity
  8
1
  6
CONTINUOUS
 62
           3
100
AcDbLine
 10
554.650719998459
 20
442.051175145079
 11
546.797930957462
 21
410.0
  0
LINE
  5
3B
100
AcDbEntity
  8
1
  6
CONTINUOUS
 62
           3
100
AcDbLine
 10
554.164136249467
 20
414.424242424182
 11
559.848977172042
 21
437.626932720839
  0
LINE
  5
3A
100
AcDbEntity
  8
1
  6
CONTINUOUS
 62
           3
100
AcDbLine
 10
571.403336619289
 20
442.051175145079
 11
554.650719998459
 21
442.051175145079
  0
LINE
  5
39
100
AcDbEntity
  8
1
  6
CONTINUOUS
 62
           3
100
AcDbLine
 10
559.848977172042
 20
437.626932720839
 11
564.037131327292
 21
437.626932720839
  0
LINE
  5
38
100
AcDbEntity
  8
1
  6
CONTINUOUS
 62
           3
100
AcDbLine
 10
564.037131327292
 20
437.626932720839
 11
558.352290404568
 21
414.424242424182
  0
LINE
  5
37
100
AcDbEntity
  8
1
  6
CONTINUOUS
 62
           3
100
AcDbLine
 10
571.403336619289
 20
442.051175145079
 11
563.55054757827
 21
410.0
  0
LINE
  5
36
100
AcDbEntity
  8
1
  6
CONTINUOUS
 62
           3
100
AcDbLine
 10
539.992180455331
 20
442.051175145079
 11
533.709949222466
 21
442.051175145079
  0
LINE
  5
35
100
AcDbEntity
  8
1
  6
CONTINUOUS
 62
           3
100
AcDbLine
 10
536.327545569439
 20
410.0
 11
542.609776802336
 21
410.0
  0
LINE
  5
34
100
AcDbEntity
  8
1
  6
CONTINUOUS
 62
           3
100
AcDbLine
 10
535.523798905146
 20
423.813466360341
 11
539.711953060334
 21
423.813466360341
  0
LINE
  5
33
100
AcDbEntity
  8
1
  6
CONTINUOUS
 62
           3
100
AcDbLine
 10
536.607772964315
 20
428.237708784527
 11
540.795927119554
 21
428.237708784527
  0
LINE
  5
32
100
AcDbEntity
  8
1
  6
CONTINUOUS
 62
           3
100
AcDbLine
 10
536.607772964315
 20
428.237708784527
 11
539.992180455331
 21
442.051175145079
  0
LINE
  5
31
100
AcDbEntity
  8
1
  6
CONTINUOUS
 62
           3
100
AcDbLine
 10
540.795927119554
 20
428.237708784527
 11
544.180334610435
 21
442.051175145079
  0
LINE
  5
30
100
AcDbEntity
  8
1
  6
CONTINUOUS
 62
           3
100
AcDbLine
 10
505.764903150885
 20
458.762204858332
 11
505.032820381938
 21
457.978447872363
  0
LINE
  5
2F
100
AcDbEntity
  8
1
  6
CONTINUOUS
 62
           3
100
AcDbLine
 10
505.328223469318
 20
456.979895810782
 11
505.032820381938
 21
457.978447872363
  0
ENDBLK
  5
E3
100
AcDbEntity
  8
0
100
AcDbBlockEnd
  0
BLOCK
  5
2A
100
AcDbEntity
  8
0
100
AcDbBlockBegin
  2
WANNE_PICCOLO_CITY_173
 70
           0
 10
0.0
 20
0.0
 30
0.0
  3
WANNE_PICCOLO_CITY_173
  1

  0
SPLINE
  5
FA
100
AcDbEntity
  8
1
  6
CONTINUOUS
 62
           7
100
AcDbSpline
210
0.0
220
0.0
230
1.0
 70
           0
 71
           3
 72
          41
 73
          38
 74
          77
 42
0.00000000001
 43
0.00000000001
 44
0.00000000001
 40
-2.1109229907152098
 40
-0.0504370890721191
 40
2.0100488125709752
 40
4.1733895121393063
 40
6.6177435086611407
 40
9.4536676296220641
 40
12.716751165808935
 40
16.38492303028363
 40
20.398680560404486
 40
24.674322265308959
 40
29.112815938137615
 40
33.606522531280824
 40
38.045016204109814
 40
42.320657909014088
 40
46.334415439135022
 40
50.002587303610262
 40
53.265670839797167
 40
56.101594960757552
 40
58.545948957279521
 40
60.709289656847922
 40
62.769775558491503
 40
64.933116258060849
 40
67.377470254582647
 40
70.213394375542649
 40
73.476477911729518
 40
77.144649776204687
 40
81.158407306325344
 40
85.434049011229888
 40
89.872542684058871
 40
94.366249277201376
 40
98.804742950029876
 40
103.08038465493455
 40
107.0941421850554
 40
110.76231404953087
 40
114.02539758571763
 40
116.86132170667744
 40
119.30567570319963
 40
121.46901640276856
 40
123.52950230441174
 40
125.58998820605483
 40
127.65047410769792
 10
1485.7085113579781
 20
270.13459121626278
 30
0.0
 10
1486.80620587361
 20
268.3908398288163
 30
0.0
 10
1488.6226026955601
 20
267.03572189370152
 30
0.0
 10
1491.0621290740009
 20
266.07328600585879
 30
0.0
 10
1494.05810242391
 20
265.50531401646549
 30
0.0
 10
1497.531067338942
 20
265.34139096004668
 30
0.0
 10
1501.38285012029
 20
265.5855331190769
 30
0.0
 10
1505.5005533148931
 20
266.23110770993981
 30
0.0
 10
1509.761498312052
 20
267.25945487240551
 30
0.0
 10
1514.0378526305419
 20
268.64010424425442
 30
0.0
 10
1518.2010248145409
 20
270.33167047459852
 30
0.0
 10
1522.1259112127591
 20
272.28318704292269
 30
0.0
 10
1525.6950063910799
 20
274.43581468357479
 30
0.0
 10
1528.8023452285281
 20
276.72498076269449
 30
0.0
 10
1531.3571865547319
 20
279.08318810459559
 30
0.0
 10
1533.2869132060789
 20
281.4442479397494
 30
0.0
 10
1534.536825808945
 20
283.74973927014122
 30
0.0
 10
1535.0569923263281
 20
285.95542937236678
 30
0.0
 10
1534.7768086420219
 20
287.99677678373928
 30
0.0
 10
1533.6791141263891
 20
289.74052817118672
 30
0.0
 10
1531.8627173044381
 20
291.0956461063015
 30
0.0
 10
1529.4231909259979
 20
292.05808199414378
 30
0.0
 10
1526.42721757609
 20
292.62605398353747
 30
0.0
 10
1522.9542526610569
 20
292.78997703995452
 30
0.0
 10
1519.1024698797089
 20
292.54583488092612
 30
0.0
 10
1514.984766685106
 20
291.90026029006373
 30
0.0
 10
1510.7238216879471
 20
290.87191312759609
 30
0.0
 10
1506.4474673694569
 20
289.49126375574718
 30
0.0
 10
1502.2842951854591
 20
287.79969752540461
 30
0.0
 10
1498.35940878724
 20
285.84818095708079
 30
0.0
 10
1494.7903136089201
 20
283.69555331642692
 30
0.0
 10
1491.682974771471
 20
281.40638723730899
 30
0.0
 10
1489.1281334452669
 20
279.04817989540697
 30
0.0
 10
1487.1984067939211
 20
276.68712006025362
 30
0.0
 10
1485.948494191055
 20
274.38162872986192
 30
0.0
 10
1485.4283276736719
 20
272.17593862763579
 30
0.0
 10
1485.7085113579781
 20
270.13459121626278
 30
0.0
 10
1486.80620587361
 20
268.3908398288163
 30
0.0
 11
1486.2439935847158
 21
269.28394664937321
 31
0.0
 11
1486.878855141747
 21
268.45505750470625
 31
0.0
 11
1487.6590152350518
 21
267.75460371181913
 31
0.0
 11
1488.6640331018421
 21
267.1040592943225
 31
0.0
 11
1489.7519117811969
 21
266.59018967806782
 31
0.0
 11
1491.0828425988821
 21
266.13648784445024
 31
0.0
 11
1492.4552004663292
 21
265.80918968801552
 31
0.0
 11
1494.0661259266133
 21
265.56199008638816
 31
0.0
 11
1495.6930983923048
 21
265.42814262460615
 31
0.0
 11
1497.5313880119322
 21
265.39222374828455
 31
0.0
 11
1499.3703189775406
 21
265.45797044843886
 31
0.0
 11
1501.3781690841067
 21
265.63178984792535
 31
0.0
 11
1503.376657118306
 21
265.8981227051089
 31
0.0
 11
1505.4922436880452
 21
266.27400260252796
 31
0.0
 11
1507.5912110040895
 21
266.73567228512343
 31
0.0
 11
1509.7501665776535
 21
267.30002361506553
 31
0.0
 11
1511.8864586824211
 21
267.94551243032788
 31
0.0
 11
1514.0236174116471
 21
268.67920908671584
 31
0.0
 11
1516.1323057030841
 21
269.49111542802666
 31
0.0
 11
1518.1836244952785
 21
270.37003008845306
 31
0.0
 11
1520.2001426489478
 21
271.32566397658849
 31
0.0
 11
1522.1047006205754
 21
272.32138563566753
 31
0.0
 11
1523.9668374078351
 21
273.39350448023617
 31
0.0
 11
1525.6688551661564
 21
274.47425568380322
 31
0.0
 11
1527.3185704746315
 21
275.63188888782713
 31
0.0
 11
1528.7694210087234
 21
276.76371151199584
 31
0.0
 11
1530.1544231032062
 21
277.97299563476719
 31
0.0
 11
1531.3146056836445
 21
279.12144281561228
 31
0.0
 11
1532.3896265219078
 21
280.34639941849088
 31
0.0
 11
1533.2304168474861
 21
281.47934329528368
 31
0.0
 11
1533.9582144558794
 21
282.682477883145
 31
0.0
 11
1534.4611592636886
 21
283.77545021756254
 31
0.0
 11
1534.8127709809855
 21
284.91984444682294
 31
0.0
 11
1534.9600611820556
 21
285.95791519769887
 31
0.0
 11
1534.9134890945807
 21
287.00095759923897
 31
0.0
 11
1534.6771081984773
 21
287.96048312933669
 31
0.0
 11
1534.2413264152838
 21
288.84742135062919
 31
0.0
 11
1533.6064648582521
 21
289.67631049529666
 31
0.0
 11
1532.8263047649466
 21
290.37676428818406
 31
0.0
 11
1531.8212868981559
 21
291.02730870568053
 31
0.0
 11
1530.7334082188015
 21
291.54117832193509
 31
0.0
 11
1529.4024774011168
 21
291.99488015555244
 31
0.0
 11
1528.0301195336706
 21
292.32217831198716
 31
0.0
 11
1526.4191940733865
 21
292.56937791361457
 31
0.0
 11
1524.792221607695
 21
292.70322537539596
 31
0.0
 11
1522.9539319880666
 21
292.73914425171705
 31
0.0
 11
1521.1150010224583
 21
292.6733975515632
 31
0.0
 11
1519.1071509158924
 21
292.4995781520775
 31
0.0
 11
1517.1086628816931
 21
292.23324529489435
 31
0.0
 11
1514.9930763119535
 21
291.85736539747523
 31
0.0
 11
1512.8941089959096
 21
291.39569571487914
 31
0.0
 11
1510.7351534223453
 21
290.83134438493619
 31
0.0
 11
1508.5988613175775
 21
290.18585556967366
 31
0.0
 11
1506.4617025883517
 21
289.45215891328593
 31
0.0
 11
1504.3530142969153
 21
288.64025257197568
 31
0.0
 11
1502.3016955047212
 21
287.76133791154996
 31
0.0
 11
1500.2851773510517
 21
286.80570402341488
 31
0.0
 11
1498.3806193794239
 21
285.80998236433567
 31
0.0
 11
1496.5184825921642
 21
284.73786351976628
 31
0.0
 11
1494.8164648338432
 21
283.65711231619889
 31
0.0
 11
1493.166749525368
 21
282.49947911217555
 31
0.0
 11
1491.7158989912755
 21
281.36765648800736
 31
0.0
 11
1490.3308968967926
 21
280.15837236523578
 31
0.0
 11
1489.1707143163546
 21
279.0099251843904
 31
0.0
 11
1488.0956934780913
 21
277.78496858151181
 31
0.0
 11
1487.2549031525134
 21
276.65202470471928
 31
0.0
 11
1486.5271055441208
 21
275.44889011685825
 31
0.0
 11
1486.0241607363114
 21
274.35591778244054
 31
0.0
 11
1485.6725490190145
 21
273.21152355318003
 31
0.0
 11
1485.5252588179444
 21
272.1734528023037
 31
0.0
 11
1485.5718309054191
 21
271.13041040076308
 31
0.0
 11
1485.8115530592925
 21
270.16557708895704
 31
0.0
 11
1486.2573586157941
 21
269.26271552253957
 31
0.0
 11
1486.5317822447021
 21
268.82677767567793
 31
0.0
 11
1486.2573586157941
 21
269.26271552253957
 31
0.0
 11
1485.9795937291165
 21
269.70396115110958
 31
0.0
 11
1486.2439935847158
 21
269.28394664937321
 31
0.0
  0
CIRCLE
  5
F9
100
AcDbEntity
  8
WANNE
  6
CONTINUOUS
 62
           7
100
AcDbCircle
 10
1514.999999999994
 20
470.0
 40
45.0
  0
CIRCLE
  5
F8
100
AcDbEntity
  8
WANNE
  6
CONTINUOUS
 62
           7
100
AcDbCircle
 10
1514.999999999994
 20
470.0
 40
26.0
  0
ARC
  5
F7
100
AcDbEntity
  8
1
  6
CONTINUOUS
 62
           7
100
AcDbCircle
 10
351.692617239897
 20
356.651249309368
 40
310.692617239896
100
AcDbArc
 50
97.732433963599
 51
-179.963661713805
  0
ARC
  5
F6
100
AcDbEntity
  8
1
  6
CONTINUOUS
 62
           7
100
AcDbCircle
 10
951.717872404739
 20
-3743.529445972885
 40
4454.529445972885
100
AcDbArc
 50
82.531459985819
 51
90.203272924566
  0
ARC
  5
F5
100
AcDbEntity
  8
1
  6
CONTINUOUS
 62
           7
100
AcDbCircle
 10
1502.999999991252
 20
470.09302099237
 40
205.000000008748
100
AcDbArc
 50
-73.238903430454
 51
-0.025998587569
  0
ARC
  5
F4
100
AcDbEntity
  8
1
  6
CONTINUOUS
 62
           7
100
AcDbCircle
 10
-194.282317929269
 20
6162.312385987269
 40
6099.952562019378
100
AcDbArc
 50
-82.201497762081
 51
-73.394218732101
  0
ARC
  5
F3
100
AcDbEntity
  8
1
  6
CONTINUOUS
 62
           7
100
AcDbCircle
 10
1024.645887318063
 20
-2835.435900486642
 40
3500.000004489432
100
AcDbArc
 50
81.761159664585
 51
97.571852995483
  0
ARC
  5
F2
100
AcDbEntity
  8
1
  6
CONTINUOUS
 62
           7
100
AcDbCircle
 10
1503.267428000014
 20
470.093021000001
 40
159.999999999997
100
AcDbArc
 50
-73.394230000003
 51
81.761160000003
  0
ARC
  5
F1
100
AcDbEntity
  8
1
  6
CONTINUOUS
 62
           7
100
AcDbCircle
 10
597.712902812857
 20
376.312572964092
 40
259.999999864179
100
AcDbArc
 50
97.571847503827
 51
-82.205664481332
  0
ARC
  5
F0
100
AcDbEntity
  8
1
  6
CONTINUOUS
 62
           7
100
AcDbCircle
 10
400.726042540291
 20
363.060890366292
 40
314.846138531332
100
AcDbArc
 50
106.768766954112
 51
-89.122771515088
  0
ARC
  5
EF
100
AcDbEntity
  8
1
  6
CONTINUOUS
 62
           7
100
AcDbCircle
 10
367.005148659635
 20
458.040471148471
 40
412.398655288529
100
AcDbArc
 50
-92.250430313114
 51
-83.142615309466
  0
ARC
  5
EE
100
AcDbEntity
  8
1
  6
CONTINUOUS
 62
           7
100
AcDbCircle
 10
-148.770819230992
 20
5951.113371572502
 40
5929.50267623908
100
AcDbArc
 50
-84.532052719336
 51
-73.229529069005
  0
ARC
  5
ED
100
AcDbEntity
  8
1
  6
CONTINUOUS
 62
           7
100
AcDbCircle
 10
951.717872404739
 20
-3743.529445972885
 40
4454.529445972885
100
AcDbArc
 50
90.203272924566
 51
98.284260544204
  0
ARC
  5
EC
100
AcDbEntity
  8
1
  6
CONTINUOUS
 62
           7
100
AcDbCircle
 10
351.692617239897
 20
356.651249309368
 40
310.692617239897
100
AcDbArc
 50
-179.963661713805
 51
-90.162515838569
  0
ARC
  5
EB
100
AcDbEntity
  8
1
  6
CONTINUOUS
 62
           7
100
AcDbCircle
 10
1502.999999991252
 20
470.09302099237
 40
205.000000008746
100
AcDbArc
 50
-0.025998587569
 51
82.227111997867
  0
ARC
  5
EA
100
AcDbEntity
  8
1
  6
CONTINUOUS
 62
           7
100
AcDbCircle
 10
-1166.151457237151
 20
11580.757286185841
 40
11699.999999999996
100
AcDbArc
 50
-81.812898669697
 51
-75.567236382262
  0
LINE
  5
E9
100
AcDbEntity
  8
1
  6
CONTINUOUS
 62
           7
100
AcDbLine
 10
0.0
 20
0.0
 11
500.0
 21
0.0
  0
LINE
  5
E8
100
AcDbEntity
  8
1
  6
CONTINUOUS
 62
           7
100
AcDbLine
 10
1750.0
 20
750.0
 11
1750.0
 21
249.999999999998
  0
LINE
  5
E7
100
AcDbEntity
  8
1
  6
CONTINUOUS
 62
           7
100
AcDbLine
 10
0.0
 20
0.0
 11
0.0
 21
750.0
  0
LINE
  5
E6
100
AcDbEntity
  8
1
  6
CONTINUOUS
 62
           7
100
AcDbLine
 10
0.0
 20
750.0
 11
1750.0
 21
750.0
  0
LINE
  5
E5
100
AcDbEntity
  8
MITTELLINIEN
  6
DOT_CENTER
 62
           3
100
AcDbLine
 10
1515.0
 20
533.989954999999
 11
1515.0
 21
404.321980999999
  0
LINE
  5
E4
100
AcDbEntity
  8
MITTELLINIEN
  6
DOT_CENTER
 62
           3
100
AcDbLine
 10
1578.989954999998
 20
470.0
 11
1449.321980999986
 21
470.0
  0
ENDBLK
  5
FB
100
AcDbEntity
  8
0
100
AcDbBlockEnd
  0
ENDSEC
  0
SECTION
  2
ENTITIES
  0
MTEXT
  5
FF
100
AcDbEntity
  8
1
 62
           3
100
AcDbMText
 10
1465.0
 20
520.000000000001
 30
0.0
 40
35.0
 41
0.0
 71
           9
 72
           1
  1
ø 52
  7
CONVERTER_1
  0
TEXT
  5
FE
100
AcDbEntity
  8
1
 62
           2
100
AcDbText
 10
440.000000000001
 20
335.0
 40
35.0
  1
PICCOLO City 173
 41
0.71262
  7
CONVERTER_1
100
AcDbText
  0
INSERT
  5
2D
100
AcDbEntity
  8
0
100
AcDbBlockReference
  2
DLX
 10
0.0
 20
0.0
  0
INSERT
  5
2E
100
AcDbEntity
  8
0
100
AcDbBlockReference
  2
WANNE_PICCOLO_CITY_173
 10
0.0
 20
0.0
  0
ENDSEC
  0
SECTION
  2
OBJECTS
  0
DICTIONARY
  5
19
100
AcDbDictionary
  3
ACAD_GROUP
350
1A
  3
ACAD_MLINESTYLE
350
1B
  0
DICTIONARY
  5
1A
102
{ACAD_REACTORS
330
19
102
}
100
AcDbDictionary
  0
DICTIONARY
  5
1B
102
{ACAD_REACTORS
330
19
102
}
100
AcDbDictionary
  3
STANDARD
350
1C
  0
MLINESTYLE
  5
1C
102
{ACAD_REACTORS
330
1B
102
}
100
AcDbMlineStyle
  2
STANDARD
 70
           0
  3

 62
           0
 51
90.0
 52
90.0
 71
           2
 49
0.5
 62
         256
  6
BYLAYER
 49
-0.5
 62
         256
  6
BYLAYER
  0
ENDSEC
  0
EOF
