  0
SECTION
  2
HEADER
  9
$ACADVER
  1
AC1014
  9
$ACADMAINTVER
 70
           0
  9
$DWGCODEPAGE
  3
ANSI_1252
  9
$INSBASE
 10
0.0
 20
0.0
 30
0.0
  9
$EXTMIN
 10
1.000000000000E+20
 20
1.000000000000E+20
 30
1.000000000000E+20
  9
$EXTMAX
 10
-1.000000000000E+20
 20
-1.000000000000E+20
 30
-1.000000000000E+20
  9
$LIMMIN
 10
0.0
 20
0.0
  9
$LIMMAX
 10
0.0
 20
0.0
  9
$ORTHOMODE
 70
           0
  9
$REGENMODE
 70
           1
  9
$FILLMODE
 70
           1
  9
$QTEXTMODE
 70
           0
  9
$MIRRTEXT
 70
           1
  9
$DRAGMODE
 70
           2
  9
$LTSCALE
 40
1.0
  9
$OSMODE
 70
           0
  9
$ATTMODE
 70
           1
  9
$TEXTSIZE
 40
0.2
  9
$TRACEWID
 40
0.05
  9
$TEXTSTYLE
  7
STANDARD
  9
$CLAYER
  8
0
  9
$CELTYPE
  6
CONTINUOUS
  9
$CECOLOR
 62
         256
  9
$CELTSCALE
 40
1.0
  9
$DELOBJ
 70
           1
  9
$DISPSILH
 70
           0
  9
$DIMSCALE
 40
1.0
  9
$DIMASZ
 40
0.18
  9
$DIMEXO
 40
0.0625
  9
$DIMDLI
 40
0.38
  9
$DIMRND
 40
0.0
  9
$DIMDLE
 40
0.0
  9
$DIMEXE
 40
0.18
  9
$DIMTP
 40
0.0
  9
$DIMTM
 40
0.0
  9
$DIMTXT
 40
0.18
  9
$DIMCEN
 40
0.09
  9
$DIMTSZ
 40
0.0
  9
$DIMTOL
 70
           0
  9
$DIMLIM
 70
           0
  9
$DIMTIH
 70
           1
  9
$DIMTOH
 70
           1
  9
$DIMSE1
 70
           0
  9
$DIMSE2
 70
           0
  9
$DIMTAD
 70
           0
  9
$DIMZIN
 70
           0
  9
$DIMBLK
  1

  9
$DIMASO
 70
           1
  9
$DIMSHO
 70
           1
  9
$DIMPOST
  1

  9
$DIMAPOST
  1

  9
$DIMALT
 70
           0
  9
$DIMALTD
 70
           2
  9
$DIMALTF
 40
25.4
  9
$DIMLFAC
 40
1.0
  9
$DIMTOFL
 70
           0
  9
$DIMTVP
 40
0.0
  9
$DIMTIX
 70
           0
  9
$DIMSOXD
 70
           0
  9
$DIMSAH
 70
           0
  9
$DIMBLK1
  1

  9
$DIMBLK2
  1

  9
$DIMSTYLE
  2
STANDARD
  9
$DIMCLRD
 70
           0
  9
$DIMCLRE
 70
           0
  9
$DIMCLRT
 70
           0
  9
$DIMTFAC
 40
1.0
  9
$DIMGAP
 40
0.09
  9
$DIMJUST
 70
           0
  9
$DIMSD1
 70
           0
  9
$DIMSD2
 70
           0
  9
$DIMTOLJ
 70
           1
  9
$DIMTZIN
 70
           0
  9
$DIMALTZ
 70
           0
  9
$DIMALTTZ
 70
           0
  9
$DIMFIT
 70
           3
  9
$DIMUPT
 70
           0
  9
$DIMUNIT
 70
           2
  9
$DIMDEC
 70
           4
  9
$DIMTDEC
 70
           4
  9
$DIMALTU
 70
           2
  9
$DIMALTTD
 70
           2
  9
$DIMTXSTY
  7
STANDARD
  9
$DIMAUNIT
 70
           0
  9
$LUNITS
 70
           2
  9
$LUPREC
 70
           4
  9
$SKETCHINC
 40
0.1
  9
$FILLETRAD
 40
0.0
  9
$AUNITS
 70
           0
  9
$AUPREC
 70
           0
  9
$MENU
  1
acad
  9
$ELEVATION
 40
0.0
  9
$PELEVATION
 40
0.0
  9
$THICKNESS
 40
0.0
  9
$LIMCHECK
 70
           0
  9
$BLIPMODE
 70
           1
  9
$CHAMFERA
 40
0.0
  9
$CHAMFERB
 40
0.0
  9
$CHAMFERC
 40
0.0
  9
$CHAMFERD
 40
0.0
  9
$SKPOLY
 70
           0
  9
$TDCREATE
 40
0.000000000
  9
$TDUPDATE
 40
0.000000000
  9
$TDINDWG
 40
0.0000000000
  9
$TDUSRTIMER
 40
0.0000000000
  9
$USRTIMER
 70
           1
  9
$ANGBASE
 50
0.0
  9
$ANGDIR
 70
           0
  9
$PDMODE
 70
           0
  9
$PDSIZE
 40
0.0
  9
$PLINEWID
 40
0.0
  9
$COORDS
 70
           0
  9
$SPLFRAME
 70
           0
  9
$SPLINETYPE
 70
           6
  9
$SPLINESEGS
 70
           8
  9
$ATTDIA
 70
           0
  9
$ATTREQ
 70
           1
  9
$HANDLING
 70
           1
  9
$HANDSEED
  5
142
  9
$SURFTAB1
 70
           6
  9
$SURFTAB2
 70
           6
  9
$SURFTYPE
 70
           6
  9
$SURFU
 70
           6
  9
$SURFV
 70
           6
  9
$UCSNAME
  2

  9
$UCSORG
 10
0.0
 20
0.0
 30
0.0
  9
$UCSXDIR
 10
1.0
 20
0.0
 30
0.0
  9
$UCSYDIR
 10
0.0
 20
1.0
 30
0.0
  9
$PUCSNAME
  2

  9
$PUCSORG
 10
0.0
 20
0.0
 30
0.0
  9
$PUCSXDIR
 10
1.0
 20
0.0
 30
0.0
  9
$PUCSYDIR
 10
0.0
 20
1.0
 30
0.0
  9
$USERI1
 70
           0
  9
$USERI2
 70
           0
  9
$USERI3
 70
           0
  9
$USERI4
 70
           0
  9
$USERI5
 70
           0
  9
$USERR1
 40
0.0
  9
$USERR2
 40
0.0
  9
$USERR3
 40
0.0
  9
$USERR4
 40
0.0
  9
$USERR5
 40
0.0
  9
$WORLDVIEW
 70
           1
  9
$SHADEDGE
 70
           3
  9
$SHADEDIF
 70
          70
  9
$TILEMODE
 70
           1
  9
$MAXACTVP
 70
          16
  9
$PINSBASE
 10
0.0
 20
0.0
 30
0.0
  9
$PLIMCHECK
 70
           0
  9
$PEXTMIN
 10
1.000000000000E+20
 20
1.000000000000E+20
 30
1.000000000000E+20
  9
$PEXTMAX
 10
-1.000000000000E+20
 20
-1.000000000000E+20
 30
-1.000000000000E+20
  9
$PLIMMIN
 10
0.0
 20
0.0
  9
$PLIMMAX
 10
12.0
 20
9.0
  9
$UNITMODE
 70
           0
  9
$VISRETAIN
 70
           0
  9
$PLINEGEN
 70
           1
  9
$PSLTSCALE
 70
           0
  9
$TREEDEPTH
 70
        3020
  9
$PICKSTYLE
 70
           1
  9
$CMLSTYLE
  2
STANDARD
  9
$CMLJUST
 70
           0
  9
$CMLSCALE
 40
1.0
  9
$PROXYGRAPHICS
 70
           0
  9
$MEASUREMENT
 70
           0
  0
ENDSEC
  0
SECTION
  2
CLASSES
  0
CLASS
  1
LWPOLYLINE
  2
AcDbPolyline
  3
"AutoCAD"
 90
        0
280
           0
281
           1
  0
CLASS
  1
IMAGE
  2
AcDbRasterImage
  3
ISM
 90
      127
280
           0
281
           1
  0
CLASS
  1
OLE2FRAME
  2
AcDbOle2Frame
  3
""
 90
        0
280
           0
281
           1
  0
CLASS
  1
HATCH
  2
AcDbHatch
  3
"ACAD_SEDONA"
 90
        0
280
           0
281
           1
  0
CLASS
  1
DICTIONARYVAR
  2
AcDbDictionaryVar
  3
"AutoCAD"
 90
        0
280
           0
281
           0
  0
CLASS
  1
RASTERVARIABLES
  2
AcDbRasterVariables
  3
ISM
 90
        0
280
           0
281
           0
  0
CLASS
  1
IMAGEDEF
  2
AcDbRasterImageDef
  3
ISM
 90
        0
280
           0
281
           0
  0
CLASS
  1
IMAGEDEF_REACTOR
  2
AcDbRasterImageDefReactor
  3
ISM
 90
        1
280
           0
281
           0
  0
CLASS
  1
IDBUFFER
  2
AcDbIdBuffer
  3
"Acad"
 90
        0
280
           0
281
           0
  0
CLASS
  1
SPATIAL_FILTER
  2
AcDbSpatialFilter
  3
"Acad"
 90
        0
280
           0
281
           0
  0
CLASS
  1
XRECORD
  2
AcDbXrecord
  3
"<Built In>"
 90
        0
280
           0
281
           0
  0
CLASS
  1
SORTENTSTABLE
  2
AcDbSortentsTable
  3
"AutoCAD"
 90
        0
280
           0
281
           0
  0
CLASS
  1
LAYER_INDEX
  2
AcDbLayerIndex
  3
"Acad"
 90
        0
280
           0
281
           0
  0
CLASS
  1
SPATIAL_INDEX
  2
AcDbSpatialIndex
  3
"Acad"
 90
        0
280
           0
281
           0
  0
CLASS
  1
OBJECT_PTR
  2
CAseDLPNTableRecord
  3
"ASE-LPNTableRecord"
 90
        1
280
           0
281
           0
  0
CLASS
  1
LAYOUT
  2
AcDbLayout
  3
"AutoCAD 2000"
 90
        1
280
           0
281
           0
  0
CLASS
  1
PLOTSETTINGS
  2
AcDbPlotSettings
  3
"AutoCAD 2000"
 90
        1
280
           0
281
           0
  0
CLASS
  1
ACDBDICTIONARYWDFLT
  2
AcDbDictionaryWithDefault
  3
"AutoCAD 2000"
 90
        1
280
           0
281
           0
  0
CLASS
  1
ACDBPLACEHOLDER
  2
AcDbPlaceHolder
  3
"AutoCAD 2000"
 90
        1
280
           0
281
           0
  0
CLASS
  1
VBA_PROJECT
  2
AcDbVbaProject
  3
"acadvba"
 90
        1
280
           0
281
           0
  0
CLASS
  1
WIPEOUT
  2
AcDbWipeout
  3
WipeOut|AutoCAD Express Tool|expresstools@autodesk.com
 90
      127
280
           0
281
           1
  0
CLASS
  1
WIPEOUTVARIABLES
  2
AcDbWipeoutVariables
  3
WipeOut|AutoCAD Express Tool|expresstools@autodesk.com
 90
        0
280
           0
281
           0
  0
CLASS
  1
RTEXT
  2
RText
  3
RText|AutoCAD Express Tool|expresstools@autodesk.com
 90
        0
280
           0
281
           1
  0
CLASS
  1
ARCALIGNEDTEXT
  2
AcDbArcAlignedText
  3
ATEXT|AutoCAD Express Tool|expresstools@autodesk.com
 90
        0
280
           0
281
           1
  0
ENDSEC
  0
SECTION
  2
TABLES
  0
TABLE
  2
VPORT
  5
7
100
AcDbSymbolTable
 70
           1
  0
VPORT
  5
15
100
AcDbSymbolTableRecord
100
AcDbViewportTableRecord
  2
*ACTIVE
 70
           0
 10
0.0
 20
0.0
 11
1.0
 21
1.0
 12
6.591288
 22
4.579184
 13
0.0
 23
0.0
 14
1.0
 24
1.0
 15
0.0
 25
0.0
 16
0.0
 26
0.0
 36
1.0
 17
0.0
 27
0.0
 37
0.0
 40
9.158369
 41
0.688564
 42
50.0
 43
0.0
 44
0.0
 50
0.0
 51
0.0
 71
           0
 72
         100
 73
           1
 74
           1
 75
           0
 76
           0
 77
           0
 78
           0
  0
ENDTAB
  0
TABLE
  2
LTYPE
  5
4
100
AcDbSymbolTable
 70
          10
  0
LTYPE
  5
11
100
AcDbSymbolTableRecord
100
AcDbLinetypeTableRecord
  2
BYBLOCK
 70
          64
  3

 72
          65
 73
           0
 40
0.0
  0
LTYPE
  5
12
100
AcDbSymbolTableRecord
100
AcDbLinetypeTableRecord
  2
BYLAYER
 70
          64
  3

 72
          65
 73
           0
 40
0.0
  0
LTYPE
  5
13
100
AcDbSymbolTableRecord
100
AcDbLinetypeTableRecord
  2
CONTINUOUS
 70
          64
  3
Solid line
 72
          65
 73
           0
 40
0.0
  0
LTYPE
  5
1D
100
AcDbSymbolTableRecord
100
AcDbLinetypeTableRecord
  2
DASHED
 70
          64
  3
Dashed
 72
          65
 73
           2
 40
15.0
 49
12.0
 74
           0
 49
-3.0
 74
           0
  0
LTYPE
  5
1E
100
AcDbSymbolTableRecord
100
AcDbLinetypeTableRecord
  2
DOTTED
 70
          64
  3
Dotted
 72
          65
 73
           2
 40
3.5
 49
0.5
 74
           0
 49
-3.0
 74
           0
  0
LTYPE
  5
1F
100
AcDbSymbolTableRecord
100
AcDbLinetypeTableRecord
  2
DOT_CENTER
 70
          64
  3
Dot_Center
 72
          65
 73
           4
 40
2.0
 49
1.25
 74
           0
 49
-0.25
 74
           0
 49
0.25
 74
           0
 49
-0.25
 74
           0
  0
LTYPE
  5
20
100
AcDbSymbolTableRecord
100
AcDbLinetypeTableRecord
  2
LONG_DASHED
 70
          64
  3
Long_Dashed
 72
          65
 73
           2
 40
2.0
 49
1.5
 74
           0
 49
-0.5
 74
           0
  0
LTYPE
  5
21
100
AcDbSymbolTableRecord
100
AcDbLinetypeTableRecord
  2
DASH_CENTER
 70
          64
  3
Dash_Center
 72
          65
 73
           4
 40
36.0
 49
24.0
 74
           0
 49
-3.0
 74
           0
 49
6.0
 74
           0
 49
-3.0
 74
           0
  0
LTYPE
  5
22
100
AcDbSymbolTableRecord
100
AcDbLinetypeTableRecord
  2
PHANTOM
 70
          64
  3
Phantom
 72
          65
 73
           6
 40
2.5
 49
1.25
 74
           0
 49
-0.25
 74
           0
 49
0.25
 74
           0
 49
-0.25
 74
           0
 49
0.25
 74
           0
 49
-0.25
 74
           0
  0
LTYPE
  5
23
100
AcDbSymbolTableRecord
100
AcDbLinetypeTableRecord
  2
CENTER_DASH_DASH
 70
          64
  3
Center_Dash_Dash
 72
          65
 73
           6
 40
22.0
 49
12.0
 74
           0
 49
-3.0
 74
           0
 49
0.5
 74
           0
 49
-3.0
 74
           0
 49
0.5
 74
           0
 49
-3.0
 74
           0
  0
ENDTAB
  0
TABLE
  2
LAYER
  5
2
100
AcDbSymbolTable
 70
           4
  0
LAYER
  5
14
100
AcDbSymbolTableRecord
100
AcDbLayerTableRecord
  2
0
 70
           0
 62
           7
  6
CONTINUOUS
  0
LAYER
  5
24
100
AcDbSymbolTableRecord
100
AcDbLayerTableRecord
  2
MITTELLINIEN
 70
           0
 62
           7
  6
CONTINUOUS
  0
LAYER
  5
25
100
AcDbSymbolTableRecord
100
AcDbLayerTableRecord
  2
1
 70
           0
 62
           7
  6
CONTINUOUS
  0
LAYER
  5
26
100
AcDbSymbolTableRecord
100
AcDbLayerTableRecord
  2
WANNE
 70
           0
 62
           7
  6
CONTINUOUS
  0
ENDTAB
  0
TABLE
  2
STYLE
  5
3
100
AcDbSymbolTable
 70
           2
  0
STYLE
  5
17
100
AcDbSymbolTableRecord
100
AcDbTextStyleTableRecord
  2
STANDARD
 70
           0
 40
0.0
 41
1.0
 50
0.0
 71
           0
 42
0.0
  3
txt
  4

  0
STYLE
  5
13D
100
AcDbSymbolTableRecord
100
AcDbTextStyleTableRecord
  2
CONVERTER_1
 70
           0
 40
0.0
 41
0.71262
 50
0.0
 71
           0
 42
0.0
  3
txt.shx
  4

  0
ENDTAB
  0
TABLE
  2
VIEW
  5
5
100
AcDbSymbolTable
 70
           0
  0
ENDTAB
  0
TABLE
  2
UCS
  5
6
100
AcDbSymbolTable
 70
           0
  0
ENDTAB
  0
TABLE
  2
APPID
  5
8
100
AcDbSymbolTable
 70
           1
  0
APPID
  5
16
100
AcDbSymbolTableRecord
100
AcDbRegAppTableRecord
  2
ACAD
 70
           0
  0
ENDTAB
  0
TABLE
  2
DIMSTYLE
  5
9
100
AcDbSymbolTable
 70
           1
  0
DIMSTYLE
105
18
100
AcDbSymbolTableRecord
100
AcDbDimStyleTableRecord
  2
STANDARD
 70
           0
  3

  4

  5

  6

  7

 40
1.0
 41
0.18
 42
0.0625
 43
0.38
 44
0.18
 45
0.0
 46
0.0
 47
0.0
 48
0.0
 71
           0
 72
           0
 73
           1
 74
           1
 75
           0
 76
           0
 77
           0
 78
           0
140
0.18
141
0.09
142
0.0
143
25.4
144
1.0
145
0.0
146
1.0
147
0.09
170
           0
171
           2
172
           0
173
           0
174
           0
175
           0
176
           0
177
           0
178
           0
270
           2
271
           4
272
           4
273
           2
274
           2
275
           0
280
           0
281
           0
282
           0
283
           1
284
           0
285
           0
286
           0
287
           0
288
           0
340
17
  0
ENDTAB
  0
TABLE
  2
BLOCK_RECORD
  5
1
100
AcDbSymbolTable
 70
           3
  0
BLOCK_RECORD
  5
A
100
AcDbSymbolTableRecord
100
AcDbBlockTableRecord
  2
*MODEL_SPACE
  0
BLOCK_RECORD
  5
B
100
AcDbSymbolTableRecord
100
AcDbBlockTableRecord
  2
*PAPER_SPACE
  0
BLOCK_RECORD
  5
27
100
AcDbSymbolTableRecord
100
AcDbBlockTableRecord
  2
DLX
  0
BLOCK_RECORD
  5
29
100
AcDbSymbolTableRecord
100
AcDbBlockTableRecord
  2
WANNENF_SSE
  0
BLOCK_RECORD
  5
2B
100
AcDbSymbolTableRecord
100
AcDbBlockTableRecord
  2
WANNE_PICCOLO_CITY_174
  0
ENDTAB
  0
ENDSEC
  0
SECTION
  2
BLOCKS
  0
BLOCK
  5
D
100
AcDbEntity
  8
0
100
AcDbBlockBegin
  2
*MODEL_SPACE
 70
           0
 10
0.0
 20
0.0
 30
0.0
  3
*MODEL_SPACE
  1

  0
ENDBLK
  5
E
100
AcDbEntity
  8
0
100
AcDbBlockEnd
  0
BLOCK
  5
F
100
AcDbEntity
 67
           1
  8
0
100
AcDbBlockBegin
  2
*PAPER_SPACE
 70
           0
 10
0.0
 20
0.0
 30
0.0
  3
*PAPER_SPACE
  1

  0
ENDBLK
  5
10
100
AcDbEntity
 67
           1
  8
0
100
AcDbBlockEnd
  0
BLOCK
  5
28
100
AcDbEntity
  8
0
100
AcDbBlockBegin
  2
DLX
 70
           0
 10
0.0
 20
0.0
 30
0.0
  3
DLX
  1

  0
CIRCLE
  5
E5
100
AcDbEntity
  8
1
  6
CONTINUOUS
 62
           3
100
AcDbCircle
 10
297.049716168351
 20
350.878787878755
 40
5.972862778754
  0
CIRCLE
  5
E4
100
AcDbEntity
  8
1
  6
CONTINUOUS
 62
           3
100
AcDbCircle
 10
297.049716168351
 20
350.878787878755
 40
5.530127989696
  0
ARC
  5
E3
100
AcDbEntity
  8
1
  6
CONTINUOUS
 62
           3
100
AcDbCircle
 10
297.25653499973
 20
352.303919921381
 40
2.009798008862
100
AcDbArc
 50
-55.929988464574
 51
86.297888718226
  0
ARC
  5
E2
100
AcDbEntity
  8
1
  6
CONTINUOUS
 62
           3
100
AcDbCircle
 10
297.178217173717
 20
352.264025930551
 40
1.257687287767
100
AcDbArc
 50
-74.800419047064
 51
80.931395238842
  0
ARC
  5
E1
100
AcDbEntity
  8
1
  6
CONTINUOUS
 62
           3
100
AcDbCircle
 10
297.10303453552
 20
349.053039389822
 40
1.155889798233
100
AcDbArc
 50
0.985058170481
 51
82.918254632887
  0
ARC
  5
E0
100
AcDbEntity
  8
1
  6
CONTINUOUS
 62
           3
100
AcDbCircle
 10
297.828427722011
 20
349.362233682226
 40
1.391870091327
100
AcDbArc
 50
-1.298612665727
 51
66.544866494079
  0
LINE
  5
DF
100
AcDbEntity
  8
1
  6
CONTINUOUS
 62
           3
100
AcDbLine
 10
189.642064399732
 20
346.979895810782
 11
189.346661312352
 21
347.978447872363
  0
LINE
  5
DE
100
AcDbEntity
  8
1
  6
CONTINUOUS
 62
           3
100
AcDbLine
 10
190.078744081299
 20
348.762204858332
 11
189.346661312352
 21
347.978447872363
  0
LINE
  5
DD
100
AcDbEntity
  8
1
  6
CONTINUOUS
 62
           3
100
AcDbLine
 10
225.109768049969
 20
318.237708784527
 11
228.494175540849
 21
332.051175145079
  0
LINE
  5
DC
100
AcDbEntity
  8
1
  6
CONTINUOUS
 62
           3
100
AcDbLine
 10
220.921613894729
 20
318.237708784527
 11
224.306021385745
 21
332.051175145079
  0
LINE
  5
DB
100
AcDbEntity
  8
1
  6
CONTINUOUS
 62
           3
100
AcDbLine
 10
220.921613894729
 20
318.237708784527
 11
225.109768049969
 21
318.237708784527
  0
LINE
  5
DA
100
AcDbEntity
  8
1
  6
CONTINUOUS
 62
           3
100
AcDbLine
 10
219.83763983556
 20
313.813466360341
 11
224.025793990748
 21
313.813466360341
  0
LINE
  5
D9
100
AcDbEntity
  8
1
  6
CONTINUOUS
 62
           3
100
AcDbLine
 10
220.641386499853
 20
300.0
 11
226.92361773275
 21
300.0
  0
LINE
  5
D8
100
AcDbEntity
  8
1
  6
CONTINUOUS
 62
           3
100
AcDbLine
 10
224.306021385745
 20
332.051175145079
 11
218.02379015288
 21
332.051175145079
  0
LINE
  5
D7
100
AcDbEntity
  8
1
  6
CONTINUOUS
 62
           3
100
AcDbLine
 10
255.717177549703
 20
332.051175145079
 11
247.864388508685
 21
300.0
  0
LINE
  5
D6
100
AcDbEntity
  8
1
  6
CONTINUOUS
 62
           3
100
AcDbLine
 10
248.350972257707
 20
327.626932720839
 11
242.666131334982
 21
304.424242424182
  0
LINE
  5
D5
100
AcDbEntity
  8
1
  6
CONTINUOUS
 62
           3
100
AcDbLine
 10
244.162818102456
 20
327.626932720839
 11
248.350972257707
 21
327.626932720839
  0
LINE
  5
D4
100
AcDbEntity
  8
1
  6
CONTINUOUS
 62
           3
100
AcDbLine
 10
255.717177549703
 20
332.051175145079
 11
238.964560928873
 21
332.051175145079
  0
LINE
  5
D3
100
AcDbEntity
  8
1
  6
CONTINUOUS
 62
           3
100
AcDbLine
 10
238.477977179881
 20
304.424242424182
 11
244.162818102456
 21
327.626932720839
  0
LINE
  5
D2
100
AcDbEntity
  8
1
  6
CONTINUOUS
 62
           3
100
AcDbLine
 10
238.964560928873
 20
332.051175145079
 11
231.111771887876
 21
300.0
  0
LINE
  5
D1
100
AcDbEntity
  8
1
  6
CONTINUOUS
 62
           3
100
AcDbLine
 10
242.666131334982
 20
304.424242424182
 11
238.477977179881
 21
304.424242424182
  0
LINE
  5
D0
100
AcDbEntity
  8
1
  6
CONTINUOUS
 62
           3
100
AcDbLine
 10
231.111771887876
 20
300.0
 11
247.864388508685
 21
300.0
  0
LINE
  5
CF
100
AcDbEntity
  8
1
  6
CONTINUOUS
 62
           3
100
AcDbLine
 10
234.776406773765
 20
332.051175145079
 11
228.494175540849
 21
332.051175145079
  0
LINE
  5
CE
100
AcDbEntity
  8
1
  6
CONTINUOUS
 62
           3
100
AcDbLine
 10
218.02379015288
 20
332.051175145079
 11
210.171001111887
 21
300.0
  0
LINE
  5
CD
100
AcDbEntity
  8
1
  6
CONTINUOUS
 62
           3
100
AcDbLine
 10
216.453232344675
 20
300.0
 11
219.83763983556
 21
313.813466360341
  0
LINE
  5
CC
100
AcDbEntity
  8
1
  6
CONTINUOUS
 62
           3
100
AcDbLine
 10
220.641386499853
 20
300.0
 11
224.025793990748
 21
313.813466360341
  0
LINE
  5
CB
100
AcDbEntity
  8
1
  6
CONTINUOUS
 62
           3
100
AcDbLine
 10
226.92361773275
 20
300.0
 11
234.776406773765
 21
332.051175145079
  0
LINE
  5
CA
100
AcDbEntity
  8
1
  6
CONTINUOUS
 62
           3
100
AcDbLine
 10
210.171001111887
 20
300.0
 11
216.453232344675
 21
300.0
  0
LINE
  5
C9
100
AcDbEntity
  8
1
  6
CONTINUOUS
 62
           3
100
AcDbLine
 10
204.84346961693
 20
320.990569084413
 11
211.125700849736
 21
320.990569084413
  0
LINE
  5
C8
100
AcDbEntity
  8
1
  6
CONTINUOUS
 62
           3
100
AcDbLine
 10
206.469430705724
 20
327.626932720839
 11
204.84346961693
 21
320.990569084413
  0
LINE
  5
C7
100
AcDbEntity
  8
1
  6
CONTINUOUS
 62
           3
100
AcDbLine
 10
202.281276550532
 20
327.626932720839
 11
206.469430705724
 21
327.626932720839
  0
LINE
  5
C6
100
AcDbEntity
  8
1
  6
CONTINUOUS
 62
           3
100
AcDbLine
 10
196.596435627902
 20
304.424242424182
 11
202.281276550532
 21
327.626932720839
  0
LINE
  5
C5
100
AcDbEntity
  8
1
  6
CONTINUOUS
 62
           3
100
AcDbLine
 10
200.784589783105
 20
304.424242424182
 11
196.596435627902
 21
304.424242424182
  0
LINE
  5
C4
100
AcDbEntity
  8
1
  6
CONTINUOUS
 62
           3
100
AcDbLine
 10
202.410550871892
 20
311.060606060608
 11
200.784589783105
 21
304.424242424182
  0
LINE
  5
C3
100
AcDbEntity
  8
1
  6
CONTINUOUS
 62
           3
100
AcDbLine
 10
208.69278210468
 20
311.060606060608
 11
202.410550871892
 21
311.060606060608
  0
LINE
  5
C2
100
AcDbEntity
  8
1
  6
CONTINUOUS
 62
           3
100
AcDbLine
 10
205.982846956706
 20
300.0
 11
208.69278210468
 21
311.060606060608
  0
LINE
  5
C1
100
AcDbEntity
  8
1
  6
CONTINUOUS
 62
           3
100
AcDbLine
 10
189.230230335953
 20
300.0
 11
205.982846956706
 21
300.0
  0
LINE
  5
C0
100
AcDbEntity
  8
1
  6
CONTINUOUS
 62
           3
100
AcDbLine
 10
197.083019376946
 20
332.051175145079
 11
189.230230335953
 21
300.0
  0
LINE
  5
BF
100
AcDbEntity
  8
1
  6
CONTINUOUS
 62
           3
100
AcDbLine
 10
213.835635997666
 20
332.051175145079
 11
197.083019376946
 21
332.051175145079
  0
LINE
  5
BE
100
AcDbEntity
  8
1
  6
CONTINUOUS
 62
           3
100
AcDbLine
 10
211.125700849736
 20
320.990569084413
 11
213.835635997666
 21
332.051175145079
  0
LINE
  5
BD
100
AcDbEntity
  8
1
  6
CONTINUOUS
 62
           3
100
AcDbLine
 10
191.81089116257
 20
327.626932720839
 11
192.894865221728
 21
332.051175145079
  0
LINE
  5
BC
100
AcDbEntity
  8
1
  6
CONTINUOUS
 62
           3
100
AcDbLine
 10
181.34050577459
 20
327.626932720839
 11
191.81089116257
 21
327.626932720839
  0
LINE
  5
BB
100
AcDbEntity
  8
1
  6
CONTINUOUS
 62
           3
100
AcDbLine
 10
178.907587029577
 20
317.696969696953
 11
181.34050577459
 21
327.626932720839
  0
LINE
  5
BA
100
AcDbEntity
  8
1
  6
CONTINUOUS
 62
           3
100
AcDbLine
 10
189.377972417641
 20
317.696969696953
 11
178.907587029577
 21
317.696969696953
  0
LINE
  5
B9
100
AcDbEntity
  8
1
  6
CONTINUOUS
 62
           3
100
AcDbLine
 10
185.042076180717
 20
300.0
 11
189.377972417641
 21
317.696969696953
  0
LINE
  5
B8
100
AcDbEntity
  8
1
  6
CONTINUOUS
 62
           3
100
AcDbLine
 10
168.289459559894
 20
300.0
 11
185.042076180717
 21
300.0
  0
LINE
  5
B7
100
AcDbEntity
  8
1
  6
CONTINUOUS
 62
           3
100
AcDbLine
 10
169.373433619202
 20
304.424242424182
 11
168.289459559894
 21
300.0
  0
LINE
  5
B6
100
AcDbEntity
  8
1
  6
CONTINUOUS
 62
           3
100
AcDbLine
 10
179.843819007113
 20
304.424242424182
 11
169.373433619202
 21
304.424242424182
  0
LINE
  5
B5
100
AcDbEntity
  8
1
  6
CONTINUOUS
 62
           3
100
AcDbLine
 10
182.011767125531
 20
313.272727272797
 11
179.843819007113
 21
304.424242424182
  0
LINE
  5
B4
100
AcDbEntity
  8
1
  6
CONTINUOUS
 62
           3
100
AcDbLine
 10
171.541381737565
 20
313.272727272797
 11
182.011767125531
 21
313.272727272797
  0
LINE
  5
B3
100
AcDbEntity
  8
1
  6
CONTINUOUS
 62
           3
100
AcDbLine
 10
176.142248600957
 20
332.051175145079
 11
171.541381737565
 21
313.272727272797
  0
LINE
  5
B2
100
AcDbEntity
  8
1
  6
CONTINUOUS
 62
           3
100
AcDbLine
 10
192.894865221728
 20
332.051175145079
 11
176.142248600957
 21
332.051175145079
  0
LINE
  5
B1
100
AcDbEntity
  8
1
  6
CONTINUOUS
 62
           3
100
AcDbLine
 10
171.954094445794
 20
332.051175145079
 11
164.101305404779
 21
300.0
  0
LINE
  5
B0
100
AcDbEntity
  8
1
  6
CONTINUOUS
 62
           3
100
AcDbLine
 10
165.671863212987
 20
332.051175145079
 11
171.954094445794
 21
332.051175145079
  0
LINE
  5
AF
100
AcDbEntity
  8
1
  6
CONTINUOUS
 62
           3
100
AcDbLine
 10
164.101305404779
 20
300.0
 11
146.301650245189
 21
300.0
  0
LINE
  5
AE
100
AcDbEntity
  8
1
  6
CONTINUOUS
 62
           3
100
AcDbLine
 10
158.903048231182
 20
304.424242424182
 11
165.671863212987
 21
332.051175145079
  0
LINE
  5
AD
100
AcDbEntity
  8
1
  6
CONTINUOUS
 62
           3
100
AcDbLine
 10
153.667855537197
 20
304.424242424182
 11
158.903048231182
 21
304.424242424182
  0
LINE
  5
AC
100
AcDbEntity
  8
1
  6
CONTINUOUS
 62
           3
100
AcDbLine
 10
160.436670518992
 20
332.051175145079
 11
153.667855537197
 21
304.424242424182
  0
LINE
  5
AB
100
AcDbEntity
  8
1
  6
CONTINUOUS
 62
           3
100
AcDbLine
 10
154.154439286182
 20
332.051175145079
 11
160.436670518992
 21
332.051175145079
  0
LINE
  5
AA
100
AcDbEntity
  8
1
  6
CONTINUOUS
 62
           3
100
AcDbLine
 10
146.301650245189
 20
300.0
 11
154.154439286182
 21
332.051175145079
  0
LINE
  5
A9
100
AcDbEntity
  8
1
  6
CONTINUOUS
 62
           3
100
AcDbLine
 10
142.113496090062
 20
300.0
 11
124.313840930414
 21
300.0
  0
LINE
  5
A8
100
AcDbEntity
  8
1
  6
CONTINUOUS
 62
           3
100
AcDbLine
 10
152.676220278982
 20
343.111781205662
 11
142.113496090062
 21
300.0
  0
LINE
  5
A7
100
AcDbEntity
  8
1
  6
CONTINUOUS
 62
           3
100
AcDbLine
 10
128.70289320169
 20
343.111781205662
 11
152.676220278982
 21
343.111781205662
  0
LINE
  5
A6
100
AcDbEntity
  8
1
  6
CONTINUOUS
 62
           3
100
AcDbLine
 10
127.347925627705
 20
337.581478175405
 11
128.70289320169
 21
343.111781205662
  0
LINE
  5
A5
100
AcDbEntity
  8
1
  6
CONTINUOUS
 62
           3
100
AcDbLine
 10
145.039021472238
 20
337.581478175405
 11
127.347925627705
 21
337.581478175405
  0
LINE
  5
A4
100
AcDbEntity
  8
1
  6
CONTINUOUS
 62
           3
100
AcDbLine
 10
136.915238916356
 20
304.424242424182
 11
145.039021472238
 21
337.581478175405
  0
LINE
  5
A3
100
AcDbEntity
  8
1
  6
CONTINUOUS
 62
           3
100
AcDbLine
 10
131.680046222477
 20
304.424242424182
 11
136.915238916356
 21
304.424242424182
  0
LINE
  5
A2
100
AcDbEntity
  8
1
  6
CONTINUOUS
 62
           3
100
AcDbLine
 10
138.448861204167
 20
332.051175145079
 11
131.680046222477
 21
304.424242424182
  0
LINE
  5
A1
100
AcDbEntity
  8
1
  6
CONTINUOUS
 62
           3
100
AcDbLine
 10
132.166629971469
 20
332.051175145079
 11
138.448861204167
 21
332.051175145079
  0
LINE
  5
A0
100
AcDbEntity
  8
1
  6
CONTINUOUS
 62
           3
100
AcDbLine
 10
124.313840930414
 20
300.0
 11
132.166629971469
 21
332.051175145079
  0
LINE
  5
9F
100
AcDbEntity
  8
1
  6
CONTINUOUS
 62
           3
100
AcDbLine
 10
259.433522163929
 20
306.19393939391
 11
268.47868267002
 21
343.111781205662
  0
LINE
  5
9E
100
AcDbEntity
  8
1
  6
CONTINUOUS
 62
           3
100
AcDbLine
 10
268.47868267002
 20
343.111781205662
 11
262.615266852753
 21
343.111781205662
  0
LINE
  5
9D
100
AcDbEntity
  8
1
  6
CONTINUOUS
 62
           3
100
AcDbLine
 10
262.615266852753
 20
343.111781205662
 11
252.052542663812
 21
300.0
  0
LINE
  5
9C
100
AcDbEntity
  8
1
  6
CONTINUOUS
 62
           3
100
AcDbLine
 10
269.956901677381
 20
332.051175145079
 11
264.272060754693
 21
308.848484848477
  0
LINE
  5
9B
100
AcDbEntity
  8
1
  6
CONTINUOUS
 62
           3
100
AcDbLine
 10
264.272060754693
 20
308.848484848477
 11
279.977638836614
 21
308.848484848477
  0
LINE
  5
9A
100
AcDbEntity
  8
1
  6
CONTINUOUS
 62
           3
100
AcDbLine
 10
279.977638836614
 20
308.848484848477
 11
285.662479759222
 21
332.051175145079
  0
LINE
  5
99
100
AcDbEntity
  8
1
  6
CONTINUOUS
 62
           3
100
AcDbLine
 10
285.662479759222
 20
332.051175145079
 11
280.4272870653
 21
332.051175145079
  0
LINE
  5
98
100
AcDbEntity
  8
1
  6
CONTINUOUS
 62
           3
100
AcDbLine
 10
280.4272870653
 20
332.051175145079
 11
275.826420201904
 21
313.272727272797
  0
LINE
  5
97
100
AcDbEntity
  8
1
  6
CONTINUOUS
 62
           3
100
AcDbLine
 10
275.826420201904
 20
313.272727272797
 11
270.591227507952
 21
313.272727272797
  0
LINE
  5
96
100
AcDbEntity
  8
1
  6
CONTINUOUS
 62
           3
100
AcDbLine
 10
270.591227507952
 20
313.272727272797
 11
275.192094371304
 21
332.051175145079
  0
LINE
  5
95
100
AcDbEntity
  8
1
  6
CONTINUOUS
 62
           3
100
AcDbLine
 10
275.192094371304
 20
332.051175145079
 11
269.956901677381
 21
332.051175145079
  0
LINE
  5
94
100
AcDbEntity
  8
1
  6
CONTINUOUS
 62
           3
100
AcDbLine
 10
292.220818515363
 20
332.051175145079
 11
288.175372252348
 21
332.051175145079
  0
LINE
  5
93
100
AcDbEntity
  8
1
  6
CONTINUOUS
 62
           3
100
AcDbLine
 10
288.175372252348
 20
332.051175145079
 11
292.297667774545
 21
321.415301218661
  0
LINE
  5
92
100
AcDbEntity
  8
1
  6
CONTINUOUS
 62
           3
100
AcDbLine
 10
292.297667774545
 20
321.415301218661
 11
282.490531329755
 21
308.848484848477
  0
LINE
  5
91
100
AcDbEntity
  8
1
  6
CONTINUOUS
 62
           3
100
AcDbLine
 10
282.490531329755
 20
308.848484848477
 11
286.535977592752
 21
308.848484848477
  0
LINE
  5
90
100
AcDbEntity
  8
1
  6
CONTINUOUS
 62
           3
100
AcDbLine
 10
286.535977592752
 20
308.848484848477
 11
293.640110172854
 21
317.951685370502
  0
LINE
  5
8F
100
AcDbEntity
  8
1
  6
CONTINUOUS
 62
           3
100
AcDbLine
 10
293.640110172854
 20
317.951685370502
 11
297.168365867538
 21
308.848484848477
  0
LINE
  5
8E
100
AcDbEntity
  8
1
  6
CONTINUOUS
 62
           3
100
AcDbLine
 10
297.168365867538
 20
308.848484848477
 11
301.213812130586
 21
308.848484848477
  0
LINE
  5
8D
100
AcDbEntity
  8
1
  6
CONTINUOUS
 62
           3
100
AcDbLine
 10
301.213812130586
 20
308.848484848477
 11
296.343114037582
 21
321.415301218603
  0
LINE
  5
8C
100
AcDbEntity
  8
1
  6
CONTINUOUS
 62
           3
100
AcDbLine
 10
296.343114037582
 20
321.415301218603
 11
304.643344082665
 21
332.051175145079
  0
LINE
  5
8B
100
AcDbEntity
  8
1
  6
CONTINUOUS
 62
           3
100
AcDbLine
 10
304.643344082665
 20
332.051175145079
 11
300.597897819606
 21
332.051175145079
  0
LINE
  5
8A
100
AcDbEntity
  8
1
  6
CONTINUOUS
 62
           3
100
AcDbLine
 10
300.597897819606
 20
332.051175145079
 11
295.000671639321
 21
324.878917066824
  0
LINE
  5
89
100
AcDbEntity
  8
1
  6
CONTINUOUS
 62
           3
100
AcDbLine
 10
295.000671639321
 20
324.878917066824
 11
292.220818515363
 21
332.051175145079
  0
LINE
  5
88
100
AcDbEntity
  8
1
  6
CONTINUOUS
 62
           3
100
AcDbLine
 10
302.242671716102
 20
306.19393939391
 11
304.643344082621
 21
300.0
  0
LINE
  5
87
100
AcDbEntity
  8
1
  6
CONTINUOUS
 62
           3
100
AcDbLine
 10
302.242671716102
 20
306.19393939391
 11
259.433522163929
 21
306.19393939391
  0
LINE
  5
86
100
AcDbEntity
  8
1
  6
CONTINUOUS
 62
           3
100
AcDbLine
 10
304.643344082621
 20
300.0
 11
252.052542663812
 21
300.0
  0
LINE
  5
85
100
AcDbEntity
  8
1
  6
CONTINUOUS
 62
           3
100
AcDbLine
 10
161.052528589381
 20
343.111781205662
 11
164.304450766863
 21
356.38450847832
  0
LINE
  5
84
100
AcDbEntity
  8
1
  6
CONTINUOUS
 62
           3
100
AcDbLine
 10
164.304450766863
 20
356.38450847832
 11
176.86891323258
 21
356.38450847832
  0
LINE
  5
83
100
AcDbEntity
  8
1
  6
CONTINUOUS
 62
           3
100
AcDbLine
 10
176.86891323258
 20
356.38450847832
 11
173.616991054906
 21
343.111781205662
  0
LINE
  5
82
100
AcDbEntity
  8
1
  6
CONTINUOUS
 62
           3
100
AcDbLine
 10
173.616991054906
 20
343.111781205662
 11
161.052528589381
 21
343.111781205662
  0
LINE
  5
81
100
AcDbEntity
  8
1
  6
CONTINUOUS
 62
           3
100
AcDbLine
 10
172.064901006902
 20
345.323902417793
 11
163.688592696547
 21
345.323902417793
  0
LINE
  5
80
100
AcDbEntity
  8
1
  6
CONTINUOUS
 62
           3
100
AcDbLine
 10
174.232849125378
 20
354.172387266269
 11
172.064901006902
 21
345.323902417793
  0
LINE
  5
7F
100
AcDbEntity
  8
1
  6
CONTINUOUS
 62
           3
100
AcDbLine
 10
165.856540814889
 20
354.172387266269
 11
174.232849125378
 21
354.172387266269
  0
LINE
  5
7E
100
AcDbEntity
  8
1
  6
CONTINUOUS
 62
           3
100
AcDbLine
 10
163.688592696547
 20
345.323902417793
 11
165.856540814889
 21
354.172387266269
  0
LINE
  5
7D
100
AcDbEntity
  8
1
  6
CONTINUOUS
 62
           3
100
AcDbLine
 10
179.381805725573
 20
356.38450847832
 11
176.129883548036
 21
343.111781205662
  0
LINE
  5
7C
100
AcDbEntity
  8
1
  6
CONTINUOUS
 62
           3
100
AcDbLine
 10
179.381805725573
 20
356.38450847832
 11
191.946268191152
 21
356.38450847832
  0
LINE
  5
7B
100
AcDbEntity
  8
1
  6
CONTINUOUS
 62
           3
100
AcDbLine
 10
191.946268191152
 20
356.38450847832
 11
190.078744081299
 21
348.762204858332
  0
LINE
  5
7A
100
AcDbEntity
  8
1
  6
CONTINUOUS
 62
           3
100
AcDbLine
 10
188.69434601362
 20
343.111781205662
 11
186.60026893598
 21
343.111781205662
  0
LINE
  5
79
100
AcDbEntity
  8
1
  6
CONTINUOUS
 62
           3
100
AcDbLine
 10
186.60026893598
 20
343.111781205662
 11
187.684242995353
 21
347.536023629844
  0
LINE
  5
78
100
AcDbEntity
  8
1
  6
CONTINUOUS
 62
           3
100
AcDbLine
 10
187.684242995353
 20
347.536023629844
 11
179.307934684823
 21
347.536023629844
  0
LINE
  5
77
100
AcDbEntity
  8
1
  6
CONTINUOUS
 62
           3
100
AcDbLine
 10
179.849921714415
 20
349.748144842033
 11
188.226230024795
 21
349.748144842033
  0
LINE
  5
76
100
AcDbEntity
  8
1
  6
CONTINUOUS
 62
           3
100
AcDbLine
 10
188.226230024795
 20
349.748144842033
 11
189.310204084117
 21
354.172387266269
  0
LINE
  5
75
100
AcDbEntity
  8
1
  6
CONTINUOUS
 62
           3
100
AcDbLine
 10
189.310204084117
 20
354.172387266269
 11
180.933895773599
 21
354.172387266269
  0
LINE
  5
74
100
AcDbEntity
  8
1
  6
CONTINUOUS
 62
           3
100
AcDbLine
 10
180.933895773599
 20
354.172387266269
 11
179.849921714415
 21
349.748144842033
  0
LINE
  5
73
100
AcDbEntity
  8
1
  6
CONTINUOUS
 62
           3
100
AcDbLine
 10
189.642064399732
 20
346.979895810782
 11
188.69434601362
 21
343.111781205662
  0
LINE
  5
72
100
AcDbEntity
  8
1
  6
CONTINUOUS
 62
           3
100
AcDbLine
 10
176.129883548036
 20
343.111781205662
 11
178.223960625712
 21
343.111781205662
  0
LINE
  5
71
100
AcDbEntity
  8
1
  6
CONTINUOUS
 62
           3
100
AcDbLine
 10
178.223960625712
 20
343.111781205662
 11
179.307934684823
 21
347.536023629844
  0
LINE
  5
70
100
AcDbEntity
  8
1
  6
CONTINUOUS
 62
           3
100
AcDbLine
 10
196.553237761879
 20
356.38450847832
 11
194.459160684316
 21
356.38450847832
  0
LINE
  5
6F
100
AcDbEntity
  8
1
  6
CONTINUOUS
 62
           3
100
AcDbLine
 10
194.459160684316
 20
356.38450847832
 11
191.20723850675
 21
343.111781205662
  0
LINE
  5
6E
100
AcDbEntity
  8
1
  6
CONTINUOUS
 62
           3
100
AcDbLine
 10
191.20723850675
 20
343.111781205662
 11
193.30131558447
 21
343.111781205662
  0
LINE
  5
6D
100
AcDbEntity
  8
1
  6
CONTINUOUS
 62
           3
100
AcDbLine
 10
193.30131558447
 20
343.111781205662
 11
196.553237761879
 21
356.38450847832
  0
LINE
  5
6C
100
AcDbEntity
  8
1
  6
CONTINUOUS
 62
           3
100
AcDbLine
 10
195.814208077455
 20
343.111781205662
 11
199.066130254999
 21
356.38450847832
  0
LINE
  5
6B
100
AcDbEntity
  8
1
  6
CONTINUOUS
 62
           3
100
AcDbLine
 10
199.066130254999
 20
356.38450847832
 11
211.630592720589
 21
356.38450847832
  0
LINE
  5
6A
100
AcDbEntity
  8
1
  6
CONTINUOUS
 62
           3
100
AcDbLine
 10
211.630592720589
 20
356.38450847832
 11
210.492419958462
 21
351.739053932891
  0
LINE
  5
69
100
AcDbEntity
  8
1
  6
CONTINUOUS
 62
           3
100
AcDbLine
 10
208.378670543067
 20
343.111781205662
 11
195.814208077455
 21
343.111781205662
  0
LINE
  5
68
100
AcDbEntity
  8
1
  6
CONTINUOUS
 62
           3
100
AcDbLine
 10
206.826580495019
 20
345.323902417793
 11
198.45027218469
 21
345.323902417793
  0
LINE
  5
67
100
AcDbEntity
  8
1
  6
CONTINUOUS
 62
           3
100
AcDbLine
 10
208.994528613314
 20
354.172387266269
 11
208.398342880936
 21
351.739053932891
  0
LINE
  5
66
100
AcDbEntity
  8
1
  6
CONTINUOUS
 62
           3
100
AcDbLine
 10
200.618220303017
 20
354.172387266269
 11
208.994528613314
 21
354.172387266269
  0
LINE
  5
65
100
AcDbEntity
  8
1
  6
CONTINUOUS
 62
           3
100
AcDbLine
 10
198.45027218469
 20
345.323902417793
 11
200.618220303017
 21
354.172387266269
  0
LINE
  5
64
100
AcDbEntity
  8
1
  6
CONTINUOUS
 62
           3
100
AcDbLine
 10
210.004631631839
 20
349.748144842033
 11
203.722400399033
 21
349.748144842033
  0
LINE
  5
63
100
AcDbEntity
  8
1
  6
CONTINUOUS
 62
           3
100
AcDbLine
 10
210.004631631839
 20
349.748144842033
 11
208.378670543067
 21
343.111781205662
  0
LINE
  5
62
100
AcDbEntity
  8
1
  6
CONTINUOUS
 62
           3
100
AcDbLine
 10
203.722400399033
 20
349.748144842033
 11
203.180413369386
 21
347.536023629844
  0
LINE
  5
61
100
AcDbEntity
  8
1
  6
CONTINUOUS
 62
           3
100
AcDbLine
 10
203.180413369386
 20
347.536023629844
 11
207.368567524786
 21
347.536023629844
  0
LINE
  5
60
100
AcDbEntity
  8
1
  6
CONTINUOUS
 62
           3
100
AcDbLine
 10
207.368567524786
 20
347.536023629844
 11
206.826580495019
 21
345.323902417793
  0
LINE
  5
5F
100
AcDbEntity
  8
1
  6
CONTINUOUS
 62
           3
100
AcDbLine
 10
208.398342880936
 20
351.739053932891
 11
210.492419958462
 21
351.739053932891
  0
LINE
  5
5E
100
AcDbEntity
  8
1
  6
CONTINUOUS
 62
           3
100
AcDbLine
 10
210.891563036183
 20
343.111781205662
 11
212.985640113743
 21
343.111781205662
  0
LINE
  5
5D
100
AcDbEntity
  8
1
  6
CONTINUOUS
 62
           3
100
AcDbLine
 10
212.985640113743
 20
343.111781205662
 11
216.237562291312
 21
356.38450847832
  0
LINE
  5
5C
100
AcDbEntity
  8
1
  6
CONTINUOUS
 62
           3
100
AcDbLine
 10
214.143485213748
 20
356.38450847832
 11
210.891563036183
 21
343.111781205662
  0
LINE
  5
5B
100
AcDbEntity
  8
1
  6
CONTINUOUS
 62
           3
100
AcDbLine
 10
216.237562291312
 20
356.38450847832
 11
214.143485213748
 21
356.38450847832
  0
LINE
  5
5A
100
AcDbEntity
  8
1
  6
CONTINUOUS
 62
           3
100
AcDbLine
 10
215.498532606913
 20
343.111781205662
 11
218.750454784428
 21
356.38450847832
  0
LINE
  5
59
100
AcDbEntity
  8
1
  6
CONTINUOUS
 62
           3
100
AcDbLine
 10
218.750454784428
 20
356.38450847832
 11
221.891570400769
 21
356.38450847832
  0
LINE
  5
58
100
AcDbEntity
  8
1
  6
CONTINUOUS
 62
           3
100
AcDbLine
 10
221.891570400769
 20
356.38450847832
 11
226.375408267045
 21
344.770872114746
  0
LINE
  5
57
100
AcDbEntity
  8
1
  6
CONTINUOUS
 62
           3
100
AcDbLine
 10
226.375408267045
 20
344.770872114746
 11
229.220840172397
 21
356.38450847832
  0
LINE
  5
56
100
AcDbEntity
  8
1
  6
CONTINUOUS
 62
           3
100
AcDbLine
 10
229.220840172397
 20
356.38450847832
 11
231.314917250011
 21
356.38450847832
  0
LINE
  5
55
100
AcDbEntity
  8
1
  6
CONTINUOUS
 62
           3
100
AcDbLine
 10
231.314917250011
 20
356.38450847832
 11
228.062995072391
 21
343.111781205662
  0
LINE
  5
54
100
AcDbEntity
  8
1
  6
CONTINUOUS
 62
           3
100
AcDbLine
 10
228.062995072391
 20
343.111781205662
 11
224.820316583622
 21
343.111781205662
  0
LINE
  5
53
100
AcDbEntity
  8
1
  6
CONTINUOUS
 62
           3
100
AcDbLine
 10
224.820316583622
 20
343.111781205662
 11
221.039160247912
 21
352.905394629535
  0
LINE
  5
52
100
AcDbEntity
  8
1
  6
CONTINUOUS
 62
           3
100
AcDbLine
 10
221.039160247912
 20
352.905394629535
 11
220.398611981402
 21
354.564485538598
  0
LINE
  5
51
100
AcDbEntity
  8
1
  6
CONTINUOUS
 62
           3
100
AcDbLine
 10
220.398611981402
 20
354.564485538598
 11
217.592609684473
 21
343.111781205662
  0
LINE
  5
50
100
AcDbEntity
  8
1
  6
CONTINUOUS
 62
           3
100
AcDbLine
 10
217.592609684473
 20
343.111781205662
 11
215.498532606913
 21
343.111781205662
  0
LINE
  5
4F
100
AcDbEntity
  8
1
  6
CONTINUOUS
 62
           3
100
AcDbLine
 10
230.575887565507
 20
343.111781205662
 11
238.087317844405
 21
356.38450847832
  0
LINE
  5
4E
100
AcDbEntity
  8
1
  6
CONTINUOUS
 62
           3
100
AcDbLine
 10
238.087317844405
 20
356.38450847832
 11
242.132764107379
 21
356.38450847832
  0
LINE
  5
4D
100
AcDbEntity
  8
1
  6
CONTINUOUS
 62
           3
100
AcDbLine
 10
242.132764107379
 20
356.38450847832
 11
243.140350031141
 21
343.111781205662
  0
LINE
  5
4C
100
AcDbEntity
  8
1
  6
CONTINUOUS
 62
           3
100
AcDbLine
 10
243.140350031141
 20
343.111781205662
 11
241.110667868072
 21
343.111781205662
  0
LINE
  5
4B
100
AcDbEntity
  8
1
  6
CONTINUOUS
 62
           3
100
AcDbLine
 10
241.110667868072
 20
343.111781205662
 11
240.942736880805
 21
345.323902417793
  0
LINE
  5
4A
100
AcDbEntity
  8
1
  6
CONTINUOUS
 62
           3
100
AcDbLine
 10
240.942736880805
 20
345.323902417793
 11
234.206589600441
 21
345.323902417793
  0
LINE
  5
49
100
AcDbEntity
  8
1
  6
CONTINUOUS
 62
           3
100
AcDbLine
 10
234.206589600441
 20
345.323902417793
 11
232.954684554078
 21
343.111781205662
  0
LINE
  5
48
100
AcDbEntity
  8
1
  6
CONTINUOUS
 62
           3
100
AcDbLine
 10
232.954684554078
 20
343.111781205662
 11
230.575887565507
 21
343.111781205662
  0
LINE
  5
47
100
AcDbEntity
  8
1
  6
CONTINUOUS
 62
           3
100
AcDbLine
 10
235.458494646972
 20
347.536023629844
 11
240.774805893483
 21
347.536023629844
  0
LINE
  5
46
100
AcDbEntity
  8
1
  6
CONTINUOUS
 62
           3
100
AcDbLine
 10
240.774805893483
 20
347.536023629844
 11
240.271012931628
 21
354.172387266269
  0
LINE
  5
45
100
AcDbEntity
  8
1
  6
CONTINUOUS
 62
           3
100
AcDbLine
 10
240.271012931628
 20
354.172387266269
 11
239.214209786338
 21
354.172387266269
  0
LINE
  5
44
100
AcDbEntity
  8
1
  6
CONTINUOUS
 62
           3
100
AcDbLine
 10
235.458494646972
 20
347.536023629844
 11
239.214209786338
 21
354.172387266269
  0
LINE
  5
43
100
AcDbEntity
  8
1
  6
CONTINUOUS
 62
           3
100
AcDbLine
 10
248.90516470183
 20
356.38450847832
 11
245.653242524261
 21
343.111781205662
  0
LINE
  5
42
100
AcDbEntity
  8
1
  6
CONTINUOUS
 62
           3
100
AcDbLine
 10
245.653242524261
 20
343.111781205662
 11
258.21770498984
 21
343.111781205662
  0
LINE
  5
41
100
AcDbEntity
  8
1
  6
CONTINUOUS
 62
           3
100
AcDbLine
 10
258.21770498984
 20
343.111781205662
 11
258.759692019502
 21
345.323902417793
  0
LINE
  5
40
100
AcDbEntity
  8
1
  6
CONTINUOUS
 62
           3
100
AcDbLine
 10
258.759692019502
 20
345.323902417793
 11
248.289306631482
 21
345.323902417793
  0
LINE
  5
3F
100
AcDbEntity
  8
1
  6
CONTINUOUS
 62
           3
100
AcDbLine
 10
248.289306631482
 20
345.323902417793
 11
250.999241779444
 21
356.38450847832
  0
LINE
  5
3E
100
AcDbEntity
  8
1
  6
CONTINUOUS
 62
           3
100
AcDbLine
 10
250.999241779444
 20
356.38450847832
 11
248.90516470183
 21
356.38450847832
  0
LINE
  5
3D
100
AcDbEntity
  8
1
  6
CONTINUOUS
 62
           3
100
AcDbLine
 10
295.520477066114
 20
350.200111213842
 11
295.520477066114
 21
347.451055788282
  0
LINE
  5
3C
100
AcDbEntity
  8
1
  6
CONTINUOUS
 62
           3
100
AcDbLine
 10
294.648029366998
 20
347.451055788282
 11
294.648029366998
 21
354.309523963456
  0
LINE
  5
3B
100
AcDbEntity
  8
1
  6
CONTINUOUS
 62
           3
100
AcDbLine
 10
294.648029366998
 20
354.309523963456
 11
297.089949226238
 21
354.309523963456
  0
LINE
  5
3A
100
AcDbEntity
  8
1
  6
CONTINUOUS
 62
           3
100
AcDbLine
 10
297.089949226238
 20
354.309523963456
 11
297.386305808591
 21
354.309523963456
  0
LINE
  5
39
100
AcDbEntity
  8
1
  6
CONTINUOUS
 62
           3
100
AcDbLine
 10
299.219940323156
 20
349.330689554626
 11
299.219940323156
 21
347.451055788282
  0
LINE
  5
38
100
AcDbEntity
  8
1
  6
CONTINUOUS
 62
           3
100
AcDbLine
 10
299.219940323156
 20
347.451055788282
 11
298.258753507652
 21
347.451055788282
  0
LINE
  5
37
100
AcDbEntity
  8
1
  6
CONTINUOUS
 62
           3
100
AcDbLine
 10
298.258753507652
 20
347.451055788282
 11
298.258753507652
 21
349.0729110559
  0
LINE
  5
36
100
AcDbEntity
  8
1
  6
CONTINUOUS
 62
           3
100
AcDbLine
 10
297.245538767732
 20
350.200111213842
 11
295.520477066114
 21
350.200111213842
  0
LINE
  5
35
100
AcDbEntity
  8
1
  6
CONTINUOUS
 62
           3
100
AcDbLine
 10
295.520477066114
 20
347.451055788282
 11
294.648029366998
 21
347.451055788282
  0
LINE
  5
34
100
AcDbEntity
  8
1
  6
CONTINUOUS
 62
           3
100
AcDbLine
 10
295.520477066114
 20
351.050334541276
 11
297.507960294056
 21
351.050334541276
  0
LINE
  5
33
100
AcDbEntity
  8
1
  6
CONTINUOUS
 62
           3
100
AcDbLine
 10
297.376450058199
 20
353.505992531278
 11
295.520477066114
 21
353.505992531278
  0
LINE
  5
32
100
AcDbEntity
  8
1
  6
CONTINUOUS
 62
           3
100
AcDbLine
 10
295.520477066114
 20
353.505992531278
 11
295.520477066114
 21
351.050334541276
  0
ENDBLK
  5
E6
100
AcDbEntity
  8
0
100
AcDbBlockEnd
  0
BLOCK
  5
2A
100
AcDbEntity
  8
0
100
AcDbBlockBegin
  2
WANNENF_SSE
 70
           0
 10
0.0
 20
0.0
 30
0.0
  3
WANNENF_SSE
  1

  0
LINE
  5
124
100
AcDbEntity
  8
1
  6
CONTINUOUS
 62
           2
100
AcDbLine
 10
437.269352823755
 20
111.738002227721
 11
437.140011931212
 21
116.736329041118
  0
LINE
  5
123
100
AcDbEntity
  8
1
  6
CONTINUOUS
 62
           2
100
AcDbLine
 10
432.141685117817
 20
116.606988148575
 11
431.883003332731
 21
126.603641775368
  0
LINE
  5
122
100
AcDbEntity
  8
1
  6
CONTINUOUS
 62
           2
100
AcDbLine
 10
416.758682
 20
131.213945911136
 11
416.888022892542
 21
126.21561909774
  0
LINE
  5
121
100
AcDbEntity
  8
1
  6
CONTINUOUS
 62
           2
100
AcDbLine
 10
416.758682
 20
131.213945911136
 11
436.751989253586
 21
131.731309481307
  0
LINE
  5
120
100
AcDbEntity
  8
1
  6
CONTINUOUS
 62
           2
100
AcDbLine
 10
436.751989253586
 20
131.731309481307
 11
437.01067103867
 21
121.734655854514
  0
LINE
  5
11F
100
AcDbEntity
  8
1
  6
CONTINUOUS
 62
           2
100
AcDbLine
 10
442.008997852066
 20
121.863996747057
 11
442.138338744609
 21
116.865669933661
  0
LINE
  5
11E
100
AcDbEntity
  8
1
  6
CONTINUOUS
 62
           2
100
AcDbLine
 10
477.255967330925
 20
112.772729368062
 11
477.126626438383
 21
117.771056181459
  0
LINE
  5
11D
100
AcDbEntity
  8
1
  6
CONTINUOUS
 62
           2
100
AcDbLine
 10
472.128299624985
 20
117.641715288916
 11
471.998958732445
 21
122.640042102312
  0
LINE
  5
11C
100
AcDbEntity
  8
1
  6
CONTINUOUS
 62
           2
100
AcDbLine
 10
482.124953251779
 20
117.900397074001
 11
481.866271466694
 21
127.897050700794
  0
LINE
  5
11B
100
AcDbEntity
  8
1
  6
CONTINUOUS
 62
           2
100
AcDbLine
 10
476.99728554584
 20
122.769382994855
 11
476.738603760755
 21
132.766036621647
  0
LINE
  5
11A
100
AcDbEntity
  8
1
  6
CONTINUOUS
 62
           2
100
AcDbLine
 10
476.738603760755
 20
132.766036621647
 11
496.73191101434
 21
133.283400191818
  0
LINE
  5
119
100
AcDbEntity
  8
1
  6
CONTINUOUS
 62
           2
100
AcDbLine
 10
496.73191101434
 20
133.283400191818
 11
496.861251906883
 21
128.285073378421
  0
LINE
  5
118
100
AcDbEntity
  8
1
  6
CONTINUOUS
 62
           2
100
AcDbLine
 10
451.731271999999
 20
112.11223096545
 11
451.731271999999
 21
85.0
  0
LINE
  5
117
100
AcDbEntity
  8
1
  6
CONTINUOUS
 62
           2
100
AcDbLine
 10
461.731271999999
 20
112.370999344092
 11
461.731271999999
 21
85.0
  0
LINE
  5
116
100
AcDbEntity
  8
1
  6
CONTINUOUS
 62
           2
100
AcDbLine
 10
446.731271999999
 20
85.0
 11
441.731271999999
 21
55.0
  0
LINE
  5
115
100
AcDbEntity
  8
1
  6
CONTINUOUS
 62
           2
100
AcDbLine
 10
466.731271999999
 20
85.0
 11
471.731271999999
 21
55.0
  0
LINE
  5
114
100
AcDbEntity
  8
1
  6
CONTINUOUS
 62
           2
100
AcDbLine
 10
471.731271999999
 20
55.0
 11
471.731271999999
 21
25.0
  0
LINE
  5
113
100
AcDbEntity
  8
1
  6
CONTINUOUS
 62
           2
100
AcDbLine
 10
441.731271999999
 20
55.0
 11
441.731271999999
 21
25.0
  0
LINE
  5
112
100
AcDbEntity
  8
1
  6
CONTINUOUS
 62
           2
100
AcDbLine
 10
436.731271999999
 20
25.0
 11
436.731271999999
 21
0.0
  0
LINE
  5
111
100
AcDbEntity
  8
1
  6
CONTINUOUS
 62
           2
100
AcDbLine
 10
476.731271999999
 20
25.0
 11
476.731271999999
 21
0.0
  0
LINE
  5
110
100
AcDbEntity
  8
1
  6
CONTINUOUS
 62
           2
100
AcDbLine
 10
437.01067103867
 20
121.734655854514
 11
442.008997852066
 21
121.863996747057
  0
LINE
  5
10F
100
AcDbEntity
  8
1
  6
CONTINUOUS
 62
           2
100
AcDbLine
 10
471.998958732445
 20
122.640042102312
 11
476.99728554584
 21
122.769382994855
  0
LINE
  5
10E
100
AcDbEntity
  8
1
  6
CONTINUOUS
 62
           2
100
AcDbLine
 10
416.888022892542
 20
126.21561909774
 11
431.883003332731
 21
126.603641775368
  0
LINE
  5
10D
100
AcDbEntity
  8
1
  6
CONTINUOUS
 62
           2
100
AcDbLine
 10
481.866271466694
 20
127.897050700794
 11
496.861251906883
 21
128.285073378421
  0
LINE
  5
10C
100
AcDbEntity
  8
1
  6
CONTINUOUS
 62
           2
100
AcDbLine
 10
432.141685117817
 20
116.606988148575
 11
437.140011931212
 21
116.736329041118
  0
LINE
  5
10B
100
AcDbEntity
  8
1
  6
CONTINUOUS
 62
           2
100
AcDbLine
 10
442.138338744609
 20
116.865669933661
 11
472.128299624985
 21
117.641715288916
  0
LINE
  5
10A
100
AcDbEntity
  8
1
  6
CONTINUOUS
 62
           2
100
AcDbLine
 10
477.126626438383
 20
117.771056181459
 11
482.124953251779
 21
117.900397074001
  0
LINE
  5
109
100
AcDbEntity
  8
1
  6
CONTINUOUS
 62
           2
100
AcDbLine
 10
437.269352823755
 20
111.738002227721
 11
477.255967330925
 21
112.772729368062
  0
LINE
  5
108
100
AcDbEntity
  8
1
  6
CONTINUOUS
 62
           2
100
AcDbLine
 10
446.731271999999
 20
85.0
 11
466.731271999999
 21
85.0
  0
LINE
  5
107
100
AcDbEntity
  8
1
  6
CONTINUOUS
 62
           2
100
AcDbLine
 10
441.731271999999
 20
55.0
 11
471.731271999999
 21
55.0
  0
LINE
  5
106
100
AcDbEntity
  8
1
  6
CONTINUOUS
 62
           2
100
AcDbLine
 10
436.731271999999
 20
25.0
 11
476.731271999999
 21
25.0
  0
LINE
  5
105
100
AcDbEntity
  8
1
  6
CONTINUOUS
 62
           2
100
AcDbLine
 10
1137.269352823755
 20
128.14718590012
 11
1137.140011931212
 21
133.145512713517
  0
LINE
  5
104
100
AcDbEntity
  8
1
  6
CONTINUOUS
 62
           2
100
AcDbLine
 10
1132.141685117817
 20
133.016171820974
 11
1131.883003332731
 21
143.012825447766
  0
LINE
  5
103
100
AcDbEntity
  8
1
  6
CONTINUOUS
 62
           2
100
AcDbLine
 10
1116.758682
 20
147.623129583535
 11
1116.888022892542
 21
142.624802770139
  0
LINE
  5
102
100
AcDbEntity
  8
1
  6
CONTINUOUS
 62
           2
100
AcDbLine
 10
1116.758682
 20
147.623129583535
 11
1136.751989253586
 21
148.140493153705
  0
LINE
  5
101
100
AcDbEntity
  8
1
  6
CONTINUOUS
 62
           2
100
AcDbLine
 10
1136.751989253586
 20
148.140493153705
 11
1137.01067103867
 21
138.143839526913
  0
LINE
  5
100
100
AcDbEntity
  8
1
  6
CONTINUOUS
 62
           2
100
AcDbLine
 10
1142.008997852066
 20
138.273180419455
 11
1142.138338744609
 21
133.274853606059
  0
LINE
  5
FF
100
AcDbEntity
  8
1
  6
CONTINUOUS
 62
           2
100
AcDbLine
 10
1177.255967330925
 20
129.181913040461
 11
1177.126626438383
 21
134.180239853857
  0
LINE
  5
FE
100
AcDbEntity
  8
1
  6
CONTINUOUS
 62
           2
100
AcDbLine
 10
1172.128299624986
 20
134.050898961315
 11
1171.998958732444
 21
139.049225774711
  0
LINE
  5
FD
100
AcDbEntity
  8
1
  6
CONTINUOUS
 62
           2
100
AcDbLine
 10
1182.124953251779
 20
134.3095807464
 11
1181.866271466694
 21
144.306234373192
  0
LINE
  5
FC
100
AcDbEntity
  8
1
  6
CONTINUOUS
 62
           2
100
AcDbLine
 10
1176.99728554584
 20
139.178566667253
 11
1176.738603760755
 21
149.175220294046
  0
LINE
  5
FB
100
AcDbEntity
  8
1
  6
CONTINUOUS
 62
           2
100
AcDbLine
 10
1176.738603760755
 20
149.175220294046
 11
1196.73191101434
 21
149.692583864216
  0
LINE
  5
FA
100
AcDbEntity
  8
1
  6
CONTINUOUS
 62
           2
100
AcDbLine
 10
1196.73191101434
 20
149.692583864216
 11
1196.861251906883
 21
144.69425705082
  0
LINE
  5
F9
100
AcDbEntity
  8
1
  6
CONTINUOUS
 62
           2
100
AcDbLine
 10
1151.731271999999
 20
128.521414637849
 11
1151.731271999999
 21
85.0
  0
LINE
  5
F8
100
AcDbEntity
  8
1
  6
CONTINUOUS
 62
           2
100
AcDbLine
 10
1161.731271999999
 20
128.780183016491
 11
1161.731271999999
 21
85.0
  0
LINE
  5
F7
100
AcDbEntity
  8
1
  6
CONTINUOUS
 62
           2
100
AcDbLine
 10
1146.731271999999
 20
85.0
 11
1141.731271999999
 21
55.0
  0
LINE
  5
F6
100
AcDbEntity
  8
1
  6
CONTINUOUS
 62
           2
100
AcDbLine
 10
1166.731271999999
 20
85.0
 11
1171.731271999999
 21
55.0
  0
LINE
  5
F5
100
AcDbEntity
  8
1
  6
CONTINUOUS
 62
           2
100
AcDbLine
 10
1171.731271999999
 20
55.0
 11
1171.731271999999
 21
25.0
  0
LINE
  5
F4
100
AcDbEntity
  8
1
  6
CONTINUOUS
 62
           2
100
AcDbLine
 10
1141.731271999999
 20
55.0
 11
1141.731271999999
 21
25.0
  0
LINE
  5
F3
100
AcDbEntity
  8
1
  6
CONTINUOUS
 62
           2
100
AcDbLine
 10
1136.731271999999
 20
25.0
 11
1136.731271999999
 21
0.0
  0
LINE
  5
F2
100
AcDbEntity
  8
1
  6
CONTINUOUS
 62
           2
100
AcDbLine
 10
1176.731271999999
 20
25.0
 11
1176.731271999999
 21
0.0
  0
LINE
  5
F1
100
AcDbEntity
  8
1
  6
CONTINUOUS
 62
           2
100
AcDbLine
 10
1137.01067103867
 20
138.143839526913
 11
1142.008997852066
 21
138.273180419455
  0
LINE
  5
F0
100
AcDbEntity
  8
1
  6
CONTINUOUS
 62
           2
100
AcDbLine
 10
1171.998958732444
 20
139.049225774711
 11
1176.99728554584
 21
139.178566667253
  0
LINE
  5
EF
100
AcDbEntity
  8
1
  6
CONTINUOUS
 62
           2
100
AcDbLine
 10
1116.888022892542
 20
142.624802770139
 11
1131.883003332731
 21
143.012825447766
  0
LINE
  5
EE
100
AcDbEntity
  8
1
  6
CONTINUOUS
 62
           2
100
AcDbLine
 10
1181.866271466694
 20
144.306234373192
 11
1196.861251906883
 21
144.69425705082
  0
LINE
  5
ED
100
AcDbEntity
  8
1
  6
CONTINUOUS
 62
           2
100
AcDbLine
 10
1132.141685117817
 20
133.016171820974
 11
1137.140011931212
 21
133.145512713517
  0
LINE
  5
EC
100
AcDbEntity
  8
1
  6
CONTINUOUS
 62
           2
100
AcDbLine
 10
1142.138338744609
 20
133.274853606059
 11
1172.128299624986
 21
134.050898961315
  0
LINE
  5
EB
100
AcDbEntity
  8
1
  6
CONTINUOUS
 62
           2
100
AcDbLine
 10
1177.126626438383
 20
134.180239853857
 11
1182.124953251779
 21
134.3095807464
  0
LINE
  5
EA
100
AcDbEntity
  8
1
  6
CONTINUOUS
 62
           2
100
AcDbLine
 10
1137.269352823755
 20
128.14718590012
 11
1177.255967330925
 21
129.181913040461
  0
LINE
  5
E9
100
AcDbEntity
  8
1
  6
CONTINUOUS
 62
           2
100
AcDbLine
 10
1146.731271999999
 20
85.0
 11
1166.731271999999
 21
85.0
  0
LINE
  5
E8
100
AcDbEntity
  8
1
  6
CONTINUOUS
 62
           2
100
AcDbLine
 10
1141.731271999999
 20
55.0
 11
1171.731271999999
 21
55.0
  0
LINE
  5
E7
100
AcDbEntity
  8
1
  6
CONTINUOUS
 62
           2
100
AcDbLine
 10
1136.731271999999
 20
25.0
 11
1176.731271999999
 21
25.0
  0
ENDBLK
  5
125
100
AcDbEntity
  8
0
100
AcDbBlockEnd
  0
BLOCK
  5
2C
100
AcDbEntity
  8
0
100
AcDbBlockBegin
  2
WANNE_PICCOLO_CITY_174
 70
           0
 10
0.0
 20
0.0
 30
0.0
  3
WANNE_PICCOLO_CITY_174
  1

  0
ARC
  5
13A
100
AcDbEntity
  8
1
  6
CONTINUOUS
 62
           7
100
AcDbCircle
 10
1328.567780125061
 20
281.291552212224
 40
100.0
100
AcDbArc
 50
-88.299999990021
 51
-35.000000069668
  0
ARC
  5
139
100
AcDbEntity
  8
1
  6
CONTINUOUS
 62
           7
100
AcDbCircle
 10
178.258298433285
 20
250.0
 40
100.0
100
AcDbArc
 50
-172.999999959258
 51
-90.0
  0
CIRCLE
  5
138
100
AcDbEntity
  8
WANNE
  6
CONTINUOUS
 62
           7
100
AcDbCircle
 10
235.000000000006
 20
530.0
 40
26.0
  0
LINE
  5
137
100
AcDbEntity
  8
1
  6
CONTINUOUS
 62
           7
100
AcDbLine
 10
38.830178966822
 20
565.0
 11
79.003683277819
 21
237.813065588907
  0
LINE
  5
136
100
AcDbEntity
  8
1
  6
CONTINUOUS
 62
           7
100
AcDbLine
 10
291.516243016332
 20
150.468547580661
 11
326.606921463255
 21
129.295008010875
  0
LINE
  5
135
100
AcDbEntity
  8
1
  6
CONTINUOUS
 62
           7
100
AcDbLine
 10
1294.333635502492
 20
180.231473144188
 11
1266.131926999999
 21
151.825659214129
  0
LINE
  5
134
100
AcDbEntity
  8
1
  6
CONTINUOUS
 62
           7
100
AcDbLine
 10
1265.615364410603
 20
151.305358084277
 11
326.606921463255
 21
129.295008010875
  0
LINE
  5
133
100
AcDbEntity
  8
1
  6
CONTINUOUS
 62
           7
100
AcDbLine
 10
275.72923101405
 20
150.0
 11
1331.534404550981
 21
181.335566200803
  0
LINE
  5
132
100
AcDbEntity
  8
1
  6
CONTINUOUS
 62
           7
100
AcDbLine
 10
1410.482984484217
 20
223.933908477517
 11
1649.300033414024
 21
565.0
  0
LINE
  5
131
100
AcDbEntity
  8
1
  6
CONTINUOUS
 62
           7
100
AcDbLine
 10
261.0
 20
130.0
 11
280.123909461548
 21
150.130431012155
  0
LINE
  5
130
100
AcDbEntity
  8
1
  6
DOT_CENTER
 62
           3
100
AcDbLine
 10
235.0
 20
105.0
 11
235.0
 21
175.0
  0
LINE
  5
12F
100
AcDbEntity
  8
1
  6
CONTINUOUS
 62
           7
100
AcDbLine
 10
190.0
 20
150.0
 11
209.0
 21
130.0
  0
LINE
  5
12E
100
AcDbEntity
  8
1
  6
CONTINUOUS
 62
           7
100
AcDbLine
 10
209.0
 20
130.0
 11
261.0
 21
130.0
  0
LINE
  5
12D
100
AcDbEntity
  8
1
  6
CONTINUOUS
 62
           7
100
AcDbLine
 10
178.258298433285
 20
150.0
 11
275.72923101405
 21
150.0
  0
LINE
  5
12C
100
AcDbEntity
  8
1
  6
CONTINUOUS
 62
           7
100
AcDbLine
 10
1249.999999999998
 20
565.0
 11
1249.999999999998
 21
600.0
  0
LINE
  5
12B
100
AcDbEntity
  8
1
  6
CONTINUOUS
 62
           7
100
AcDbLine
 10
1749.999999999998
 20
565.0
 11
1750.0
 21
600.0
  0
LINE
  5
12A
100
AcDbEntity
  8
1
  6
CONTINUOUS
 62
           7
100
AcDbLine
 10
0.0
 20
565.0
 11
0.0
 21
600.0
  0
LINE
  5
129
100
AcDbEntity
  8
1
  6
CONTINUOUS
 62
           7
100
AcDbLine
 10
1749.999999999998
 20
565.0
 11
0.0
 21
565.0
  0
LINE
  5
128
100
AcDbEntity
  8
1
  6
CONTINUOUS
 62
           7
100
AcDbLine
 10
0.0
 20
600.0
 11
1750.0
 21
600.0
  0
LINE
  5
127
100
AcDbEntity
  8
MITTELLINIEN
  6
DOT_CENTER
 62
           3
100
AcDbLine
 10
235.0
 20
464.321980999999
 11
235.0
 21
593.989954999999
  0
LINE
  5
126
100
AcDbEntity
  8
MITTELLINIEN
  6
DOT_CENTER
 62
           3
100
AcDbLine
 10
300.678019000014
 20
530.0
 11
171.010045000002
 21
530.0
  0
INSERT
  5
2D
100
AcDbEntity
  8
0
100
AcDbBlockReference
  2
WANNENF_SSE
 10
0.0
 20
0.0
  0
ENDBLK
  5
13B
100
AcDbEntity
  8
0
100
AcDbBlockEnd
  0
ENDSEC
  0
SECTION
  2
ENTITIES
  0
MTEXT
  5
140
100
AcDbEntity
  8
1
 62
           3
100
AcDbMText
 10
285.0
 20
480.0
 30
0.0
 40
35.0
 41
0.0
 71
           1
 72
           1
  1
ø 52
  7
CONVERTER_1
  0
MTEXT
  5
13F
100
AcDbEntity
  8
1
 62
           3
100
AcDbMText
 10
235.0
 20
80.0
 30
0.0
 40
35.0
 41
0.0
 71
           2
 72
           1
  1
ø 52
  7
CONVERTER_1
  0
TEXT
  5
13E
100
AcDbEntity
  8
1
 62
           2
100
AcDbText
 10
125.000000000001
 20
225.0
 40
35.0
  1
PICCOLO City 174
 41
0.71262
  7
CONVERTER_1
100
AcDbText
  0
INSERT
  5
30
100
AcDbEntity
  8
0
100
AcDbBlockReference
  2
DLX
 10
0.0
 20
0.0
  0
INSERT
  5
31
100
AcDbEntity
  8
0
100
AcDbBlockReference
  2
WANNE_PICCOLO_CITY_174
 10
0.0
 20
0.0
  0
ENDSEC
  0
SECTION
  2
OBJECTS
  0
DICTIONARY
  5
19
100
AcDbDictionary
  3
ACAD_GROUP
350
1A
  3
ACAD_MLINESTYLE
350
1B
  0
DICTIONARY
  5
1A
102
{ACAD_REACTORS
330
19
102
}
100
AcDbDictionary
  0
DICTIONARY
  5
1B
102
{ACAD_REACTORS
330
19
102
}
100
AcDbDictionary
  3
STANDARD
350
1C
  0
MLINESTYLE
  5
1C
102
{ACAD_REACTORS
330
1B
102
}
100
AcDbMlineStyle
  2
STANDARD
 70
           0
  3

 62
           0
 51
90.0
 52
90.0
 71
           2
 49
0.5
 62
         256
  6
BYLAYER
 49
-0.5
 62
         256
  6
BYLAYER
  0
ENDSEC
  0
EOF
