  0
SECTION
  2
HEADER
  9
$ACADVER
  1
AC1009
  9
$INSBASE
 10
0
 20
0
  9
$EXTMIN
 10
0
 20
-0.0001799947290237469
  9
$EXTMAX
 10
1750
 20
800
  9
$LIMMIN
 10
0
 20
-0.0001799947290237469
  9
$LIMMAX
 10
1750
 20
800
  9
$VIEWCTR
 10
10
 20
10
  9
$VIEWSIZE
 40
10
  9
$SNAPMODE
 70
0
  9
$SNAPUNIT
 10
1
 20
1
  9
$SNAPBASE
 10
0
 20
0
  9
$SNAPANG
 50
0
  9
$SNAPSTYLE
 70
0
  9
$SNAPISOPAIR
 70
0
  9
$GRIDMODE
 70
0
  9
$GRIDUNIT
 10
0
 20
0
  9
$ORTHOMODE
 70
0
  9
$REGENMODE
 70
1
  9
$FILLMODE
 70
1
  9
$QTEXTMODE
 70
0
  9
$DRAGMODE
 70
2
  9
$LTSCALE
 40
1
  9
$OSMODE
 70
0
  9
$ATTMODE
 70
1
  9
$TEXTSIZE
 40
3.5
  9
$TRACEWID
 40
0.5
  9
$TEXTSTYLE
  7
STANDARD
  9
$CLAYER
  8
0
  9
$CELTYPE
  6
BYLAYER
  9
$CECOLOR
 62
256
  9
$DIMSCALE
 40
1
  9
$DIMASZ
 40
0.18
  9
$DIMEXO
 40
0.0625
  9
$DIMDLI
 40
0.38
  9
$DIMRND
 40
0
  9
$DIMDLE
 40
0
  9
$DIMEXE
 40
0.18
  9
$DIMTP
 40
0
  9
$DIMTM
 40
0
  9
$DIMTXT
 40
0.18
  9
$DIMCEN
 40
0.09
  9
$DIMTSZ
 40
0
  9
$DIMTOL
 70
0
  9
$DIMLIM
 70
0
  9
$DIMTIH
 70
1
  9
$DIMTOH
 70
1
  9
$DIMSE1
 70
0
  9
$DIMSE2
 70
0
  9
$DIMTAD
 70
0
  9
$DIMZIN
 70
0
  9
$DIMBLK
  1

  9
$DIMASO
 70
1
  9
$DIMSHO
 70
1
  9
$DIMPOST
  1

  9
$DIMAPOST
  1

  9
$DIMALT
 70
0
  9
$DIMALTD
 70
2
  9
$DIMALTF
 40
25.4
  9
$DIMLFAC
 40
1
  9
$DIMTOFL
 70
0
  9
$DIMTVP
 40
0
  9
$DIMTIX
 70
0
  9
$DIMSOXD
 70
0
  9
$DIMSAH
 70
0
  9
$DIMBLK1
  1

  9
$DIMBLK2
  1

  9
$DIMSTYLE
  2
*UNNAMED
  9
$DIMCLRD
 70
0
  9
$DIMCLRE
 70
0
  9
$DIMCLRT
 70
0
  9
$DIMTFAC
 40
1
  9
$DIMGAP
 40
0.09
  9
$LUNITS
 70
2
  9
$LUPREC
 70
4
  9
$AXISMODE
 70
0
  9
$AXISUNIT
 10
0
 20
0
  9
$SKETCHINC
 40
0.1
  9
$FILLETRAD
 40
2
  9
$AUNITS
 70
0
  9
$AUPREC
 70
0
  9
$MENU
  1
ACAD
  9
$ELEVATION
 40
0
  9
$THICKNESS
 40
0
  9
$VIEWDIR
 10
0
 20
0
 30
1
  9
$LIMCHECK
 70
0
  9
$BLIPMODE
 70
1
  9
$CHAMFERA
 40
0
  9
$CHAMFERB
 40
0
  9
$FASTZOOM
 70
1
  9
$SKPOLY
 70
0
  9
$ANGBASE
 50
0
  9
$ANGDIR
 70
0
  9
$PDMODE
 70
0
  9
$PDSIZE
 40
0
  9
$PLINEWID
 40
0
  9
$COORDS
 70
2
  0
ENDSEC
  0
SECTION
  2
TABLES
  0
TABLE
  2
DIMSTYLE
 70
0
  0
ENDTAB
  0
TABLE
  2
LTYPE
 70
9
  0
LTYPE
  2
CONTINUOUS
 70
64
  3
Solid line
 72
65
 73
0
 40
0
  0
LTYPE
  2
BORDER
 70
64
  3
__ __ . __ __ .
 72
65
 73
6
 40
80.59210526315789
 49
23.02631578947369
 49
-11.51315789473684
 49
23.02631578947369
 49
-11.51315789473684
 49
0
 49
-11.51315789473684
  0
LTYPE
  2
CENTER
 70
64
  3
____ _ ____ _
 72
65
 73
4
 40
92.10526315789474
 49
57.56578947368421
 49
-11.51315789473684
 49
11.51315789473684
 49
-11.51315789473684
  0
LTYPE
  2
DASHDOT
 70
64
  3
__ . __ . __ .
 72
65
 73
4
 40
46.05263157894737
 49
23.02631578947369
 49
-11.51315789473684
 49
0
 49
-11.51315789473684
  0
LTYPE
  2
DASHED
 70
64
  3
__ __ __ __ __
 72
65
 73
2
 40
34.53947368421053
 49
23.02631578947369
 49
-11.51315789473684
  0
LTYPE
  2
DIVIDE
 70
64
  3
__ . . __ . . 
 72
65
 73
6
 40
57.56578947368421
 49
23.02631578947369
 49
-11.51315789473684
 49
0
 49
-11.51315789473684
 49
0
 49
-11.51315789473684
  0
LTYPE
  2
DOT
 70
64
  3
..............
 72
65
 73
4
 40
23.02631578947369
 49
0
 49
-11.51315789473684
 49
0
 49
-11.51315789473684
  0
LTYPE
  2
HIDDEN
 70
64
  3
_ _ _ _ _ _ _
 72
65
 73
2
 40
17.26973684210526
 49
11.51315789473684
 49
-5.756578947368421
  0
LTYPE
  2
PHANTOM
 70
64
  3
_____ _ _ _____ _ _ 
 72
65
 73
6
 40
115.1315789473684
 49
57.56578947368421
 49
-11.51315789473684
 49
11.51315789473684
 49
-11.51315789473684
 49
11.51315789473684
 49
-11.51315789473684
  0
ENDTAB
  0
TABLE
  2
LAYER
 70
5
  0
LAYER
  2
MITTELLINIEN
 70
0
 62
7
  6
CONTINUOUS
  0
LAYER
  2
1
 70
0
 62
7
  6
CONTINUOUS
  0
LAYER
  2
WANNE
 70
0
 62
7
  6
CONTINUOUS
  0
LAYER
  2
0
 70
0
 62
7
  6
CONTINUOUS
  0
ENDTAB
  0
TABLE
  2
STYLE
 70
4
  0
STYLE
  2
STANDARD
 70
0
 40
0
 41
1
 50
0
 71
0
 42
3.5
  3
txt
  4

  0
STYLE
  2
SIMPLEX
 70
0
 40
0
 41
1
 50
0
 71
0
 42
3.5
  3
simplex
  4

  0
STYLE
  2
COMPLEX
 70
0
 40
0
 41
1
 50
0
 71
0
 42
3.5
  3
complex
  4

  0
STYLE
  2
ITALIC
 70
0
 40
0
 41
1
 50
0
 71
0
 42
3.5
  3
italic
  4

  0
ENDTAB
  0
TABLE
  2
VIEW
 70
0
  0
ENDTAB
  0
ENDSEC
  0
SECTION
  2
BLOCKS
  0
BLOCK
  8
0
  2
WANNE_PICCOLO_SKY_180
 70
0
 10
875
 20
399.9999100026359
 30
0
  0
LINE
  8
1
 62
7
 10
0
 20
800
 30
0
 11
1750
 21
800
 31
0
  0
LINE
  8
1
 62
7
 10
1750
 20
800
 30
0
 11
1750
 21
300
 31
0
  0
LINE
  8
1
 62
7
 10
0
 20
800
 30
0
 11
0
 21
0
 31
0
  0
LINE
  8
1
 62
7
 10
0
 20
0
 30
0
 11
500
 21
0
 31
0
  0
LINE
  8
MITTELLINIEN
 62
3
  6
DASHDOT
 10
1000
 20
503.9899549999991
 30
0
 11
1000
 21
374.3219809999989
 31
0
  0
LINE
  8
MITTELLINIEN
 62
3
  6
DASHDOT
 10
1063.989954999998
 20
440
 30
0
 11
934.3219809999871
 21
440
 31
0
  0
ARC
  8
1
 62
7
 10
501.000025523801
 20
2749.999910450893
 30
0
 40
2750.000090445623
 50
269.9791643022944
 51
297.0123017632012
  0
ARC
  8
1
 62
7
 10
1489.999998912155
 20
494.337178921696
 30
0
 40
122.5000013053947
 50
296.0704328108363
 51
76.29106362521191
  0
ARC
  8
1
 62
7
 10
479.205860233737
 20
2560.322491987903
 30
0
 40
2422.500024042769
 50
272.1813572127014
 51
296.0704339789368
  0
ARC
  8
1
 62
7
 10
944.923797833485
 20
-1740.140488337001
 30
0
 40
2422.499680904233
 50
76.29106283657653
 51
100.1801432644704
  0
ARC
  8
1
 62
7
 10
590.1825810101391
 20
396.8916132271879
 30
0
 40
257.9973732921266
 50
106.5335816994192
 51
265.8279138284044
  0
ARC
  8
1
 62
7
 10
1489.999999999982
 20
494.33718
 30
0
 40
180.0000000000036
 50
296.0704340000048
 51
76.29106399999498
  0
ARC
  8
1
 62
7
 10
1489.999990911692
 20
494.3371808405341
 30
0
 40
200.0000047491049
 50
0
 51
76.29105940344248
  0
ARC
  8
1
 62
7
 10
944.923773854804
 20
-1740.140309089828
 30
0
 40
2499.999512446125
 50
90
 51
105.219780672415
  0
ARC
  8
1
 62
7
 10
944.9237615256279
 20
-1740.139892051564
 30
0
 40
2479.999106798412
 50
76.29105894593663
 51
105.2197829484899
  0
ARC
  8
1
 62
7
 10
370.0000038624485
 20
373.0469798131881
 30
0
 40
310.0000011942389
 50
180
 51
267.1417191923696
  0
ARC
  8
1
 62
7
 10
370.0000004033145
 20
373.046982704308
 30
0
 40
290.0000027210573
 50
105.2197818946726
 51
267.1417209470586
  0
ARC
  8
1
 62
7
 10
479.205877207223
 20
2560.322454905469
 30
0
 40
2479.99998327387
 50
267.1417206301512
 51
296.0704340036909
  0
ARC
  8
1
 62
7
 10
479.205870000008
 20
2560.322469999949
 30
0
 40
2499.99999999995
 50
270
 51
296.0704340000003
  0
ARC
  8
1
 62
7
 10
479.205870000008
 20
2560.322469999949
 30
0
 40
2499.99999999995
 50
267.1417209999997
 51
270
  0
ARC
  8
1
 62
7
 10
944.923773854804
 20
-1740.140309089828
 30
0
 40
2499.999512446125
 50
76.29106136518324
 51
90
  0
ARC
  8
1
 62
7
 10
1489.999990911692
 20
494.3371808405341
 30
0
 40
200.0000047491049
 50
296.0704362328792
 51
0
  0
ARC
  8
1
 62
7
 10
370.0000038624485
 20
373.0469798131881
 30
0
 40
310.0000011942386
 50
105.2197786797746
 51
180
  0
CIRCLE
  8
WANNE
 62
7
 10
999.9999999999941
 20
440
 30
0
 40
45
  0
CIRCLE
  8
WANNE
 62
7
 10
999.9999999999941
 20
440
 30
0
 40
26
  0
POLYLINE
  8
1
 62
7
 66
1
 70
1
  0
VERTEX
  8
1
 10
1024.723661113245
 20
159.8483280050407
 30
0
 42
0.02562456259176237
  0
VERTEX
  8
1
 10
1024.279643775603
 20
160.6267994787206
 30
0
 42
0.06552457434329904
  0
VERTEX
  8
1
 10
1023.610621134174
 20
161.3976444340424
 30
0
 42
0.006121967984190404
  0
VERTEX
  8
1
 10
1022.737368374872
 20
162.1131124423314
 30
0
 42
0.05633725240784186
  0
VERTEX
  8
1
 10
1020.670056273203
 20
163.2330303542146
 30
0
 42
0.04571526804149031
  0
VERTEX
  8
1
 10
1019.298825370893
 20
163.738916556053
 30
0
 42
0.002396160508965881
  0
VERTEX
  8
1
 10
1017.780273705604
 20
164.1602178442511
 30
0
 42
0.0298239332890879
  0
VERTEX
  8
1
 10
1014.567354926712
 20
164.7256215039753
 30
0
 42
0.02589224383355654
  0
VERTEX
  8
1
 10
1012.687792782593
 20
164.9039185097617
 30
0
 42
0.000869871225503708
  0
VERTEX
  8
1
 10
1010.721772756709
 20
164.9940938034086
 30
0
 42
0.02026110617918614
  0
VERTEX
  8
1
 10
1006.707615584799
 20
164.9245444070417
 30
0
 42
0.01881601084427905
  0
VERTEX
  8
1
 10
1004.555119612485
 20
164.7640267949026
 30
0
 42
0.0002260589483094259
  0
VERTEX
  8
1
 10
1002.381700840364
 20
164.521443261094
 30
0
 42
0.01730721381248015
  0
VERTEX
  8
1
 10
998.038838809496
 20
163.805806025515
 30
0
 42
0.0170854557768419
  0
VERTEX
  8
1
 10
993.754797995196
 20
162.7960627049044
 30
0
 42
0.0171977765126954
  0
VERTEX
  8
1
 10
991.6552639215601
 20
162.1840556759231
 30
0
 42
0.0004961276394725694
  0
VERTEX
  8
1
 10
989.6066070174247
 20
161.5043427190266
 30
0
 42
0.01947009172209637
  0
VERTEX
  8
1
 10
985.8744813943612
 20
160.0246355679316
 30
0
 42
0.02057053689313668
  0
VERTEX
  8
1
 10
984.0943764810058
 20
159.1852352920144
 30
0
 42
0.001447198519786894
  0
VERTEX
  8
1
 10
982.4279718091956
 20
158.2977449283214
 30
0
 42
0.02781383443762594
  0
VERTEX
  8
1
 10
979.6796635696953
 20
156.5400958737926
 30
0
 42
0.03087276587396856
  0
VERTEX
  8
1
 10
978.4399625251812
 20
155.5671440477411
 30
0
 42
0.003977098318376549
  0
VERTEX
  8
1
 10
977.3687825362939
 20
154.5727756713001
 30
0
 42
0.05152102649120495
  0
VERTEX
  8
1
 10
975.8912320956262
 20
152.7438852562268
 30
0
 42
0.06034256381288222
  0
VERTEX
  8
1
 10
975.3603326258358
 20
151.7475868042093
 30
0
 42
0.00668286748515153
  0
VERTEX
  8
1
 10
975.0392520907122
 20
150.778721215051
 30
0
 42
0.1009733083481456
  0
VERTEX
  8
1
 10
974.9999979517426
 20
148.9999996275693
 30
0
 42
0.1014223788198869
  0
VERTEX
  8
1
 10
975.7203562243967
 20
147.3732005212795
 30
0
 42
0.09806101325089997
  0
VERTEX
  8
1
 10
976.3893788658256
 20
146.6023555659583
 30
0
 42
0.006121967984232735
  0
VERTEX
  8
1
 10
977.2626316251282
 20
145.8868875576699
 30
0
 42
0.05633725240781554
  0
VERTEX
  8
1
 10
979.3299437267974
 20
144.7669696457852
 30
0
 42
0.04571526804203054
  0
VERTEX
  8
1
 10
980.7011746291078
 20
144.2610834439471
 30
0
 42
0.00239616050897827
  0
VERTEX
  8
1
 10
982.2197262943965
 20
143.8397821557499
 30
0
 42
0.02982393328896097
  0
VERTEX
  8
1
 10
985.4326450732884
 20
143.2743784960253
 30
0
 42
0.02589224383264786
  0
VERTEX
  8
1
 10
987.3122072174073
 20
143.0960814902388
 30
0
 42
0.000869871225502493
  0
VERTEX
  8
1
 10
989.2782272432911
 20
143.005906196592
 30
0
 42
0.0202611061791908
  0
VERTEX
  8
1
 10
993.2923844152012
 20
143.0754555929592
 30
0
 42
0.01881601084379766
  0
VERTEX
  8
1
 10
995.4448803875154
 20
143.2359732050983
 30
0
 42
0.0002260589482979965
  0
VERTEX
  8
1
 10
997.6182991596359
 20
143.4785567389069
 30
0
 42
0.01730721381247669
  0
VERTEX
  8
1
 10
1001.961161190504
 20
144.1941939744859
 30
0
 42
0.01708545577679949
  0
VERTEX
  8
1
 10
1006.245202004804
 20
145.2039372950967
 30
0
 42
0.01719777651365153
  0
VERTEX
  8
1
 10
1008.34473607844
 20
145.8159443240777
 30
0
 42
0.0004961276394650953
  0
VERTEX
  8
1
 10
1010.393392982575
 20
146.4956572809738
 30
0
 42
0.01947009172212941
  0
VERTEX
  8
1
 10
1014.125518605639
 20
147.9753644320689
 30
0
 42
0.02057053689291625
  0
VERTEX
  8
1
 10
1015.905623518994
 20
148.8147647079863
 30
0
 42
0.00144719851981767
  0
VERTEX
  8
1
 10
1017.572028190804
 20
149.7022550716793
 30
0
 42
0.02781383443761755
  0
VERTEX
  8
1
 10
1020.320336430305
 20
151.4599041262075
 30
0
 42
0.03087276587411329
  0
VERTEX
  8
1
 10
1021.560037474819
 20
152.4328559522589
 30
0
 42
0.003977098318305483
  0
VERTEX
  8
1
 10
1022.631217463706
 20
153.4272243287003
 30
0
 42
0.05152102649092249
  0
VERTEX
  8
1
 10
1024.108767904374
 20
155.2561147437751
 30
0
 42
0.06034256380998885
  0
VERTEX
  8
1
 10
1024.639667374164
 20
156.2524131957915
 30
0
 42
0.00668286748495816
  0
VERTEX
  8
1
 10
1024.960747909288
 20
157.2212787849489
 30
0
 42
0.1009733083481947
  0
VERTEX
  8
1
 10
1025.000002048258
 20
159.0000003724321
 30
0
  0
VERTEX
  8
1
 10
1024.723661113245
 20
159.8483280050407
 30
0
  0
SEQEND
  8
1
  0
ENDBLK
  8
0
  0
BLOCK
  8
0
  2
DLX
 70
0
 10
1375
 20
500
 30
0
  0
LINE
  8
1
 62
3
 10
1546.206636135699
 20
553.505992531278
 30
0
 11
1546.206636135699
 21
551.050334541276
 31
0
  0
LINE
  8
1
 62
3
 10
1548.062609127785
 20
553.505992531278
 30
0
 11
1546.206636135699
 21
553.505992531278
 31
0
  0
LINE
  8
1
 62
3
 10
1546.206636135699
 20
551.050334541276
 30
0
 11
1548.194119363641
 21
551.050334541276
 31
0
  0
LINE
  8
1
 62
3
 10
1546.206636135699
 20
547.4510557882823
 30
0
 11
1545.334188436584
 21
547.4510557882823
 31
0
  0
LINE
  8
1
 62
3
 10
1547.931697837317
 20
550.2001112138419
 30
0
 11
1546.206636135699
 21
550.2001112138419
 31
0
  0
LINE
  8
1
 62
3
 10
1548.944912577237
 20
547.4510557882823
 30
0
 11
1548.944912577237
 21
549.0729110559
 31
0
  0
LINE
  8
1
 62
3
 10
1549.906099392742
 20
547.4510557882823
 30
0
 11
1548.944912577237
 21
547.4510557882823
 31
0
  0
LINE
  8
1
 62
3
 10
1549.906099392742
 20
549.3306895546259
 30
0
 11
1549.906099392742
 21
547.4510557882823
 31
0
  0
LINE
  8
1
 62
3
 10
1547.776108295824
 20
554.3095239634563
 30
0
 11
1548.072464878176
 21
554.3095239634563
 31
0
  0
LINE
  8
1
 62
3
 10
1545.334188436584
 20
554.3095239634563
 30
0
 11
1547.776108295824
 21
554.3095239634563
 31
0
  0
LINE
  8
1
 62
3
 10
1545.334188436584
 20
547.4510557882823
 30
0
 11
1545.334188436584
 21
554.3095239634563
 31
0
  0
LINE
  8
1
 62
3
 10
1546.206636135699
 20
550.2001112138419
 30
0
 11
1546.206636135699
 21
547.4510557882823
 31
0
  0
LINE
  8
1
 62
3
 10
1501.68540084903
 20
556.3845084783202
 30
0
 11
1499.591323771416
 21
556.3845084783202
 31
0
  0
LINE
  8
1
 62
3
 10
1498.975465701067
 20
545.3239024177931
 30
0
 11
1501.68540084903
 21
556.3845084783202
 31
0
  0
LINE
  8
1
 62
3
 10
1509.445851089087
 20
545.3239024177931
 30
0
 11
1498.975465701067
 21
545.3239024177931
 31
0
  0
LINE
  8
1
 62
3
 10
1508.903864059426
 20
543.1117812056621
 30
0
 11
1509.445851089087
 21
545.3239024177931
 31
0
  0
LINE
  8
1
 62
3
 10
1496.339401593847
 20
543.1117812056621
 30
0
 11
1508.903864059426
 21
543.1117812056621
 31
0
  0
LINE
  8
1
 62
3
 10
1499.591323771416
 20
556.3845084783202
 30
0
 11
1496.339401593847
 21
543.1117812056621
 31
0
  0
LINE
  8
1
 62
3
 10
1486.144653716558
 20
547.5360236298441
 30
0
 11
1489.900368855924
 21
554.172387266269
 31
0
  0
LINE
  8
1
 62
3
 10
1490.957172001214
 20
554.172387266269
 30
0
 11
1489.900368855924
 21
554.172387266269
 31
0
  0
LINE
  8
1
 62
3
 10
1491.460964963069
 20
547.5360236298441
 30
0
 11
1490.957172001214
 21
554.172387266269
 31
0
  0
LINE
  8
1
 62
3
 10
1486.144653716558
 20
547.5360236298441
 30
0
 11
1491.460964963069
 21
547.5360236298441
 31
0
  0
LINE
  8
1
 62
3
 10
1483.640843623664
 20
543.1117812056621
 30
0
 11
1481.262046635093
 21
543.1117812056621
 31
0
  0
LINE
  8
1
 62
3
 10
1484.892748670027
 20
545.3239024177931
 30
0
 11
1483.640843623664
 21
543.1117812056621
 31
0
  0
LINE
  8
1
 62
3
 10
1491.628895950391
 20
545.3239024177931
 30
0
 11
1484.892748670027
 21
545.3239024177931
 31
0
  0
LINE
  8
1
 62
3
 10
1491.796826937658
 20
543.1117812056621
 30
0
 11
1491.628895950391
 21
545.3239024177931
 31
0
  0
LINE
  8
1
 62
3
 10
1493.826509100727
 20
543.1117812056621
 30
0
 11
1491.796826937658
 21
543.1117812056621
 31
0
  0
LINE
  8
1
 62
3
 10
1492.818923176965
 20
556.3845084783202
 30
0
 11
1493.826509100727
 21
543.1117812056621
 31
0
  0
LINE
  8
1
 62
3
 10
1488.77347691399
 20
556.3845084783202
 30
0
 11
1492.818923176965
 21
556.3845084783202
 31
0
  0
LINE
  8
1
 62
3
 10
1481.262046635093
 20
543.1117812056621
 30
0
 11
1488.77347691399
 21
556.3845084783202
 31
0
  0
LINE
  8
1
 62
3
 10
1468.278768754059
 20
543.1117812056621
 30
0
 11
1466.184691676499
 21
543.1117812056621
 31
0
  0
LINE
  8
1
 62
3
 10
1471.084771050988
 20
554.5644855385979
 30
0
 11
1468.278768754059
 21
543.1117812056621
 31
0
  0
LINE
  8
1
 62
3
 10
1471.725319317498
 20
552.9053946295351
 30
0
 11
1471.084771050988
 21
554.5644855385979
 31
0
  0
LINE
  8
1
 62
3
 10
1475.506475653208
 20
543.1117812056621
 30
0
 11
1471.725319317498
 21
552.9053946295351
 31
0
  0
LINE
  8
1
 62
3
 10
1478.749154141977
 20
543.1117812056621
 30
0
 11
1475.506475653208
 21
543.1117812056621
 31
0
  0
LINE
  8
1
 62
3
 10
1482.001076319597
 20
556.3845084783202
 30
0
 11
1478.749154141977
 21
543.1117812056621
 31
0
  0
LINE
  8
1
 62
3
 10
1479.906999241983
 20
556.3845084783202
 30
0
 11
1482.001076319597
 21
556.3845084783202
 31
0
  0
LINE
  8
1
 62
3
 10
1477.06156733663
 20
544.770872114746
 30
0
 11
1479.906999241983
 21
556.3845084783202
 31
0
  0
LINE
  8
1
 62
3
 10
1472.577729470355
 20
556.3845084783202
 30
0
 11
1477.06156733663
 21
544.770872114746
 31
0
  0
LINE
  8
1
 62
3
 10
1469.436613854014
 20
556.3845084783202
 30
0
 11
1472.577729470355
 21
556.3845084783202
 31
0
  0
LINE
  8
1
 62
3
 10
1466.184691676499
 20
543.1117812056621
 30
0
 11
1469.436613854014
 21
556.3845084783202
 31
0
  0
LINE
  8
1
 62
3
 10
1466.923721360898
 20
556.3845084783202
 30
0
 11
1464.829644283334
 21
556.3845084783202
 31
0
  0
LINE
  8
1
 62
3
 10
1464.829644283334
 20
556.3845084783202
 30
0
 11
1461.577722105769
 21
543.1117812056621
 31
0
  0
LINE
  8
1
 62
3
 10
1463.671799183329
 20
543.1117812056621
 30
0
 11
1466.923721360898
 21
556.3845084783202
 31
0
  0
LINE
  8
1
 62
3
 10
1461.577722105769
 20
543.1117812056621
 30
0
 11
1463.671799183329
 21
543.1117812056621
 31
0
  0
LINE
  8
1
 62
3
 10
1459.084501950522
 20
551.739053932891
 30
0
 11
1461.178579028048
 21
551.739053932891
 31
0
  0
LINE
  8
1
 62
3
 10
1458.054726594372
 20
547.5360236298441
 30
0
 11
1457.512739564605
 21
545.3239024177931
 31
0
  0
LINE
  8
1
 62
3
 10
1453.866572438972
 20
547.5360236298441
 30
0
 11
1458.054726594372
 21
547.5360236298441
 31
0
  0
LINE
  8
1
 62
3
 10
1454.408559468619
 20
549.7481448420331
 30
0
 11
1453.866572438972
 21
547.5360236298441
 31
0
  0
LINE
  8
1
 62
3
 10
1460.690790701425
 20
549.7481448420331
 30
0
 11
1459.064829612653
 21
543.1117812056621
 31
0
  0
LINE
  8
1
 62
3
 10
1460.690790701425
 20
549.7481448420331
 30
0
 11
1454.408559468619
 21
549.7481448420331
 31
0
  0
LINE
  8
1
 62
3
 10
1449.136431254276
 20
545.3239024177931
 30
0
 11
1451.304379372603
 21
554.172387266269
 31
0
  0
LINE
  8
1
 62
3
 10
1451.304379372603
 20
554.172387266269
 30
0
 11
1459.6806876829
 21
554.172387266269
 31
0
  0
LINE
  8
1
 62
3
 10
1459.6806876829
 20
554.172387266269
 30
0
 11
1459.084501950522
 21
551.739053932891
 31
0
  0
LINE
  8
1
 62
3
 10
1457.512739564605
 20
545.3239024177931
 30
0
 11
1449.136431254276
 21
545.3239024177931
 31
0
  0
LINE
  8
1
 62
3
 10
1459.064829612653
 20
543.1117812056621
 30
0
 11
1446.50036714704
 21
543.1117812056621
 31
0
  0
LINE
  8
1
 62
3
 10
1462.316751790175
 20
556.3845084783202
 30
0
 11
1461.178579028048
 21
551.739053932891
 31
0
  0
LINE
  8
1
 62
3
 10
1449.752289324584
 20
556.3845084783202
 30
0
 11
1462.316751790175
 21
556.3845084783202
 31
0
  0
LINE
  8
1
 62
3
 10
1446.50036714704
 20
543.1117812056621
 30
0
 11
1449.752289324584
 21
556.3845084783202
 31
0
  0
LINE
  8
1
 62
3
 10
1443.987474654055
 20
543.1117812056621
 30
0
 11
1447.239396831465
 21
556.3845084783202
 31
0
  0
LINE
  8
1
 62
3
 10
1441.893397576336
 20
543.1117812056621
 30
0
 11
1443.987474654055
 21
543.1117812056621
 31
0
  0
LINE
  8
1
 62
3
 10
1445.145319753901
 20
556.3845084783202
 30
0
 11
1441.893397576336
 21
543.1117812056621
 31
0
  0
LINE
  8
1
 62
3
 10
1447.239396831465
 20
556.3845084783202
 30
0
 11
1445.145319753901
 21
556.3845084783202
 31
0
  0
LINE
  8
1
 62
3
 10
1428.910119695298
 20
543.1117812056621
 30
0
 11
1429.994093754409
 21
547.5360236298441
 31
0
  0
LINE
  8
1
 62
3
 10
1426.816042617622
 20
543.1117812056621
 30
0
 11
1428.910119695298
 21
543.1117812056621
 31
0
  0
LINE
  8
1
 62
3
 10
1440.328223469318
 20
546.979895810782
 30
0
 11
1439.380505083205
 21
543.1117812056621
 31
0
  0
LINE
  8
1
 62
3
 10
1431.620054843184
 20
554.172387266269
 30
0
 11
1430.536080784001
 21
549.7481448420331
 31
0
  0
LINE
  8
1
 62
3
 10
1439.996363153703
 20
554.172387266269
 30
0
 11
1431.620054843184
 21
554.172387266269
 31
0
  0
LINE
  8
1
 62
3
 10
1438.912389094381
 20
549.7481448420331
 30
0
 11
1439.996363153703
 21
554.172387266269
 31
0
  0
LINE
  8
1
 62
3
 10
1430.536080784001
 20
549.7481448420331
 30
0
 11
1438.912389094381
 21
549.7481448420331
 31
0
  0
LINE
  8
1
 62
3
 10
1438.370402064938
 20
547.5360236298441
 30
0
 11
1429.994093754409
 21
547.5360236298441
 31
0
  0
LINE
  8
1
 62
3
 10
1437.286428005566
 20
543.1117812056621
 30
0
 11
1438.370402064938
 21
547.5360236298441
 31
0
  0
LINE
  8
1
 62
3
 10
1439.380505083205
 20
543.1117812056621
 30
0
 11
1437.286428005566
 21
543.1117812056621
 31
0
  0
LINE
  8
1
 62
3
 10
1442.632427260738
 20
556.3845084783202
 30
0
 11
1440.764903150885
 21
548.7622048583319
 31
0
  0
LINE
  8
1
 62
3
 10
1430.067964795158
 20
556.3845084783202
 30
0
 11
1442.632427260738
 21
556.3845084783202
 31
0
  0
LINE
  8
1
 62
3
 10
1430.067964795158
 20
556.3845084783202
 30
0
 11
1426.816042617622
 21
543.1117812056621
 31
0
  0
LINE
  8
1
 62
3
 10
1414.374751766132
 20
545.3239024177931
 30
0
 11
1416.542699884474
 21
554.172387266269
 31
0
  0
LINE
  8
1
 62
3
 10
1416.542699884474
 20
554.172387266269
 30
0
 11
1424.919008194964
 21
554.172387266269
 31
0
  0
LINE
  8
1
 62
3
 10
1424.919008194964
 20
554.172387266269
 30
0
 11
1422.751060076487
 21
545.3239024177931
 31
0
  0
LINE
  8
1
 62
3
 10
1422.751060076487
 20
545.3239024177931
 30
0
 11
1414.374751766132
 21
545.3239024177931
 31
0
  0
LINE
  8
1
 62
3
 10
1424.303150124491
 20
543.1117812056621
 30
0
 11
1411.738687658966
 21
543.1117812056621
 31
0
  0
LINE
  8
1
 62
3
 10
1427.555072302166
 20
556.3845084783202
 30
0
 11
1424.303150124491
 21
543.1117812056621
 31
0
  0
LINE
  8
1
 62
3
 10
1414.990609836448
 20
556.3845084783202
 30
0
 11
1427.555072302166
 21
556.3845084783202
 31
0
  0
LINE
  8
1
 62
3
 10
1411.738687658966
 20
543.1117812056621
 30
0
 11
1414.990609836448
 21
556.3845084783202
 31
0
  0
LINE
  8
1
 62
3
 10
1555.329503152207
 20
500
 30
0
 11
1502.738701733397
 21
500
 31
0
  0
LINE
  8
1
 62
3
 10
1552.928830785688
 20
506.1939393939099
 30
0
 11
1510.119681233515
 21
506.1939393939099
 31
0
  0
LINE
  8
1
 62
3
 10
1552.928830785688
 20
506.1939393939099
 30
0
 11
1555.329503152207
 21
500
 31
0
  0
LINE
  8
1
 62
3
 10
1545.686830708906
 20
524.878917066824
 30
0
 11
1542.906977584949
 21
532.051175145079
 31
0
  0
LINE
  8
1
 62
3
 10
1551.284056889192
 20
532.051175145079
 30
0
 11
1545.686830708906
 21
524.878917066824
 31
0
  0
LINE
  8
1
 62
3
 10
1555.32950315225
 20
532.051175145079
 30
0
 11
1551.284056889192
 21
532.051175145079
 31
0
  0
LINE
  8
1
 62
3
 10
1547.029273107168
 20
521.415301218603
 30
0
 11
1555.32950315225
 21
532.051175145079
 31
0
  0
LINE
  8
1
 62
3
 10
1551.899971200172
 20
508.848484848477
 30
0
 11
1547.029273107168
 21
521.415301218603
 31
0
  0
LINE
  8
1
 62
3
 10
1547.854524937124
 20
508.848484848477
 30
0
 11
1551.899971200172
 21
508.848484848477
 31
0
  0
LINE
  8
1
 62
3
 10
1544.32626924244
 20
517.951685370502
 30
0
 11
1547.854524937124
 21
508.848484848477
 31
0
  0
LINE
  8
1
 62
3
 10
1537.222136662338
 20
508.848484848477
 30
0
 11
1544.32626924244
 21
517.951685370502
 31
0
  0
LINE
  8
1
 62
3
 10
1533.176690399341
 20
508.848484848477
 30
0
 11
1537.222136662338
 21
508.848484848477
 31
0
  0
LINE
  8
1
 62
3
 10
1542.983826844131
 20
521.4153012186609
 30
0
 11
1533.176690399341
 21
508.848484848477
 31
0
  0
LINE
  8
1
 62
3
 10
1538.861531321934
 20
532.051175145079
 30
0
 11
1542.983826844131
 21
521.4153012186609
 31
0
  0
LINE
  8
1
 62
3
 10
1542.906977584949
 20
532.051175145079
 30
0
 11
1538.861531321934
 21
532.051175145079
 31
0
  0
LINE
  8
1
 62
3
 10
1525.878253440889
 20
532.051175145079
 30
0
 11
1520.643060746967
 21
532.051175145079
 31
0
  0
LINE
  8
1
 62
3
 10
1521.277386577538
 20
513.2727272727971
 30
0
 11
1525.878253440889
 21
532.051175145079
 31
0
  0
LINE
  8
1
 62
3
 10
1526.51257927149
 20
513.2727272727971
 30
0
 11
1521.277386577538
 21
513.2727272727971
 31
0
  0
LINE
  8
1
 62
3
 10
1531.113446134885
 20
532.051175145079
 30
0
 11
1526.51257927149
 21
513.2727272727971
 31
0
  0
LINE
  8
1
 62
3
 10
1536.348638828808
 20
532.051175145079
 30
0
 11
1531.113446134885
 21
532.051175145079
 31
0
  0
LINE
  8
1
 62
3
 10
1530.6637979062
 20
508.848484848477
 30
0
 11
1536.348638828808
 21
532.051175145079
 31
0
  0
LINE
  8
1
 62
3
 10
1514.958219824279
 20
508.848484848477
 30
0
 11
1530.6637979062
 21
508.848484848477
 31
0
  0
LINE
  8
1
 62
3
 10
1520.643060746967
 20
532.051175145079
 30
0
 11
1514.958219824279
 21
508.848484848477
 31
0
  0
LINE
  8
1
 62
3
 10
1513.301425922338
 20
543.1117812056621
 30
0
 11
1502.738701733397
 21
500
 31
0
  0
LINE
  8
1
 62
3
 10
1519.164841739606
 20
543.1117812056621
 30
0
 11
1513.301425922338
 21
543.1117812056621
 31
0
  0
LINE
  8
1
 62
3
 10
1510.119681233515
 20
506.1939393939099
 30
0
 11
1519.164841739606
 21
543.1117812056621
 31
0
  0
LINE
  8
1
 62
3
 10
1375
 20
500
 30
0
 11
1382.852789041055
 21
532.051175145079
 31
0
  0
LINE
  8
1
 62
3
 10
1382.852789041055
 20
532.051175145079
 30
0
 11
1389.135020273752
 21
532.051175145079
 31
0
  0
LINE
  8
1
 62
3
 10
1389.135020273752
 20
532.051175145079
 30
0
 11
1382.366205292063
 21
504.424242424182
 31
0
  0
LINE
  8
1
 62
3
 10
1382.366205292063
 20
504.424242424182
 30
0
 11
1387.601397985942
 21
504.424242424182
 31
0
  0
LINE
  8
1
 62
3
 10
1387.601397985942
 20
504.424242424182
 30
0
 11
1395.725180541824
 21
537.581478175405
 31
0
  0
LINE
  8
1
 62
3
 10
1395.725180541824
 20
537.581478175405
 30
0
 11
1378.03408469729
 21
537.581478175405
 31
0
  0
LINE
  8
1
 62
3
 10
1378.03408469729
 20
537.581478175405
 30
0
 11
1379.389052271275
 21
543.1117812056621
 31
0
  0
LINE
  8
1
 62
3
 10
1379.389052271275
 20
543.1117812056621
 30
0
 11
1403.362379348568
 21
543.1117812056621
 31
0
  0
LINE
  8
1
 62
3
 10
1403.362379348568
 20
543.1117812056621
 30
0
 11
1392.799655159648
 21
500
 31
0
  0
LINE
  8
1
 62
3
 10
1392.799655159648
 20
500
 30
0
 11
1375
 21
500
 31
0
  0
LINE
  8
1
 62
3
 10
1396.987809314775
 20
500
 30
0
 11
1404.840598355768
 21
532.051175145079
 31
0
  0
LINE
  8
1
 62
3
 10
1404.840598355768
 20
532.051175145079
 30
0
 11
1411.122829588578
 21
532.051175145079
 31
0
  0
LINE
  8
1
 62
3
 10
1411.122829588578
 20
532.051175145079
 30
0
 11
1404.354014606783
 21
504.424242424182
 31
0
  0
LINE
  8
1
 62
3
 10
1404.354014606783
 20
504.424242424182
 30
0
 11
1409.589207300767
 21
504.424242424182
 31
0
  0
LINE
  8
1
 62
3
 10
1409.589207300767
 20
504.424242424182
 30
0
 11
1416.358022282573
 21
532.051175145079
 31
0
  0
LINE
  8
1
 62
3
 10
1414.787464474364
 20
500
 30
0
 11
1396.987809314775
 21
500
 31
0
  0
LINE
  8
1
 62
3
 10
1416.358022282573
 20
532.051175145079
 30
0
 11
1422.640253515379
 21
532.051175145079
 31
0
  0
LINE
  8
1
 62
3
 10
1422.640253515379
 20
532.051175145079
 30
0
 11
1414.787464474364
 21
500
 31
0
  0
LINE
  8
1
 62
3
 10
1443.581024291314
 20
532.051175145079
 30
0
 11
1426.828407670542
 21
532.051175145079
 31
0
  0
LINE
  8
1
 62
3
 10
1426.828407670542
 20
532.051175145079
 30
0
 11
1422.227540807151
 21
513.2727272727971
 31
0
  0
LINE
  8
1
 62
3
 10
1422.227540807151
 20
513.2727272727971
 30
0
 11
1432.697926195117
 21
513.2727272727971
 31
0
  0
LINE
  8
1
 62
3
 10
1432.697926195117
 20
513.2727272727971
 30
0
 11
1430.529978076698
 21
504.424242424182
 31
0
  0
LINE
  8
1
 62
3
 10
1430.529978076698
 20
504.424242424182
 30
0
 11
1420.059592688787
 21
504.424242424182
 31
0
  0
LINE
  8
1
 62
3
 10
1420.059592688787
 20
504.424242424182
 30
0
 11
1418.97561862948
 21
500
 31
0
  0
LINE
  8
1
 62
3
 10
1418.97561862948
 20
500
 30
0
 11
1435.728235250303
 21
500
 31
0
  0
LINE
  8
1
 62
3
 10
1435.728235250303
 20
500
 30
0
 11
1440.064131487226
 21
517.6969696969532
 31
0
  0
LINE
  8
1
 62
3
 10
1440.064131487226
 20
517.6969696969532
 30
0
 11
1429.593746099163
 21
517.6969696969532
 31
0
  0
LINE
  8
1
 62
3
 10
1429.593746099163
 20
517.6969696969532
 30
0
 11
1432.026664844176
 21
527.626932720839
 31
0
  0
LINE
  8
1
 62
3
 10
1432.026664844176
 20
527.626932720839
 30
0
 11
1442.497050232156
 21
527.626932720839
 31
0
  0
LINE
  8
1
 62
3
 10
1442.497050232156
 20
527.626932720839
 30
0
 11
1443.581024291314
 21
532.051175145079
 31
0
  0
LINE
  8
1
 62
3
 10
1461.811859919322
 20
520.990569084413
 30
0
 11
1464.521795067252
 21
532.051175145079
 31
0
  0
LINE
  8
1
 62
3
 10
1464.521795067252
 20
532.051175145079
 30
0
 11
1447.769178446531
 21
532.051175145079
 31
0
  0
LINE
  8
1
 62
3
 10
1447.769178446531
 20
532.051175145079
 30
0
 11
1439.916389405538
 21
500
 31
0
  0
LINE
  8
1
 62
3
 10
1439.916389405538
 20
500
 30
0
 11
1456.669006026292
 21
500
 31
0
  0
LINE
  8
1
 62
3
 10
1456.669006026292
 20
500
 30
0
 11
1459.378941174266
 21
511.0606060606083
 31
0
  0
LINE
  8
1
 62
3
 10
1459.378941174266
 20
511.0606060606083
 30
0
 11
1453.096709941478
 21
511.0606060606083
 31
0
  0
LINE
  8
1
 62
3
 10
1453.096709941478
 20
511.0606060606083
 30
0
 11
1451.470748852691
 21
504.424242424182
 31
0
  0
LINE
  8
1
 62
3
 10
1451.470748852691
 20
504.424242424182
 30
0
 11
1447.282594697488
 21
504.424242424182
 31
0
  0
LINE
  8
1
 62
3
 10
1447.282594697488
 20
504.424242424182
 30
0
 11
1452.967435620118
 21
527.626932720839
 31
0
  0
LINE
  8
1
 62
3
 10
1452.967435620118
 20
527.626932720839
 30
0
 11
1457.15558977531
 21
527.626932720839
 31
0
  0
LINE
  8
1
 62
3
 10
1457.15558977531
 20
527.626932720839
 30
0
 11
1455.529628686516
 21
520.990569084413
 31
0
  0
LINE
  8
1
 62
3
 10
1455.529628686516
 20
520.990569084413
 30
0
 11
1461.811859919322
 21
520.990569084413
 31
0
  0
LINE
  8
1
 62
3
 10
1460.857160181473
 20
500
 30
0
 11
1467.139391414261
 21
500
 31
0
  0
LINE
  8
1
 62
3
 10
1477.609776802336
 20
500
 30
0
 11
1485.462565843351
 21
532.051175145079
 31
0
  0
LINE
  8
1
 62
3
 10
1471.327545569439
 20
500
 30
0
 11
1474.711953060334
 21
513.813466360341
 31
0
  0
LINE
  8
1
 62
3
 10
1467.139391414261
 20
500
 30
0
 11
1470.523798905146
 21
513.813466360341
 31
0
  0
LINE
  8
1
 62
3
 10
1468.709949222466
 20
532.051175145079
 30
0
 11
1460.857160181473
 21
500
 31
0
  0
LINE
  8
1
 62
3
 10
1485.462565843351
 20
532.051175145079
 30
0
 11
1479.180334610435
 21
532.051175145079
 31
0
  0
LINE
  8
1
 62
3
 10
1481.797930957462
 20
500
 30
0
 11
1498.55054757827
 21
500
 31
0
  0
LINE
  8
1
 62
3
 10
1493.352290404568
 20
504.424242424182
 30
0
 11
1489.164136249467
 21
504.424242424182
 31
0
  0
LINE
  8
1
 62
3
 10
1489.650719998459
 20
532.051175145079
 30
0
 11
1481.797930957462
 21
500
 31
0
  0
LINE
  8
1
 62
3
 10
1489.164136249467
 20
504.424242424182
 30
0
 11
1494.848977172042
 21
527.626932720839
 31
0
  0
LINE
  8
1
 62
3
 10
1506.403336619289
 20
532.051175145079
 30
0
 11
1489.650719998459
 21
532.051175145079
 31
0
  0
LINE
  8
1
 62
3
 10
1494.848977172042
 20
527.626932720839
 30
0
 11
1499.037131327292
 21
527.626932720839
 31
0
  0
LINE
  8
1
 62
3
 10
1499.037131327292
 20
527.626932720839
 30
0
 11
1493.352290404568
 21
504.424242424182
 31
0
  0
LINE
  8
1
 62
3
 10
1506.403336619289
 20
532.051175145079
 30
0
 11
1498.55054757827
 21
500
 31
0
  0
LINE
  8
1
 62
3
 10
1474.992180455331
 20
532.051175145079
 30
0
 11
1468.709949222466
 21
532.051175145079
 31
0
  0
LINE
  8
1
 62
3
 10
1471.327545569439
 20
500
 30
0
 11
1477.609776802336
 21
500
 31
0
  0
LINE
  8
1
 62
3
 10
1470.523798905146
 20
513.813466360341
 30
0
 11
1474.711953060334
 21
513.813466360341
 31
0
  0
LINE
  8
1
 62
3
 10
1471.607772964315
 20
518.2377087845271
 30
0
 11
1475.795927119554
 21
518.2377087845271
 31
0
  0
LINE
  8
1
 62
3
 10
1471.607772964315
 20
518.2377087845271
 30
0
 11
1474.992180455331
 21
532.051175145079
 31
0
  0
LINE
  8
1
 62
3
 10
1475.795927119554
 20
518.2377087845271
 30
0
 11
1479.180334610435
 21
532.051175145079
 31
0
  0
LINE
  8
1
 62
3
 10
1440.764903150885
 20
548.7622048583319
 30
0
 11
1440.032820381937
 21
547.9784478723632
 31
0
  0
LINE
  8
1
 62
3
 10
1440.328223469318
 20
546.979895810782
 30
0
 11
1440.032820381937
 21
547.9784478723632
 31
0
  0
ARC
  8
1
 62
3
 10
1548.514586791596
 20
549.3622336822259
 30
0
 40
1.39187009132817
 50
358.7013873342734
 51
66.54486649403694
  0
ARC
  8
1
 62
3
 10
1547.789193605106
 20
549.0530393898221
 30
0
 40
1.155889798231655
 50
0.9850581704851609
 51
82.91825463293205
  0
ARC
  8
1
 62
3
 10
1547.864376243302
 20
552.264025930551
 30
0
 40
1.257687287767183
 50
285.1995809529328
 51
80.93139523879833
  0
ARC
  8
1
 62
3
 10
1547.942694069316
 20
552.3039199213811
 30
0
 40
2.00979800886174
 50
304.0700115354277
 51
86.29788871825902
  0
CIRCLE
  8
1
 62
3
 10
1547.735875237937
 20
550.878787878755
 30
0
 40
5.530127989695984
  0
CIRCLE
  8
1
 62
3
 10
1547.735875237937
 20
550.878787878755
 30
0
 40
5.972862778753957
  0
ENDBLK
  8
0
  0
ENDSEC
  0
SECTION
  2
ENTITIES
  0
TEXT
  8
1
 62
2
 10
1410.315
 20
740.0000000000005
 30
0
 40
35
  1
PICCOLO Sky 180
 41
0.5993999999999999
 72
2
 73
3
 11
1725
 21
775.0000000000005
 31
0
  0
TEXT
  8
1
 62
3
 10
866.0840000000001
 20
490
 30
0
 40
35
  1
Ö 52
 41
0.5993999999999999
 72
2
 11
950
 21
490
 31
0
  0
INSERT
  8
0
  2
WANNE_PICCOLO_SKY_180
 10
875
 20
399.9999100026359
 30
0
  0
INSERT
  8
0
  2
DLX
 10
1375
 20
500
 30
0
  0
ENDSEC
  0
EOF
