  0
SECTION
  2
HEADER
  9
$ACADVER
  1
AC1009
  9
$INSBASE
 10
0
 20
0
  9
$EXTMIN
 10
-1.13686837721616e-013
 20
0
  9
$EXTMAX
 10
1750
 20
650
  9
$LIMMIN
 10
-1.13686837721616e-013
 20
0
  9
$LIMMAX
 10
1750
 20
650
  9
$VIEWCTR
 10
10
 20
10
  9
$VIEWSIZE
 40
10
  9
$SNAPMODE
 70
0
  9
$SNAPUNIT
 10
1
 20
1
  9
$SNAPBASE
 10
0
 20
0
  9
$SNAPANG
 50
0
  9
$SNAPSTYLE
 70
0
  9
$SNAPISOPAIR
 70
0
  9
$GRIDMODE
 70
0
  9
$GRIDUNIT
 10
0
 20
0
  9
$ORTHOMODE
 70
0
  9
$REGENMODE
 70
1
  9
$FILLMODE
 70
1
  9
$QTEXTMODE
 70
0
  9
$DRAGMODE
 70
2
  9
$LTSCALE
 40
1
  9
$OSMODE
 70
0
  9
$ATTMODE
 70
1
  9
$TEXTSIZE
 40
3.5
  9
$TRACEWID
 40
0.5
  9
$TEXTSTYLE
  7
STANDARD
  9
$CLAYER
  8
0
  9
$CELTYPE
  6
BYLAYER
  9
$CECOLOR
 62
256
  9
$DIMSCALE
 40
1
  9
$DIMASZ
 40
0.18
  9
$DIMEXO
 40
0.0625
  9
$DIMDLI
 40
0.38
  9
$DIMRND
 40
0
  9
$DIMDLE
 40
0
  9
$DIMEXE
 40
0.18
  9
$DIMTP
 40
0
  9
$DIMTM
 40
0
  9
$DIMTXT
 40
0.18
  9
$DIMCEN
 40
0.09
  9
$DIMTSZ
 40
0
  9
$DIMTOL
 70
0
  9
$DIMLIM
 70
0
  9
$DIMTIH
 70
1
  9
$DIMTOH
 70
1
  9
$DIMSE1
 70
0
  9
$DIMSE2
 70
0
  9
$DIMTAD
 70
0
  9
$DIMZIN
 70
0
  9
$DIMBLK
  1

  9
$DIMASO
 70
1
  9
$DIMSHO
 70
1
  9
$DIMPOST
  1

  9
$DIMAPOST
  1

  9
$DIMALT
 70
0
  9
$DIMALTD
 70
2
  9
$DIMALTF
 40
25.4
  9
$DIMLFAC
 40
1
  9
$DIMTOFL
 70
0
  9
$DIMTVP
 40
0
  9
$DIMTIX
 70
0
  9
$DIMSOXD
 70
0
  9
$DIMSAH
 70
0
  9
$DIMBLK1
  1

  9
$DIMBLK2
  1

  9
$DIMSTYLE
  2
*UNNAMED
  9
$DIMCLRD
 70
0
  9
$DIMCLRE
 70
0
  9
$DIMCLRT
 70
0
  9
$DIMTFAC
 40
1
  9
$DIMGAP
 40
0.09
  9
$LUNITS
 70
2
  9
$LUPREC
 70
4
  9
$AXISMODE
 70
0
  9
$AXISUNIT
 10
0
 20
0
  9
$SKETCHINC
 40
0.1
  9
$FILLETRAD
 40
2
  9
$AUNITS
 70
0
  9
$AUPREC
 70
0
  9
$MENU
  1
ACAD
  9
$ELEVATION
 40
0
  9
$THICKNESS
 40
0
  9
$VIEWDIR
 10
0
 20
0
 30
1
  9
$LIMCHECK
 70
0
  9
$BLIPMODE
 70
1
  9
$CHAMFERA
 40
0
  9
$CHAMFERB
 40
0
  9
$FASTZOOM
 70
1
  9
$SKPOLY
 70
0
  9
$ANGBASE
 50
0
  9
$ANGDIR
 70
0
  9
$PDMODE
 70
0
  9
$PDSIZE
 40
0
  9
$PLINEWID
 40
0
  9
$COORDS
 70
2
  0
ENDSEC
  0
SECTION
  2
TABLES
  0
TABLE
  2
DIMSTYLE
 70
0
  0
ENDTAB
  0
TABLE
  2
LTYPE
 70
9
  0
LTYPE
  2
CONTINUOUS
 70
64
  3
Solid line
 72
65
 73
0
 40
0
  0
LTYPE
  2
BORDER
 70
64
  3
__ __ . __ __ .
 72
65
 73
6
 40
80.59210526315789
 49
23.02631578947369
 49
-11.51315789473684
 49
23.02631578947369
 49
-11.51315789473684
 49
0
 49
-11.51315789473684
  0
LTYPE
  2
CENTER
 70
64
  3
____ _ ____ _
 72
65
 73
4
 40
92.10526315789474
 49
57.56578947368421
 49
-11.51315789473684
 49
11.51315789473684
 49
-11.51315789473684
  0
LTYPE
  2
DASHDOT
 70
64
  3
__ . __ . __ .
 72
65
 73
4
 40
46.05263157894737
 49
23.02631578947369
 49
-11.51315789473684
 49
0
 49
-11.51315789473684
  0
LTYPE
  2
DASHED
 70
64
  3
__ __ __ __ __
 72
65
 73
2
 40
34.53947368421053
 49
23.02631578947369
 49
-11.51315789473684
  0
LTYPE
  2
DIVIDE
 70
64
  3
__ . . __ . . 
 72
65
 73
6
 40
57.56578947368421
 49
23.02631578947369
 49
-11.51315789473684
 49
0
 49
-11.51315789473684
 49
0
 49
-11.51315789473684
  0
LTYPE
  2
DOT
 70
64
  3
..............
 72
65
 73
4
 40
23.02631578947369
 49
0
 49
-11.51315789473684
 49
0
 49
-11.51315789473684
  0
LTYPE
  2
HIDDEN
 70
64
  3
_ _ _ _ _ _ _
 72
65
 73
2
 40
17.26973684210526
 49
11.51315789473684
 49
-5.756578947368421
  0
LTYPE
  2
PHANTOM
 70
64
  3
_____ _ _ _____ _ _ 
 72
65
 73
6
 40
115.1315789473684
 49
57.56578947368421
 49
-11.51315789473684
 49
11.51315789473684
 49
-11.51315789473684
 49
11.51315789473684
 49
-11.51315789473684
  0
ENDTAB
  0
TABLE
  2
LAYER
 70
5
  0
LAYER
  2
MITTELLINIEN
 70
0
 62
7
  6
CONTINUOUS
  0
LAYER
  2
1
 70
0
 62
7
  6
CONTINUOUS
  0
LAYER
  2
WANNE
 70
0
 62
7
  6
CONTINUOUS
  0
LAYER
  2
0
 70
0
 62
7
  6
CONTINUOUS
  0
ENDTAB
  0
TABLE
  2
STYLE
 70
4
  0
STYLE
  2
STANDARD
 70
0
 40
0
 41
1
 50
0
 71
0
 42
3.5
  3
txt
  4

  0
STYLE
  2
SIMPLEX
 70
0
 40
0
 41
1
 50
0
 71
0
 42
3.5
  3
simplex
  4

  0
STYLE
  2
COMPLEX
 70
0
 40
0
 41
1
 50
0
 71
0
 42
3.5
  3
complex
  4

  0
STYLE
  2
ITALIC
 70
0
 40
0
 41
1
 50
0
 71
0
 42
3.5
  3
italic
  4

  0
ENDTAB
  0
TABLE
  2
VIEW
 70
0
  0
ENDTAB
  0
ENDSEC
  0
SECTION
  2
BLOCKS
  0
BLOCK
  8
0
  2
DLX
 70
0
 10
399.9999999999999
 20
350
 30
0
  0
LINE
  8
1
 62
3
 10
571.2066361356989
 20
403.505992531278
 30
0
 11
571.2066361356989
 21
401.050334541276
 31
0
  0
LINE
  8
1
 62
3
 10
573.0626091277849
 20
403.505992531278
 30
0
 11
571.2066361356989
 21
403.505992531278
 31
0
  0
LINE
  8
1
 62
3
 10
571.2066361356989
 20
401.050334541276
 30
0
 11
573.1941193636409
 21
401.050334541276
 31
0
  0
LINE
  8
1
 62
3
 10
571.2066361356989
 20
397.4510557882821
 30
0
 11
570.3341884365838
 21
397.4510557882821
 31
0
  0
LINE
  8
1
 62
3
 10
572.9316978373169
 20
400.2001112138419
 30
0
 11
571.2066361356989
 21
400.2001112138419
 31
0
  0
LINE
  8
1
 62
3
 10
573.9449125772368
 20
397.4510557882821
 30
0
 11
573.9449125772368
 21
399.0729110559
 31
0
  0
LINE
  8
1
 62
3
 10
574.9060993927418
 20
397.4510557882821
 30
0
 11
573.9449125772368
 21
397.4510557882821
 31
0
  0
LINE
  8
1
 62
3
 10
574.9060993927418
 20
399.3306895546259
 30
0
 11
574.9060993927418
 21
397.4510557882821
 31
0
  0
LINE
  8
1
 62
3
 10
572.7761082958238
 20
404.3095239634562
 30
0
 11
573.0724648781758
 21
404.3095239634562
 31
0
  0
LINE
  8
1
 62
3
 10
570.3341884365838
 20
404.3095239634562
 30
0
 11
572.7761082958238
 21
404.3095239634562
 31
0
  0
LINE
  8
1
 62
3
 10
570.3341884365838
 20
397.4510557882821
 30
0
 11
570.3341884365838
 21
404.3095239634562
 31
0
  0
LINE
  8
1
 62
3
 10
571.2066361356989
 20
400.2001112138419
 30
0
 11
571.2066361356989
 21
397.4510557882821
 31
0
  0
LINE
  8
1
 62
3
 10
526.6854008490299
 20
406.3845084783201
 30
0
 11
524.5913237714159
 21
406.3845084783201
 31
0
  0
LINE
  8
1
 62
3
 10
523.9754657010668
 20
395.3239024177931
 30
0
 11
526.6854008490299
 21
406.3845084783201
 31
0
  0
LINE
  8
1
 62
3
 10
534.4458510890869
 20
395.3239024177931
 30
0
 11
523.9754657010668
 21
395.3239024177931
 31
0
  0
LINE
  8
1
 62
3
 10
533.9038640594257
 20
393.1117812056621
 30
0
 11
534.4458510890869
 21
395.3239024177931
 31
0
  0
LINE
  8
1
 62
3
 10
521.3394015938469
 20
393.1117812056621
 30
0
 11
533.9038640594257
 21
393.1117812056621
 31
0
  0
LINE
  8
1
 62
3
 10
524.5913237714159
 20
406.3845084783201
 30
0
 11
521.3394015938469
 21
393.1117812056621
 31
0
  0
LINE
  8
1
 62
3
 10
511.1446537165579
 20
397.5360236298441
 30
0
 11
514.9003688559237
 21
404.172387266269
 31
0
  0
LINE
  8
1
 62
3
 10
515.9571720012139
 20
404.172387266269
 30
0
 11
514.9003688559237
 21
404.172387266269
 31
0
  0
LINE
  8
1
 62
3
 10
516.4609649630687
 20
397.5360236298441
 30
0
 11
515.9571720012139
 21
404.172387266269
 31
0
  0
LINE
  8
1
 62
3
 10
511.1446537165579
 20
397.5360236298441
 30
0
 11
516.4609649630687
 21
397.5360236298441
 31
0
  0
LINE
  8
1
 62
3
 10
508.6408436236637
 20
393.1117812056621
 30
0
 11
506.2620466350928
 21
393.1117812056621
 31
0
  0
LINE
  8
1
 62
3
 10
509.8927486700269
 20
395.3239024177931
 30
0
 11
508.6408436236637
 21
393.1117812056621
 31
0
  0
LINE
  8
1
 62
3
 10
516.6288959503908
 20
395.3239024177931
 30
0
 11
509.8927486700269
 21
395.3239024177931
 31
0
  0
LINE
  8
1
 62
3
 10
516.7968269376578
 20
393.1117812056621
 30
0
 11
516.6288959503908
 21
395.3239024177931
 31
0
  0
LINE
  8
1
 62
3
 10
518.8265091007269
 20
393.1117812056621
 30
0
 11
516.7968269376578
 21
393.1117812056621
 31
0
  0
LINE
  8
1
 62
3
 10
517.8189231769649
 20
406.3845084783201
 30
0
 11
518.8265091007269
 21
393.1117812056621
 31
0
  0
LINE
  8
1
 62
3
 10
513.77347691399
 20
406.3845084783201
 30
0
 11
517.8189231769649
 21
406.3845084783201
 31
0
  0
LINE
  8
1
 62
3
 10
506.2620466350928
 20
393.1117812056621
 30
0
 11
513.77347691399
 21
406.3845084783201
 31
0
  0
LINE
  8
1
 62
3
 10
493.2787687540588
 20
393.1117812056621
 30
0
 11
491.1846916764988
 21
393.1117812056621
 31
0
  0
LINE
  8
1
 62
3
 10
496.0847710509878
 20
404.5644855385979
 30
0
 11
493.2787687540588
 21
393.1117812056621
 31
0
  0
LINE
  8
1
 62
3
 10
496.7253193174978
 20
402.9053946295351
 30
0
 11
496.0847710509878
 21
404.5644855385979
 31
0
  0
LINE
  8
1
 62
3
 10
500.5064756532078
 20
393.1117812056621
 30
0
 11
496.7253193174978
 21
402.9053946295351
 31
0
  0
LINE
  8
1
 62
3
 10
503.7491541419768
 20
393.1117812056621
 30
0
 11
500.5064756532078
 21
393.1117812056621
 31
0
  0
LINE
  8
1
 62
3
 10
507.0010763195968
 20
406.3845084783201
 30
0
 11
503.7491541419768
 21
393.1117812056621
 31
0
  0
LINE
  8
1
 62
3
 10
504.9069992419828
 20
406.3845084783201
 30
0
 11
507.0010763195968
 21
406.3845084783201
 31
0
  0
LINE
  8
1
 62
3
 10
502.0615673366298
 20
394.770872114746
 30
0
 11
504.9069992419828
 21
406.3845084783201
 31
0
  0
LINE
  8
1
 62
3
 10
497.5777294703548
 20
406.3845084783201
 30
0
 11
502.0615673366298
 21
394.770872114746
 31
0
  0
LINE
  8
1
 62
3
 10
494.4366138540138
 20
406.3845084783201
 30
0
 11
497.5777294703548
 21
406.3845084783201
 31
0
  0
LINE
  8
1
 62
3
 10
491.1846916764988
 20
393.1117812056621
 30
0
 11
494.4366138540138
 21
406.3845084783201
 31
0
  0
LINE
  8
1
 62
3
 10
491.9237213608979
 20
406.3845084783201
 30
0
 11
489.8296442833338
 21
406.3845084783201
 31
0
  0
LINE
  8
1
 62
3
 10
489.8296442833338
 20
406.3845084783201
 30
0
 11
486.5777221057688
 21
393.1117812056621
 31
0
  0
LINE
  8
1
 62
3
 10
488.6717991833289
 20
393.1117812056621
 30
0
 11
491.9237213608979
 21
406.3845084783201
 31
0
  0
LINE
  8
1
 62
3
 10
486.5777221057688
 20
393.1117812056621
 30
0
 11
488.6717991833289
 21
393.1117812056621
 31
0
  0
LINE
  8
1
 62
3
 10
484.0845019505218
 20
401.739053932891
 30
0
 11
486.1785790280478
 21
401.739053932891
 31
0
  0
LINE
  8
1
 62
3
 10
483.0547265943718
 20
397.5360236298441
 30
0
 11
482.5127395646048
 21
395.3239024177931
 31
0
  0
LINE
  8
1
 62
3
 10
478.8665724389717
 20
397.5360236298441
 30
0
 11
483.0547265943718
 21
397.5360236298441
 31
0
  0
LINE
  8
1
 62
3
 10
479.4085594686188
 20
399.7481448420331
 30
0
 11
478.8665724389717
 21
397.5360236298441
 31
0
  0
LINE
  8
1
 62
3
 10
485.6907907014248
 20
399.7481448420331
 30
0
 11
484.0648296126528
 21
393.1117812056621
 31
0
  0
LINE
  8
1
 62
3
 10
485.6907907014248
 20
399.7481448420331
 30
0
 11
479.4085594686188
 21
399.7481448420331
 31
0
  0
LINE
  8
1
 62
3
 10
474.1364312542754
 20
395.3239024177931
 30
0
 11
476.304379372603
 21
404.172387266269
 31
0
  0
LINE
  8
1
 62
3
 10
476.304379372603
 20
404.172387266269
 30
0
 11
484.6806876828998
 21
404.172387266269
 31
0
  0
LINE
  8
1
 62
3
 10
484.6806876828998
 20
404.172387266269
 30
0
 11
484.0845019505218
 21
401.739053932891
 31
0
  0
LINE
  8
1
 62
3
 10
482.5127395646048
 20
395.3239024177931
 30
0
 11
474.1364312542754
 21
395.3239024177931
 31
0
  0
LINE
  8
1
 62
3
 10
484.0648296126528
 20
393.1117812056621
 30
0
 11
471.5003671470403
 21
393.1117812056621
 31
0
  0
LINE
  8
1
 62
3
 10
487.3167517901748
 20
406.3845084783201
 30
0
 11
486.1785790280478
 21
401.739053932891
 31
0
  0
LINE
  8
1
 62
3
 10
474.752289324584
 20
406.3845084783201
 30
0
 11
487.3167517901748
 21
406.3845084783201
 31
0
  0
LINE
  8
1
 62
3
 10
471.5003671470403
 20
393.1117812056621
 30
0
 11
474.752289324584
 21
406.3845084783201
 31
0
  0
LINE
  8
1
 62
3
 10
468.9874746540553
 20
393.1117812056621
 30
0
 11
472.2393968314645
 21
406.3845084783201
 31
0
  0
LINE
  8
1
 62
3
 10
466.8933975763356
 20
393.1117812056621
 30
0
 11
468.9874746540553
 21
393.1117812056621
 31
0
  0
LINE
  8
1
 62
3
 10
470.1453197539012
 20
406.3845084783201
 30
0
 11
466.8933975763356
 21
393.1117812056621
 31
0
  0
LINE
  8
1
 62
3
 10
472.2393968314645
 20
406.3845084783201
 30
0
 11
470.1453197539012
 21
406.3845084783201
 31
0
  0
LINE
  8
1
 62
3
 10
453.9101196952978
 20
393.1117812056621
 30
0
 11
454.9940937544087
 21
397.5360236298441
 31
0
  0
LINE
  8
1
 62
3
 10
451.8160426176218
 20
393.1117812056621
 30
0
 11
453.9101196952978
 21
393.1117812056621
 31
0
  0
LINE
  8
1
 62
3
 10
465.3282234693178
 20
396.979895810782
 30
0
 11
464.3805050832051
 21
393.1117812056621
 31
0
  0
LINE
  8
1
 62
3
 10
456.6200548431842
 20
404.172387266269
 30
0
 11
455.5360807840006
 21
399.7481448420331
 31
0
  0
LINE
  8
1
 62
3
 10
464.9963631537029
 20
404.172387266269
 30
0
 11
456.6200548431842
 21
404.172387266269
 31
0
  0
LINE
  8
1
 62
3
 10
463.912389094381
 20
399.7481448420331
 30
0
 11
464.9963631537029
 21
404.172387266269
 31
0
  0
LINE
  8
1
 62
3
 10
455.5360807840006
 20
399.7481448420331
 30
0
 11
463.912389094381
 21
399.7481448420331
 31
0
  0
LINE
  8
1
 62
3
 10
463.3704020649383
 20
397.5360236298441
 30
0
 11
454.9940937544087
 21
397.5360236298441
 31
0
  0
LINE
  8
1
 62
3
 10
462.2864280055654
 20
393.1117812056621
 30
0
 11
463.3704020649383
 21
397.5360236298441
 31
0
  0
LINE
  8
1
 62
3
 10
464.3805050832051
 20
393.1117812056621
 30
0
 11
462.2864280055654
 21
393.1117812056621
 31
0
  0
LINE
  8
1
 62
3
 10
467.6324272607379
 20
406.3845084783201
 30
0
 11
465.7649031508844
 21
398.7622048583319
 31
0
  0
LINE
  8
1
 62
3
 10
455.0679647951582
 20
406.3845084783201
 30
0
 11
467.6324272607379
 21
406.3845084783201
 31
0
  0
LINE
  8
1
 62
3
 10
455.0679647951582
 20
406.3845084783201
 30
0
 11
451.8160426176218
 21
393.1117812056621
 31
0
  0
LINE
  8
1
 62
3
 10
439.3747517661322
 20
395.3239024177931
 30
0
 11
441.542699884474
 21
404.172387266269
 31
0
  0
LINE
  8
1
 62
3
 10
441.542699884474
 20
404.172387266269
 30
0
 11
449.9190081949636
 21
404.172387266269
 31
0
  0
LINE
  8
1
 62
3
 10
449.9190081949636
 20
404.172387266269
 30
0
 11
447.7510600764871
 21
395.3239024177931
 31
0
  0
LINE
  8
1
 62
3
 10
447.7510600764871
 20
395.3239024177931
 30
0
 11
439.3747517661322
 21
395.3239024177931
 31
0
  0
LINE
  8
1
 62
3
 10
449.3031501244913
 20
393.1117812056621
 30
0
 11
436.7386876589661
 21
393.1117812056621
 31
0
  0
LINE
  8
1
 62
3
 10
452.555072302166
 20
406.3845084783201
 30
0
 11
449.3031501244913
 21
393.1117812056621
 31
0
  0
LINE
  8
1
 62
3
 10
439.990609836448
 20
406.3845084783201
 30
0
 11
452.555072302166
 21
406.3845084783201
 31
0
  0
LINE
  8
1
 62
3
 10
436.7386876589661
 20
393.1117812056621
 30
0
 11
439.990609836448
 21
406.3845084783201
 31
0
  0
LINE
  8
1
 62
3
 10
580.3295031522067
 20
350
 30
0
 11
527.7387017333969
 21
350
 31
0
  0
LINE
  8
1
 62
3
 10
577.9288307856879
 20
356.1939393939099
 30
0
 11
535.1196812335148
 21
356.1939393939099
 31
0
  0
LINE
  8
1
 62
3
 10
577.9288307856879
 20
356.1939393939099
 30
0
 11
580.3295031522067
 21
350
 31
0
  0
LINE
  8
1
 62
3
 10
570.6868307089059
 20
374.878917066824
 30
0
 11
567.9069775849488
 21
382.051175145079
 31
0
  0
LINE
  8
1
 62
3
 10
576.2840568891919
 20
382.051175145079
 30
0
 11
570.6868307089059
 21
374.878917066824
 31
0
  0
LINE
  8
1
 62
3
 10
580.3295031522499
 20
382.051175145079
 30
0
 11
576.2840568891919
 21
382.051175145079
 31
0
  0
LINE
  8
1
 62
3
 10
572.0292731071678
 20
371.415301218603
 30
0
 11
580.3295031522499
 21
382.051175145079
 31
0
  0
LINE
  8
1
 62
3
 10
576.8999712001718
 20
358.848484848477
 30
0
 11
572.0292731071678
 21
371.415301218603
 31
0
  0
LINE
  8
1
 62
3
 10
572.8545249371238
 20
358.848484848477
 30
0
 11
576.8999712001718
 21
358.848484848477
 31
0
  0
LINE
  8
1
 62
3
 10
569.3262692424397
 20
367.951685370502
 30
0
 11
572.8545249371238
 21
358.848484848477
 31
0
  0
LINE
  8
1
 62
3
 10
562.2221366623379
 20
358.848484848477
 30
0
 11
569.3262692424397
 21
367.951685370502
 31
0
  0
LINE
  8
1
 62
3
 10
558.1766903993408
 20
358.848484848477
 30
0
 11
562.2221366623379
 21
358.848484848477
 31
0
  0
LINE
  8
1
 62
3
 10
567.9838268441307
 20
371.4153012186609
 30
0
 11
558.1766903993408
 21
358.848484848477
 31
0
  0
LINE
  8
1
 62
3
 10
563.8615313219339
 20
382.051175145079
 30
0
 11
567.9838268441307
 21
371.4153012186609
 31
0
  0
LINE
  8
1
 62
3
 10
567.9069775849488
 20
382.051175145079
 30
0
 11
563.8615313219339
 21
382.051175145079
 31
0
  0
LINE
  8
1
 62
3
 10
550.8782534408889
 20
382.051175145079
 30
0
 11
545.6430607469669
 21
382.051175145079
 31
0
  0
LINE
  8
1
 62
3
 10
546.2773865775379
 20
363.2727272727971
 30
0
 11
550.8782534408889
 21
382.051175145079
 31
0
  0
LINE
  8
1
 62
3
 10
551.5125792714897
 20
363.2727272727971
 30
0
 11
546.2773865775379
 21
363.2727272727971
 31
0
  0
LINE
  8
1
 62
3
 10
556.113446134885
 20
382.051175145079
 30
0
 11
551.5125792714897
 21
363.2727272727971
 31
0
  0
LINE
  8
1
 62
3
 10
561.3486388288078
 20
382.051175145079
 30
0
 11
556.113446134885
 21
382.051175145079
 31
0
  0
LINE
  8
1
 62
3
 10
555.6637979061999
 20
358.848484848477
 30
0
 11
561.3486388288078
 21
382.051175145079
 31
0
  0
LINE
  8
1
 62
3
 10
539.9582198242789
 20
358.848484848477
 30
0
 11
555.6637979061999
 21
358.848484848477
 31
0
  0
LINE
  8
1
 62
3
 10
545.6430607469669
 20
382.051175145079
 30
0
 11
539.9582198242789
 21
358.848484848477
 31
0
  0
LINE
  8
1
 62
3
 10
538.3014259223379
 20
393.1117812056621
 30
0
 11
527.7387017333969
 21
350
 31
0
  0
LINE
  8
1
 62
3
 10
544.1648417396058
 20
393.1117812056621
 30
0
 11
538.3014259223379
 21
393.1117812056621
 31
0
  0
LINE
  8
1
 62
3
 10
535.1196812335148
 20
356.1939393939099
 30
0
 11
544.1648417396058
 21
393.1117812056621
 31
0
  0
LINE
  8
1
 62
3
 10
399.9999999999999
 20
350
 30
0
 11
407.852789041055
 21
382.051175145079
 31
0
  0
LINE
  8
1
 62
3
 10
407.852789041055
 20
382.051175145079
 30
0
 11
414.1350202737521
 21
382.051175145079
 31
0
  0
LINE
  8
1
 62
3
 10
414.1350202737521
 20
382.051175145079
 30
0
 11
407.3662052920626
 21
354.424242424182
 31
0
  0
LINE
  8
1
 62
3
 10
407.3662052920626
 20
354.424242424182
 30
0
 11
412.6013979859416
 21
354.424242424182
 31
0
  0
LINE
  8
1
 62
3
 10
412.6013979859416
 20
354.424242424182
 30
0
 11
420.7251805418236
 21
387.581478175405
 31
0
  0
LINE
  8
1
 62
3
 10
420.7251805418236
 20
387.581478175405
 30
0
 11
403.0340846972903
 21
387.581478175405
 31
0
  0
LINE
  8
1
 62
3
 10
403.0340846972903
 20
387.581478175405
 30
0
 11
404.3890522712753
 21
393.1117812056621
 31
0
  0
LINE
  8
1
 62
3
 10
404.3890522712753
 20
393.1117812056621
 30
0
 11
428.3623793485675
 21
393.1117812056621
 31
0
  0
LINE
  8
1
 62
3
 10
428.3623793485675
 20
393.1117812056621
 30
0
 11
417.7996551596479
 21
350
 31
0
  0
LINE
  8
1
 62
3
 10
417.7996551596479
 20
350
 30
0
 11
399.9999999999999
 21
350
 31
0
  0
LINE
  8
1
 62
3
 10
421.9878093147744
 20
350
 30
0
 11
429.8405983557676
 21
382.051175145079
 31
0
  0
LINE
  8
1
 62
3
 10
429.8405983557676
 20
382.051175145079
 30
0
 11
436.1228295885775
 21
382.051175145079
 31
0
  0
LINE
  8
1
 62
3
 10
436.1228295885775
 20
382.051175145079
 30
0
 11
429.3540146067825
 21
354.424242424182
 31
0
  0
LINE
  8
1
 62
3
 10
429.3540146067825
 20
354.424242424182
 30
0
 11
434.5892073007671
 21
354.424242424182
 31
0
  0
LINE
  8
1
 62
3
 10
434.5892073007671
 20
354.424242424182
 30
0
 11
441.358022282573
 21
382.051175145079
 31
0
  0
LINE
  8
1
 62
3
 10
439.7874644743641
 20
350
 30
0
 11
421.9878093147744
 21
350
 31
0
  0
LINE
  8
1
 62
3
 10
441.358022282573
 20
382.051175145079
 30
0
 11
447.6402535153792
 21
382.051175145079
 31
0
  0
LINE
  8
1
 62
3
 10
447.6402535153792
 20
382.051175145079
 30
0
 11
439.7874644743641
 21
350
 31
0
  0
LINE
  8
1
 62
3
 10
468.5810242913139
 20
382.051175145079
 30
0
 11
451.8284076705421
 21
382.051175145079
 31
0
  0
LINE
  8
1
 62
3
 10
451.8284076705421
 20
382.051175145079
 30
0
 11
447.2275408071508
 21
363.2727272727971
 31
0
  0
LINE
  8
1
 62
3
 10
447.2275408071508
 20
363.2727272727971
 30
0
 11
457.6979261951164
 21
363.2727272727971
 31
0
  0
LINE
  8
1
 62
3
 10
457.6979261951164
 20
363.2727272727971
 30
0
 11
455.5299780766981
 21
354.424242424182
 31
0
  0
LINE
  8
1
 62
3
 10
455.5299780766981
 20
354.424242424182
 30
0
 11
445.0595926887871
 21
354.424242424182
 31
0
  0
LINE
  8
1
 62
3
 10
445.0595926887871
 20
354.424242424182
 30
0
 11
443.9756186294798
 21
350
 31
0
  0
LINE
  8
1
 62
3
 10
443.9756186294798
 20
350
 30
0
 11
460.7282352503024
 21
350
 31
0
  0
LINE
  8
1
 62
3
 10
460.7282352503024
 20
350
 30
0
 11
465.0641314872263
 21
367.696969696953
 31
0
  0
LINE
  8
1
 62
3
 10
465.0641314872263
 20
367.696969696953
 30
0
 11
454.5937460991626
 21
367.696969696953
 31
0
  0
LINE
  8
1
 62
3
 10
454.5937460991626
 20
367.696969696953
 30
0
 11
457.0266648441756
 21
377.626932720839
 31
0
  0
LINE
  8
1
 62
3
 10
457.0266648441756
 20
377.626932720839
 30
0
 11
467.4970502321556
 21
377.626932720839
 31
0
  0
LINE
  8
1
 62
3
 10
467.4970502321556
 20
377.626932720839
 30
0
 11
468.5810242913139
 21
382.051175145079
 31
0
  0
LINE
  8
1
 62
3
 10
486.8118599193218
 20
370.990569084413
 30
0
 11
489.5217950672518
 21
382.051175145079
 31
0
  0
LINE
  8
1
 62
3
 10
489.5217950672518
 20
382.051175145079
 30
0
 11
472.7691784465313
 21
382.051175145079
 31
0
  0
LINE
  8
1
 62
3
 10
472.7691784465313
 20
382.051175145079
 30
0
 11
464.9163894055381
 21
350
 31
0
  0
LINE
  8
1
 62
3
 10
464.9163894055381
 20
350
 30
0
 11
481.6690060262918
 21
350
 31
0
  0
LINE
  8
1
 62
3
 10
481.6690060262918
 20
350
 30
0
 11
484.3789411742659
 21
361.0606060606082
 31
0
  0
LINE
  8
1
 62
3
 10
484.3789411742659
 20
361.0606060606082
 30
0
 11
478.0967099414778
 21
361.0606060606082
 31
0
  0
LINE
  8
1
 62
3
 10
478.0967099414778
 20
361.0606060606082
 30
0
 11
476.4707488526908
 21
354.424242424182
 31
0
  0
LINE
  8
1
 62
3
 10
476.4707488526908
 20
354.424242424182
 30
0
 11
472.282594697488
 21
354.424242424182
 31
0
  0
LINE
  8
1
 62
3
 10
472.282594697488
 20
354.424242424182
 30
0
 11
477.9674356201177
 21
377.626932720839
 31
0
  0
LINE
  8
1
 62
3
 10
477.9674356201177
 20
377.626932720839
 30
0
 11
482.1555897753098
 21
377.626932720839
 31
0
  0
LINE
  8
1
 62
3
 10
482.1555897753098
 20
377.626932720839
 30
0
 11
480.5296286865158
 21
370.990569084413
 31
0
  0
LINE
  8
1
 62
3
 10
480.5296286865158
 20
370.990569084413
 30
0
 11
486.8118599193218
 21
370.990569084413
 31
0
  0
LINE
  8
1
 62
3
 10
485.8571601814728
 20
350
 30
0
 11
492.1393914142608
 21
350
 31
0
  0
LINE
  8
1
 62
3
 10
502.6097768023358
 20
350
 30
0
 11
510.4625658433507
 21
382.051175145079
 31
0
  0
LINE
  8
1
 62
3
 10
496.3275455694388
 20
350
 30
0
 11
499.7119530603338
 21
363.813466360341
 31
0
  0
LINE
  8
1
 62
3
 10
492.1393914142608
 20
350
 30
0
 11
495.5237989051458
 21
363.813466360341
 31
0
  0
LINE
  8
1
 62
3
 10
493.7099492224658
 20
382.051175145079
 30
0
 11
485.8571601814728
 21
350
 31
0
  0
LINE
  8
1
 62
3
 10
510.4625658433507
 20
382.051175145079
 30
0
 11
504.1803346104348
 21
382.051175145079
 31
0
  0
LINE
  8
1
 62
3
 10
506.7979309574618
 20
350
 30
0
 11
523.5505475782699
 21
350
 31
0
  0
LINE
  8
1
 62
3
 10
518.3522904045676
 20
354.424242424182
 30
0
 11
514.1641362494669
 21
354.424242424182
 31
0
  0
LINE
  8
1
 62
3
 10
514.650719998459
 20
382.051175145079
 30
0
 11
506.7979309574618
 21
350
 31
0
  0
LINE
  8
1
 62
3
 10
514.1641362494669
 20
354.424242424182
 30
0
 11
519.8489771720417
 21
377.626932720839
 31
0
  0
LINE
  8
1
 62
3
 10
531.4033366192888
 20
382.051175145079
 30
0
 11
514.650719998459
 21
382.051175145079
 31
0
  0
LINE
  8
1
 62
3
 10
519.8489771720417
 20
377.626932720839
 30
0
 11
524.037131327292
 21
377.626932720839
 31
0
  0
LINE
  8
1
 62
3
 10
524.037131327292
 20
377.626932720839
 30
0
 11
518.3522904045676
 21
354.424242424182
 31
0
  0
LINE
  8
1
 62
3
 10
531.4033366192888
 20
382.051175145079
 30
0
 11
523.5505475782699
 21
350
 31
0
  0
LINE
  8
1
 62
3
 10
499.9921804553308
 20
382.051175145079
 30
0
 11
493.7099492224658
 21
382.051175145079
 31
0
  0
LINE
  8
1
 62
3
 10
496.3275455694388
 20
350
 30
0
 11
502.6097768023358
 21
350
 31
0
  0
LINE
  8
1
 62
3
 10
495.5237989051458
 20
363.813466360341
 30
0
 11
499.7119530603338
 21
363.813466360341
 31
0
  0
LINE
  8
1
 62
3
 10
496.6077729643148
 20
368.2377087845272
 30
0
 11
500.7959271195538
 21
368.2377087845272
 31
0
  0
LINE
  8
1
 62
3
 10
496.6077729643148
 20
368.2377087845272
 30
0
 11
499.9921804553308
 21
382.051175145079
 31
0
  0
LINE
  8
1
 62
3
 10
500.7959271195538
 20
368.2377087845272
 30
0
 11
504.1803346104348
 21
382.051175145079
 31
0
  0
LINE
  8
1
 62
3
 10
465.7649031508844
 20
398.7622048583319
 30
0
 11
465.0328203819371
 21
397.9784478723631
 31
0
  0
LINE
  8
1
 62
3
 10
465.3282234693178
 20
396.979895810782
 30
0
 11
465.0328203819371
 21
397.9784478723631
 31
0
  0
ARC
  8
1
 62
3
 10
573.5145867915959
 20
399.3622336822259
 30
0
 40
1.39187009132817
 50
358.7013873342734
 51
66.54486649404889
  0
ARC
  8
1
 62
3
 10
572.7891936051059
 20
399.0530393898221
 30
0
 40
1.155889798231653
 50
0.9850581704823435
 51
82.91825463293205
  0
ARC
  8
1
 62
3
 10
572.8643762433018
 20
402.264025930551
 30
0
 40
1.257687287767188
 50
285.1995809529435
 51
80.93139523878851
  0
ARC
  8
1
 62
3
 10
572.9426940693159
 20
402.3039199213811
 30
0
 40
2.009798008861706
 50
304.0700115354206
 51
86.29788871826195
  0
CIRCLE
  8
1
 62
3
 10
572.7358752379369
 20
400.878787878755
 30
0
 40
5.530127989695984
  0
CIRCLE
  8
1
 62
3
 10
572.7358752379369
 20
400.878787878755
 30
0
 40
5.972862778753957
  0
ENDBLK
  8
0
  0
BLOCK
  8
0
  2
WANNENF_SSE
 70
0
 10
615.468526000001
 20
0
 30
0
  0
LINE
  8
1
 62
2
 10
1385
 20
25
 30
0
 11
1425
 21
25
 31
0
  0
LINE
  8
1
 62
2
 10
1390
 20
55
 30
0
 11
1420
 21
55
 31
0
  0
LINE
  8
1
 62
2
 10
1395
 20
85
 30
0
 11
1415
 21
85
 31
0
  0
LINE
  8
1
 62
2
 10
1385.538080823757
 20
174.8362120359079
 30
0
 11
1425.524695330927
 21
175.8709391762486
 31
0
  0
LINE
  8
1
 62
2
 10
1425.395354438385
 20
180.8692659896451
 30
0
 11
1430.39368125178
 21
180.9986068821877
 31
0
  0
LINE
  8
1
 62
2
 10
1390.407066744611
 20
179.963879741847
 30
0
 11
1420.397027624988
 21
180.7399250971025
 31
0
  0
LINE
  8
1
 62
2
 10
1380.410413117818
 20
179.7051979567618
 30
0
 11
1385.408739931214
 21
179.8345388493044
 31
0
  0
LINE
  8
1
 62
2
 10
1430.134999466695
 20
190.9952605089802
 30
0
 11
1445.129979906885
 21
191.383283186608
 31
0
  0
LINE
  8
1
 62
2
 10
1365.156750892544
 20
189.3138289059266
 30
0
 11
1380.151731332733
 21
189.7018515835543
 31
0
  0
LINE
  8
1
 62
2
 10
1420.267686732445
 20
185.7382519104986
 30
0
 11
1425.266013545842
 21
185.8675928030411
 31
0
  0
LINE
  8
1
 62
2
 10
1385.279399038672
 20
184.8328656627004
 30
0
 11
1390.277725852069
 21
184.962206555243
 31
0
  0
LINE
  8
1
 62
2
 10
1425
 20
25
 30
0
 11
1425
 21
0
 31
0
  0
LINE
  8
1
 62
2
 10
1385
 20
25
 30
0
 11
1385
 21
0
 31
0
  0
LINE
  8
1
 62
2
 10
1390
 20
55
 30
0
 11
1390
 21
25
 31
0
  0
LINE
  8
1
 62
2
 10
1420
 20
55
 30
0
 11
1420
 21
25
 31
0
  0
LINE
  8
1
 62
2
 10
1415
 20
85
 30
0
 11
1420
 21
55
 31
0
  0
LINE
  8
1
 62
2
 10
1395
 20
85
 30
0
 11
1390
 21
55
 31
0
  0
LINE
  8
1
 62
2
 10
1410
 20
175.4692091522793
 30
0
 11
1410
 21
85
 31
0
  0
LINE
  8
1
 62
2
 10
1400
 20
175.210440773637
 30
0
 11
1400
 21
85
 31
0
  0
LINE
  8
1
 62
2
 10
1445.000639014342
 20
196.381610000004
 30
0
 11
1445.129979906885
 21
191.383283186608
 31
0
  0
LINE
  8
1
 62
2
 10
1425.007331760757
 20
195.8642464298337
 30
0
 11
1445.000639014342
 21
196.381610000004
 31
0
  0
LINE
  8
1
 62
2
 10
1425.266013545842
 20
185.8675928030411
 30
0
 11
1425.007331760757
 21
195.8642464298337
 31
0
  0
LINE
  8
1
 62
2
 10
1430.39368125178
 20
180.9986068821877
 30
0
 11
1430.134999466695
 21
190.9952605089802
 31
0
  0
LINE
  8
1
 62
2
 10
1420.397027624988
 20
180.7399250971025
 30
0
 11
1420.267686732445
 21
185.7382519104986
 31
0
  0
LINE
  8
1
 62
2
 10
1425.524695330927
 20
175.8709391762486
 30
0
 11
1425.395354438385
 21
180.8692659896451
 31
0
  0
LINE
  8
1
 62
2
 10
1390.277725852069
 20
184.962206555243
 30
0
 11
1390.407066744611
 21
179.963879741847
 31
0
  0
LINE
  8
1
 62
2
 10
1385.020717253588
 20
194.829519289493
 30
0
 11
1385.279399038672
 21
184.8328656627004
 31
0
  0
LINE
  8
1
 62
2
 10
1365.027410000002
 20
194.3121557193226
 30
0
 11
1385.020717253588
 21
194.829519289493
 31
0
  0
LINE
  8
1
 62
2
 10
1365.027410000002
 20
194.3121557193226
 30
0
 11
1365.156750892544
 21
189.3138289059266
 31
0
  0
LINE
  8
1
 62
2
 10
1380.410413117818
 20
179.7051979567618
 30
0
 11
1380.151731332733
 21
189.7018515835543
 31
0
  0
LINE
  8
1
 62
2
 10
1385.538080823757
 20
174.8362120359079
 30
0
 11
1385.408739931214
 21
179.8345388493044
 31
0
  0
LINE
  8
1
 62
2
 10
525
 20
25
 30
0
 11
565
 21
25
 31
0
  0
LINE
  8
1
 62
2
 10
530
 20
55
 30
0
 11
560
 21
55
 31
0
  0
LINE
  8
1
 62
2
 10
535
 20
85
 30
0
 11
555
 21
85
 31
0
  0
LINE
  8
1
 62
2
 10
524.475304669073
 20
179.4646234569327
 30
0
 11
564.4619191762431
 21
178.429896316592
 31
0
  0
LINE
  8
1
 62
2
 10
519.60631874822
 20
184.5922911628718
 30
0
 11
524.6046455616149
 21
184.4629502703292
 31
0
  0
LINE
  8
1
 62
2
 10
529.602972375013
 20
184.3336093777866
 30
0
 11
559.592933255389
 21
183.5575640225311
 31
0
  0
LINE
  8
1
 62
2
 10
564.5912600687859
 20
183.4282231299885
 30
0
 11
569.589586882182
 21
183.2988822374459
 31
0
  0
LINE
  8
1
 62
2
 10
504.870020093115
 20
194.9769674672921
 30
0
 11
519.865000533305
 21
194.5889447896643
 31
0
  0
LINE
  8
1
 62
2
 10
569.8482686672669
 20
193.2955358642385
 30
0
 11
584.8432491074559
 21
192.9075131866107
 31
0
  0
LINE
  8
1
 62
2
 10
524.733986454158
 20
189.4612770837252
 30
0
 11
529.7323132675549
 21
189.3319361911827
 31
0
  0
LINE
  8
1
 62
2
 10
559.7222741479311
 20
188.5558908359271
 30
0
 11
564.7206009613281
 21
188.4265499433845
 31
0
  0
LINE
  8
1
 62
2
 10
525
 20
0
 30
0
 11
525
 21
25
 31
0
  0
LINE
  8
1
 62
2
 10
565
 20
0
 30
0
 11
565
 21
25
 31
0
  0
LINE
  8
1
 62
2
 10
560
 20
25
 30
0
 11
560
 21
55
 31
0
  0
LINE
  8
1
 62
2
 10
530
 20
25
 30
0
 11
530
 21
55
 31
0
  0
LINE
  8
1
 62
2
 10
530
 20
55
 30
0
 11
535
 21
85
 31
0
  0
LINE
  8
1
 62
2
 10
560
 20
55
 30
0
 11
555
 21
85
 31
0
  0
LINE
  8
1
 62
2
 10
540
 20
85
 30
0
 11
540
 21
179.0628934329634
 31
0
  0
LINE
  8
1
 62
2
 10
550
 20
85
 30
0
 11
550
 21
178.8041250543211
 31
0
  0
LINE
  8
1
 62
2
 10
504.870020093115
 20
194.9769674672921
 30
0
 11
504.9993609856581
 21
199.9752942806881
 31
0
  0
LINE
  8
1
 62
2
 10
504.9993609856581
 20
199.9752942806881
 30
0
 11
524.9926682392429
 21
199.4579307105178
 31
0
  0
LINE
  8
1
 62
2
 10
524.9926682392429
 20
199.4579307105178
 30
0
 11
524.733986454158
 21
189.4612770837252
 31
0
  0
LINE
  8
1
 62
2
 10
519.865000533305
 20
194.5889447896643
 30
0
 11
519.60631874822
 21
184.5922911628718
 31
0
  0
LINE
  8
1
 62
2
 10
529.7323132675549
 20
189.3319361911827
 30
0
 11
529.602972375013
 21
184.3336093777866
 31
0
  0
LINE
  8
1
 62
2
 10
524.6046455616149
 20
184.4629502703292
 30
0
 11
524.475304669073
 21
179.4646234569327
 31
0
  0
LINE
  8
1
 62
2
 10
559.592933255389
 20
183.5575640225311
 30
0
 11
559.7222741479311
 21
188.5558908359271
 31
0
  0
LINE
  8
1
 62
2
 10
564.7206009613281
 20
188.4265499433845
 30
0
 11
564.979282746413
 21
198.4232035701771
 31
0
  0
LINE
  8
1
 62
2
 10
564.979282746413
 20
198.4232035701771
 30
0
 11
584.972589999999
 21
197.9058400000067
 31
0
  0
LINE
  8
1
 62
2
 10
584.8432491074559
 20
192.9075131866107
 30
0
 11
584.972589999999
 21
197.9058400000067
 31
0
  0
LINE
  8
1
 62
2
 10
569.8482686672669
 20
193.2955358642385
 30
0
 11
569.589586882182
 21
183.2988822374459
 31
0
  0
LINE
  8
1
 62
2
 10
564.5912600687859
 20
183.4282231299885
 30
0
 11
564.4619191762431
 21
178.429896316592
 31
0
  0
ENDBLK
  8
0
  0
BLOCK
  8
0
  2
WANNE_PICCOLO_SKY_180
 70
0
 10
875
 20
399.9999100026359
 30
0
  0
LINE
  8
1
 62
7
 10
1485.959230000003
 20
201.5763500000035
 30
0
 11
1515.77695
 21
222.3571500000035
 31
0
  0
LINE
  8
1
 62
7
 10
415.3199300000009
 20
224.1614400000035
 30
0
 11
440.7045999999996
 21
203.4967200000028
 31
0
  0
LINE
  8
1
 62
7
 10
1043.8763
 20
209.9999999999996
 30
0
 11
1067.989180000001
 21
190.6314200000047
 31
0
  0
LINE
  8
1
 62
7
 10
956.1237000000019
 20
210
 30
0
 11
932.7773700000009
 21
190.6113500000065
 31
0
  0
LINE
  8
1
 62
7
 10
1067.989180000001
 20
190.6314200000047
 30
0
 11
1485.959230000003
 21
201.5763500000035
 31
0
  0
LINE
  8
1
 62
7
 10
440.7045999999996
 20
203.4967200000028
 30
0
 11
932.7773700000009
 21
190.6113500000065
 31
0
  0
LINE
  8
1
 62
7
 10
1043.876300000017
 20
210
 30
0
 11
1515.776947872255
 21
222.3571499442865
 31
0
  0
LINE
  8
1
 62
7
 10
416.699028065078
 20
224.1253270592551
 30
0
 11
956.1237000000019
 21
210
 31
0
  0
LINE
  8
1
 62
7
 10
1666.308790000001
 20
615
 30
0
 11
1611.640028923727
 21
304.958063896152
 31
0
  0
LINE
  8
1
 62
7
 10
956.1237000000019
 20
210
 30
0
 11
1043.876300000017
 21
210
 31
0
  0
LINE
  8
1
 62
3
  6
DASHDOT
 10
1000
 20
235
 30
0
 11
1000
 21
165
 31
0
  0
LINE
  8
1
 62
7
 10
955.495568140338
 20
209.4783493259597
 30
0
 11
974
 21
190
 31
0
  0
LINE
  8
1
 62
7
 10
1026
 20
190
 30
0
 11
1044.513649128459
 21
209.4880517141673
 31
0
  0
LINE
  8
1
 62
7
 10
974
 20
190
 30
0
 11
1026
 21
190
 31
0
  0
LINE
  8
1
 62
7
 10
500
 20
650
 30
0
 11
500
 21
615
 31
0
  0
LINE
  8
1
 62
7
 10
-1.13686837721616e-013
 20
650
 30
0
 11
0
 21
615
 31
0
  0
LINE
  8
1
 62
7
 10
1750
 20
615
 30
0
 11
1750
 21
650
 31
0
  0
LINE
  8
1
 62
7
 10
1750
 20
615
 30
0
 11
0
 21
615
 31
0
  0
LINE
  8
1
 62
7
 10
-1.13686837721616e-013
 20
650
 30
0
 11
1750
 21
650
 31
0
  0
LINE
  8
MITTELLINIEN
 62
3
  6
DASHDOT
 10
1063.989954999998
 20
575
 30
0
 11
934.3219809999871
 21
575
 31
0
  0
LINE
  8
MITTELLINIEN
 62
3
  6
DASHDOT
 10
1000
 20
638.9899549999991
 30
0
 11
1000
 21
509.3219809999989
 31
0
  0
ARC
  8
1
 62
7
 10
1533.822758666481
 20
1374.961125283126
 30
0
 40
1631.813174267355
 50
207.756554891571
 51
223.316678817116
  0
CIRCLE
  8
WANNE
 62
7
 10
999.9999999999941
 20
575
 30
0
 40
26
  0
ARC
  8
1
 62
7
 10
1513.159253763196
 20
322.322882460741
 30
0
 40
99.99999999999967
 50
271.4999995863385
 51
349.9999995357869
  0
ARC
  8
1
 62
7
 10
419.3167219527709
 20
324.0910595815069
 30
0
 40
100.0000000000004
 50
223.316678817116
 51
268.5000005405385
  0
INSERT
  8
0
  2
WANNENF_SSE
 10
615.468526000001
 20
0
 30
0
  0
ENDBLK
  8
0
  0
ENDSEC
  0
SECTION
  2
ENTITIES
  0
TEXT
  8
1
 62
2
 10
399.9999999999999
 20
275
 30
0
 40
35
  1
PICCOLO Sky 180
 41
0.5993999999999999
  0
TEXT
  8
1
 62
3
 10
958.042
 20
105
 30
0
 40
35
  1
Ö 52
 41
0.5993999999999999
 72
1
 73
3
 11
1000
 21
140
 31
0
  0
TEXT
  8
1
 62
3
 10
866.0840000000001
 20
490
 30
0
 40
35
  1
Ö 52
 41
0.5993999999999999
 72
2
 73
3
 11
950
 21
525
 31
0
  0
INSERT
  8
0
  2
DLX
 10
399.9999999999999
 20
350
 30
0
  0
INSERT
  8
0
  2
WANNE_PICCOLO_SKY_180
 10
875
 20
399.9999100026359
 30
0
  0
ENDSEC
  0
EOF
