  0
SECTION
  2
HEADER
  9
$ACADVER
  1
AC1009
  9
$INSBASE
 10
0
 20
0
  9
$EXTMIN
 10
0
 20
-0.0001799947294784943
  9
$EXTMAX
 10
1750
 20
800
  9
$LIMMIN
 10
0
 20
-0.0001799947294784943
  9
$LIMMAX
 10
1750
 20
800
  9
$VIEWCTR
 10
10
 20
10
  9
$VIEWSIZE
 40
10
  9
$SNAPMODE
 70
0
  9
$SNAPUNIT
 10
1
 20
1
  9
$SNAPBASE
 10
0
 20
0
  9
$SNAPANG
 50
0
  9
$SNAPSTYLE
 70
0
  9
$SNAPISOPAIR
 70
0
  9
$GRIDMODE
 70
0
  9
$GRIDUNIT
 10
0
 20
0
  9
$ORTHOMODE
 70
0
  9
$REGENMODE
 70
1
  9
$FILLMODE
 70
1
  9
$QTEXTMODE
 70
0
  9
$DRAGMODE
 70
2
  9
$LTSCALE
 40
1
  9
$OSMODE
 70
0
  9
$ATTMODE
 70
1
  9
$TEXTSIZE
 40
3.5
  9
$TRACEWID
 40
0.5
  9
$TEXTSTYLE
  7
STANDARD
  9
$CLAYER
  8
0
  9
$CELTYPE
  6
BYLAYER
  9
$CECOLOR
 62
256
  9
$DIMSCALE
 40
1
  9
$DIMASZ
 40
0.18
  9
$DIMEXO
 40
0.0625
  9
$DIMDLI
 40
0.38
  9
$DIMRND
 40
0
  9
$DIMDLE
 40
0
  9
$DIMEXE
 40
0.18
  9
$DIMTP
 40
0
  9
$DIMTM
 40
0
  9
$DIMTXT
 40
0.18
  9
$DIMCEN
 40
0.09
  9
$DIMTSZ
 40
0
  9
$DIMTOL
 70
0
  9
$DIMLIM
 70
0
  9
$DIMTIH
 70
1
  9
$DIMTOH
 70
1
  9
$DIMSE1
 70
0
  9
$DIMSE2
 70
0
  9
$DIMTAD
 70
0
  9
$DIMZIN
 70
0
  9
$DIMBLK
  1

  9
$DIMASO
 70
1
  9
$DIMSHO
 70
1
  9
$DIMPOST
  1

  9
$DIMAPOST
  1

  9
$DIMALT
 70
0
  9
$DIMALTD
 70
2
  9
$DIMALTF
 40
25.4
  9
$DIMLFAC
 40
1
  9
$DIMTOFL
 70
0
  9
$DIMTVP
 40
0
  9
$DIMTIX
 70
0
  9
$DIMSOXD
 70
0
  9
$DIMSAH
 70
0
  9
$DIMBLK1
  1

  9
$DIMBLK2
  1

  9
$DIMSTYLE
  2
*UNNAMED
  9
$DIMCLRD
 70
0
  9
$DIMCLRE
 70
0
  9
$DIMCLRT
 70
0
  9
$DIMTFAC
 40
1
  9
$DIMGAP
 40
0.09
  9
$LUNITS
 70
2
  9
$LUPREC
 70
4
  9
$AXISMODE
 70
0
  9
$AXISUNIT
 10
0
 20
0
  9
$SKETCHINC
 40
0.1
  9
$FILLETRAD
 40
2
  9
$AUNITS
 70
0
  9
$AUPREC
 70
0
  9
$MENU
  1
ACAD
  9
$ELEVATION
 40
0
  9
$THICKNESS
 40
0
  9
$VIEWDIR
 10
0
 20
0
 30
1
  9
$LIMCHECK
 70
0
  9
$BLIPMODE
 70
1
  9
$CHAMFERA
 40
0
  9
$CHAMFERB
 40
0
  9
$FASTZOOM
 70
1
  9
$SKPOLY
 70
0
  9
$ANGBASE
 50
0
  9
$ANGDIR
 70
0
  9
$PDMODE
 70
0
  9
$PDSIZE
 40
0
  9
$PLINEWID
 40
0
  9
$COORDS
 70
2
  0
ENDSEC
  0
SECTION
  2
TABLES
  0
TABLE
  2
DIMSTYLE
 70
0
  0
ENDTAB
  0
TABLE
  2
LTYPE
 70
9
  0
LTYPE
  2
CONTINUOUS
 70
64
  3
Solid line
 72
65
 73
0
 40
0
  0
LTYPE
  2
BORDER
 70
64
  3
__ __ . __ __ .
 72
65
 73
6
 40
80.59210526315789
 49
23.02631578947369
 49
-11.51315789473684
 49
23.02631578947369
 49
-11.51315789473684
 49
0
 49
-11.51315789473684
  0
LTYPE
  2
CENTER
 70
64
  3
____ _ ____ _
 72
65
 73
4
 40
92.10526315789474
 49
57.56578947368421
 49
-11.51315789473684
 49
11.51315789473684
 49
-11.51315789473684
  0
LTYPE
  2
DASHDOT
 70
64
  3
__ . __ . __ .
 72
65
 73
4
 40
46.05263157894737
 49
23.02631578947369
 49
-11.51315789473684
 49
0
 49
-11.51315789473684
  0
LTYPE
  2
DASHED
 70
64
  3
__ __ __ __ __
 72
65
 73
2
 40
34.53947368421053
 49
23.02631578947369
 49
-11.51315789473684
  0
LTYPE
  2
DIVIDE
 70
64
  3
__ . . __ . . 
 72
65
 73
6
 40
57.56578947368421
 49
23.02631578947369
 49
-11.51315789473684
 49
0
 49
-11.51315789473684
 49
0
 49
-11.51315789473684
  0
LTYPE
  2
DOT
 70
64
  3
..............
 72
65
 73
4
 40
23.02631578947369
 49
0
 49
-11.51315789473684
 49
0
 49
-11.51315789473684
  0
LTYPE
  2
HIDDEN
 70
64
  3
_ _ _ _ _ _ _
 72
65
 73
2
 40
17.26973684210526
 49
11.51315789473684
 49
-5.756578947368421
  0
LTYPE
  2
PHANTOM
 70
64
  3
_____ _ _ _____ _ _ 
 72
65
 73
6
 40
115.1315789473684
 49
57.56578947368421
 49
-11.51315789473684
 49
11.51315789473684
 49
-11.51315789473684
 49
11.51315789473684
 49
-11.51315789473684
  0
ENDTAB
  0
TABLE
  2
LAYER
 70
5
  0
LAYER
  2
MITTELLINIEN
 70
0
 62
7
  6
CONTINUOUS
  0
LAYER
  2
1
 70
0
 62
7
  6
CONTINUOUS
  0
LAYER
  2
WANNE
 70
0
 62
7
  6
CONTINUOUS
  0
LAYER
  2
0
 70
0
 62
7
  6
CONTINUOUS
  0
ENDTAB
  0
TABLE
  2
STYLE
 70
4
  0
STYLE
  2
STANDARD
 70
0
 40
0
 41
1
 50
0
 71
0
 42
3.5
  3
txt
  4

  0
STYLE
  2
SIMPLEX
 70
0
 40
0
 41
1
 50
0
 71
0
 42
3.5
  3
simplex
  4

  0
STYLE
  2
COMPLEX
 70
0
 40
0
 41
1
 50
0
 71
0
 42
3.5
  3
complex
  4

  0
STYLE
  2
ITALIC
 70
0
 40
0
 41
1
 50
0
 71
0
 42
3.5
  3
italic
  4

  0
ENDTAB
  0
TABLE
  2
VIEW
 70
0
  0
ENDTAB
  0
ENDSEC
  0
SECTION
  2
BLOCKS
  0
BLOCK
  8
0
  2
DLX
 70
0
 10
194.6704968477931
 20
500
 30
0
  0
LINE
  8
1
 62
3
 10
259.998720317111
 20
546.979895810782
 30
0
 11
259.70331722973
 21
547.9784478723632
 31
0
  0
LINE
  8
1
 62
3
 10
260.435399998678
 20
548.7622048583319
 30
0
 11
259.70331722973
 21
547.9784478723632
 31
0
  0
LINE
  8
1
 62
3
 10
295.4664239673472
 20
518.2377087845271
 30
0
 11
298.8508314582281
 21
532.051175145079
 31
0
  0
LINE
  8
1
 62
3
 10
291.2782698121081
 20
518.2377087845271
 30
0
 11
294.662677303124
 21
532.051175145079
 31
0
  0
LINE
  8
1
 62
3
 10
291.2782698121081
 20
518.2377087845271
 30
0
 11
295.4664239673472
 21
518.2377087845271
 31
0
  0
LINE
  8
1
 62
3
 10
290.194295752939
 20
513.813466360341
 30
0
 11
294.3824499081271
 21
513.813466360341
 31
0
  0
LINE
  8
1
 62
3
 10
290.9980424172321
 20
500
 30
0
 11
297.2802736501291
 21
500
 31
0
  0
LINE
  8
1
 62
3
 10
294.662677303124
 20
532.051175145079
 30
0
 11
288.3804460702592
 21
532.051175145079
 31
0
  0
LINE
  8
1
 62
3
 10
326.073833467082
 20
532.051175145079
 30
0
 11
318.221044426063
 21
500
 31
0
  0
LINE
  8
1
 62
3
 10
318.707628175085
 20
527.626932720839
 30
0
 11
313.0227872523611
 21
504.424242424182
 31
0
  0
LINE
  8
1
 62
3
 10
314.519474019835
 20
527.626932720839
 30
0
 11
318.707628175085
 21
527.626932720839
 31
0
  0
LINE
  8
1
 62
3
 10
326.073833467082
 20
532.051175145079
 30
0
 11
309.321216846252
 21
532.051175145079
 31
0
  0
LINE
  8
1
 62
3
 10
308.8346330972601
 20
504.424242424182
 30
0
 11
314.519474019835
 21
527.626932720839
 31
0
  0
LINE
  8
1
 62
3
 10
309.321216846252
 20
532.051175145079
 30
0
 11
301.4684278052552
 21
500
 31
0
  0
LINE
  8
1
 62
3
 10
313.0227872523611
 20
504.424242424182
 30
0
 11
308.8346330972601
 21
504.424242424182
 31
0
  0
LINE
  8
1
 62
3
 10
301.4684278052552
 20
500
 30
0
 11
318.221044426063
 21
500
 31
0
  0
LINE
  8
1
 62
3
 10
305.1330626911441
 20
532.051175145079
 30
0
 11
298.8508314582281
 21
532.051175145079
 31
0
  0
LINE
  8
1
 62
3
 10
288.3804460702592
 20
532.051175145079
 30
0
 11
280.5276570292662
 21
500
 31
0
  0
LINE
  8
1
 62
3
 10
286.809888262054
 20
500
 30
0
 11
290.194295752939
 21
513.813466360341
 31
0
  0
LINE
  8
1
 62
3
 10
290.9980424172321
 20
500
 30
0
 11
294.3824499081271
 21
513.813466360341
 31
0
  0
LINE
  8
1
 62
3
 10
297.2802736501291
 20
500
 30
0
 11
305.1330626911441
 21
532.051175145079
 31
0
  0
LINE
  8
1
 62
3
 10
280.5276570292662
 20
500
 30
0
 11
286.809888262054
 21
500
 31
0
  0
LINE
  8
1
 62
3
 10
275.200125534309
 20
520.990569084413
 30
0
 11
281.482356767115
 21
520.990569084413
 31
0
  0
LINE
  8
1
 62
3
 10
276.8260866231032
 20
527.626932720839
 30
0
 11
275.200125534309
 21
520.990569084413
 31
0
  0
LINE
  8
1
 62
3
 10
272.6379324679111
 20
527.626932720839
 30
0
 11
276.8260866231032
 21
527.626932720839
 31
0
  0
LINE
  8
1
 62
3
 10
266.9530915452812
 20
504.424242424182
 30
0
 11
272.6379324679111
 21
527.626932720839
 31
0
  0
LINE
  8
1
 62
3
 10
271.1412457004841
 20
504.424242424182
 30
0
 11
266.9530915452812
 21
504.424242424182
 31
0
  0
LINE
  8
1
 62
3
 10
272.767206789271
 20
511.0606060606083
 30
0
 11
271.1412457004841
 21
504.424242424182
 31
0
  0
LINE
  8
1
 62
3
 10
279.049438022059
 20
511.0606060606083
 30
0
 11
272.767206789271
 21
511.0606060606083
 31
0
  0
LINE
  8
1
 62
3
 10
276.339502874085
 20
500
 30
0
 11
279.049438022059
 21
511.0606060606083
 31
0
  0
LINE
  8
1
 62
3
 10
259.586886253331
 20
500
 30
0
 11
276.339502874085
 21
500
 31
0
  0
LINE
  8
1
 62
3
 10
267.4396752943241
 20
532.051175145079
 30
0
 11
259.586886253331
 21
500
 31
0
  0
LINE
  8
1
 62
3
 10
284.1922919150451
 20
532.051175145079
 30
0
 11
267.4396752943241
 21
532.051175145079
 31
0
  0
LINE
  8
1
 62
3
 10
281.482356767115
 20
520.990569084413
 30
0
 11
284.1922919150451
 21
532.051175145079
 31
0
  0
LINE
  8
1
 62
3
 10
262.167547079949
 20
527.626932720839
 30
0
 11
263.251521139107
 21
532.051175145079
 31
0
  0
LINE
  8
1
 62
3
 10
251.697161691969
 20
527.626932720839
 30
0
 11
262.167547079949
 21
527.626932720839
 31
0
  0
LINE
  8
1
 62
3
 10
249.264242946956
 20
517.6969696969532
 30
0
 11
251.697161691969
 21
527.626932720839
 31
0
  0
LINE
  8
1
 62
3
 10
259.734628335019
 20
517.6969696969532
 30
0
 11
249.264242946956
 21
517.6969696969532
 31
0
  0
LINE
  8
1
 62
3
 10
255.3987320980961
 20
500
 30
0
 11
259.734628335019
 21
517.6969696969532
 31
0
  0
LINE
  8
1
 62
3
 10
238.6461154772732
 20
500
 30
0
 11
255.3987320980961
 21
500
 31
0
  0
LINE
  8
1
 62
3
 10
239.7300895365801
 20
504.424242424182
 30
0
 11
238.6461154772732
 21
500
 31
0
  0
LINE
  8
1
 62
3
 10
250.200474924491
 20
504.424242424182
 30
0
 11
239.7300895365801
 21
504.424242424182
 31
0
  0
LINE
  8
1
 62
3
 10
252.36842304291
 20
513.2727272727971
 30
0
 11
250.200474924491
 21
504.424242424182
 31
0
  0
LINE
  8
1
 62
3
 10
241.898037654944
 20
513.2727272727971
 30
0
 11
252.36842304291
 21
513.2727272727971
 31
0
  0
LINE
  8
1
 62
3
 10
246.4989045183351
 20
532.051175145079
 30
0
 11
241.898037654944
 21
513.2727272727971
 31
0
  0
LINE
  8
1
 62
3
 10
263.251521139107
 20
532.051175145079
 30
0
 11
246.4989045183351
 21
532.051175145079
 31
0
  0
LINE
  8
1
 62
3
 10
242.3107503631721
 20
532.051175145079
 30
0
 11
234.4579613221571
 21
500
 31
0
  0
LINE
  8
1
 62
3
 10
236.0285191303661
 20
532.051175145079
 30
0
 11
242.3107503631721
 21
532.051175145079
 31
0
  0
LINE
  8
1
 62
3
 10
234.4579613221571
 20
500
 30
0
 11
216.658306162568
 21
500
 31
0
  0
LINE
  8
1
 62
3
 10
229.25970414856
 20
504.424242424182
 30
0
 11
236.0285191303661
 21
532.051175145079
 31
0
  0
LINE
  8
1
 62
3
 10
224.0245114545761
 20
504.424242424182
 30
0
 11
229.25970414856
 21
504.424242424182
 31
0
  0
LINE
  8
1
 62
3
 10
230.7933264363711
 20
532.051175145079
 30
0
 11
224.0245114545761
 21
504.424242424182
 31
0
  0
LINE
  8
1
 62
3
 10
224.511095203561
 20
532.051175145079
 30
0
 11
230.7933264363711
 21
532.051175145079
 31
0
  0
LINE
  8
1
 62
3
 10
216.658306162568
 20
500
 30
0
 11
224.511095203561
 21
532.051175145079
 31
0
  0
LINE
  8
1
 62
3
 10
212.470152007441
 20
500
 30
0
 11
194.6704968477931
 21
500
 31
0
  0
LINE
  8
1
 62
3
 10
223.0328761963611
 20
543.1117812056621
 30
0
 11
212.470152007441
 21
500
 31
0
  0
LINE
  8
1
 62
3
 10
199.059549119068
 20
543.1117812056621
 30
0
 11
223.0328761963611
 21
543.1117812056621
 31
0
  0
LINE
  8
1
 62
3
 10
197.704581545083
 20
537.581478175405
 30
0
 11
199.059549119068
 21
543.1117812056621
 31
0
  0
LINE
  8
1
 62
3
 10
215.3956773896172
 20
537.581478175405
 30
0
 11
197.704581545083
 21
537.581478175405
 31
0
  0
LINE
  8
1
 62
3
 10
207.271894833735
 20
504.424242424182
 30
0
 11
215.3956773896172
 21
537.581478175405
 31
0
  0
LINE
  8
1
 62
3
 10
202.036702139856
 20
504.424242424182
 30
0
 11
207.271894833735
 21
504.424242424182
 31
0
  0
LINE
  8
1
 62
3
 10
208.805517121545
 20
532.051175145079
 30
0
 11
202.036702139856
 21
504.424242424182
 31
0
  0
LINE
  8
1
 62
3
 10
202.5232858888481
 20
532.051175145079
 30
0
 11
208.805517121545
 21
532.051175145079
 31
0
  0
LINE
  8
1
 62
3
 10
194.6704968477931
 20
500
 30
0
 11
202.5232858888481
 21
532.051175145079
 31
0
  0
LINE
  8
1
 62
3
 10
329.790178081308
 20
506.1939393939099
 30
0
 11
338.835338587399
 21
543.1117812056621
 31
0
  0
LINE
  8
1
 62
3
 10
338.835338587399
 20
543.1117812056621
 30
0
 11
332.9719227701311
 21
543.1117812056621
 31
0
  0
LINE
  8
1
 62
3
 10
332.9719227701311
 20
543.1117812056621
 30
0
 11
322.40919858119
 21
500
 31
0
  0
LINE
  8
1
 62
3
 10
340.31355759476
 20
532.051175145079
 30
0
 11
334.6287166720721
 21
508.848484848477
 31
0
  0
LINE
  8
1
 62
3
 10
334.6287166720721
 20
508.848484848477
 30
0
 11
350.3342947539931
 21
508.848484848477
 31
0
  0
LINE
  8
1
 62
3
 10
350.3342947539931
 20
508.848484848477
 30
0
 11
356.019135676601
 21
532.051175145079
 31
0
  0
LINE
  8
1
 62
3
 10
356.019135676601
 20
532.051175145079
 30
0
 11
350.783942982678
 21
532.051175145079
 31
0
  0
LINE
  8
1
 62
3
 10
350.783942982678
 20
532.051175145079
 30
0
 11
346.1830761192831
 21
513.2727272727971
 31
0
  0
LINE
  8
1
 62
3
 10
346.1830761192831
 20
513.2727272727971
 30
0
 11
340.947883425331
 21
513.2727272727971
 31
0
  0
LINE
  8
1
 62
3
 10
340.947883425331
 20
513.2727272727971
 30
0
 11
345.5487502886821
 21
532.051175145079
 31
0
  0
LINE
  8
1
 62
3
 10
345.5487502886821
 20
532.051175145079
 30
0
 11
340.31355759476
 21
532.051175145079
 31
0
  0
LINE
  8
1
 62
3
 10
362.577474432742
 20
532.051175145079
 30
0
 11
358.5320281697271
 21
532.051175145079
 31
0
  0
LINE
  8
1
 62
3
 10
358.5320281697271
 20
532.051175145079
 30
0
 11
362.6543236919241
 21
521.4153012186609
 31
0
  0
LINE
  8
1
 62
3
 10
362.6543236919241
 20
521.4153012186609
 30
0
 11
352.847187247134
 21
508.848484848477
 31
0
  0
LINE
  8
1
 62
3
 10
352.847187247134
 20
508.848484848477
 30
0
 11
356.8926335101311
 21
508.848484848477
 31
0
  0
LINE
  8
1
 62
3
 10
356.8926335101311
 20
508.848484848477
 30
0
 11
363.9967660902331
 21
517.951685370502
 31
0
  0
LINE
  8
1
 62
3
 10
363.9967660902331
 20
517.951685370502
 30
0
 11
367.5250217849172
 21
508.848484848477
 31
0
  0
LINE
  8
1
 62
3
 10
367.5250217849172
 20
508.848484848477
 30
0
 11
371.5704680479652
 21
508.848484848477
 31
0
  0
LINE
  8
1
 62
3
 10
371.5704680479652
 20
508.848484848477
 30
0
 11
366.699769954961
 21
521.415301218603
 31
0
  0
LINE
  8
1
 62
3
 10
366.699769954961
 20
521.415301218603
 30
0
 11
375.0000000000431
 21
532.051175145079
 31
0
  0
LINE
  8
1
 62
3
 10
375.0000000000431
 20
532.051175145079
 30
0
 11
370.9545537369851
 21
532.051175145079
 31
0
  0
LINE
  8
1
 62
3
 10
370.9545537369851
 20
532.051175145079
 30
0
 11
365.357327556699
 21
524.878917066824
 31
0
  0
LINE
  8
1
 62
3
 10
365.357327556699
 20
524.878917066824
 30
0
 11
362.577474432742
 21
532.051175145079
 31
0
  0
LINE
  8
1
 62
3
 10
372.599327633481
 20
506.1939393939099
 30
0
 11
375
 21
500
 31
0
  0
LINE
  8
1
 62
3
 10
372.599327633481
 20
506.1939393939099
 30
0
 11
329.790178081308
 21
506.1939393939099
 31
0
  0
LINE
  8
1
 62
3
 10
375
 20
500
 30
0
 11
322.40919858119
 21
500
 31
0
  0
LINE
  8
1
 62
3
 10
231.4091845067591
 20
543.1117812056621
 30
0
 11
234.661106684241
 21
556.3845084783202
 31
0
  0
LINE
  8
1
 62
3
 10
234.661106684241
 20
556.3845084783202
 30
0
 11
247.2255691499591
 21
556.3845084783202
 31
0
  0
LINE
  8
1
 62
3
 10
247.2255691499591
 20
556.3845084783202
 30
0
 11
243.973646972284
 21
543.1117812056621
 31
0
  0
LINE
  8
1
 62
3
 10
243.973646972284
 20
543.1117812056621
 30
0
 11
231.4091845067591
 21
543.1117812056621
 31
0
  0
LINE
  8
1
 62
3
 10
242.42155692428
 20
545.3239024177931
 30
0
 11
234.0452486139251
 21
545.3239024177931
 31
0
  0
LINE
  8
1
 62
3
 10
244.589505042757
 20
554.172387266269
 30
0
 11
242.42155692428
 21
545.3239024177931
 31
0
  0
LINE
  8
1
 62
3
 10
236.213196732267
 20
554.172387266269
 30
0
 11
244.589505042757
 21
554.172387266269
 31
0
  0
LINE
  8
1
 62
3
 10
234.0452486139251
 20
545.3239024177931
 30
0
 11
236.213196732267
 21
554.172387266269
 31
0
  0
LINE
  8
1
 62
3
 10
249.7384616429512
 20
556.3845084783202
 30
0
 11
246.4865394654152
 21
543.1117812056621
 31
0
  0
LINE
  8
1
 62
3
 10
249.7384616429512
 20
556.3845084783202
 30
0
 11
262.3029241085311
 21
556.3845084783202
 31
0
  0
LINE
  8
1
 62
3
 10
262.3029241085311
 20
556.3845084783202
 30
0
 11
260.435399998678
 21
548.7622048583319
 31
0
  0
LINE
  8
1
 62
3
 10
259.051001930998
 20
543.1117812056621
 30
0
 11
256.9569248533591
 21
543.1117812056621
 31
0
  0
LINE
  8
1
 62
3
 10
256.9569248533591
 20
543.1117812056621
 30
0
 11
258.040898912731
 21
547.5360236298441
 31
0
  0
LINE
  8
1
 62
3
 10
258.040898912731
 20
547.5360236298441
 30
0
 11
249.6645906022021
 21
547.5360236298441
 31
0
  0
LINE
  8
1
 62
3
 10
250.206577631794
 20
549.7481448420331
 30
0
 11
258.5828859421741
 21
549.7481448420331
 31
0
  0
LINE
  8
1
 62
3
 10
258.5828859421741
 20
549.7481448420331
 30
0
 11
259.6668600014961
 21
554.172387266269
 31
0
  0
LINE
  8
1
 62
3
 10
259.6668600014961
 20
554.172387266269
 30
0
 11
251.2905516909772
 21
554.172387266269
 31
0
  0
LINE
  8
1
 62
3
 10
251.2905516909772
 20
554.172387266269
 30
0
 11
250.206577631794
 21
549.7481448420331
 31
0
  0
LINE
  8
1
 62
3
 10
259.998720317111
 20
546.979895810782
 30
0
 11
259.051001930998
 21
543.1117812056621
 31
0
  0
LINE
  8
1
 62
3
 10
246.4865394654152
 20
543.1117812056621
 30
0
 11
248.580616543091
 21
543.1117812056621
 31
0
  0
LINE
  8
1
 62
3
 10
248.580616543091
 20
543.1117812056621
 30
0
 11
249.6645906022021
 21
547.5360236298441
 31
0
  0
LINE
  8
1
 62
3
 10
266.9098936792581
 20
556.3845084783202
 30
0
 11
264.8158166016941
 21
556.3845084783202
 31
0
  0
LINE
  8
1
 62
3
 10
264.8158166016941
 20
556.3845084783202
 30
0
 11
261.563894424129
 21
543.1117812056621
 31
0
  0
LINE
  8
1
 62
3
 10
261.563894424129
 20
543.1117812056621
 30
0
 11
263.657971501848
 21
543.1117812056621
 31
0
  0
LINE
  8
1
 62
3
 10
263.657971501848
 20
543.1117812056621
 30
0
 11
266.9098936792581
 21
556.3845084783202
 31
0
  0
LINE
  8
1
 62
3
 10
266.170863994833
 20
543.1117812056621
 30
0
 11
269.422786172377
 21
556.3845084783202
 31
0
  0
LINE
  8
1
 62
3
 10
269.422786172377
 20
556.3845084783202
 30
0
 11
281.987248637968
 21
556.3845084783202
 31
0
  0
LINE
  8
1
 62
3
 10
281.987248637968
 20
556.3845084783202
 30
0
 11
280.8490758758411
 21
551.739053932891
 31
0
  0
LINE
  8
1
 62
3
 10
278.7353264604461
 20
543.1117812056621
 30
0
 11
266.170863994833
 21
543.1117812056621
 31
0
  0
LINE
  8
1
 62
3
 10
277.1832364123981
 20
545.3239024177931
 30
0
 11
268.806928102069
 21
545.3239024177931
 31
0
  0
LINE
  8
1
 62
3
 10
279.3511845306931
 20
554.172387266269
 30
0
 11
278.7549987983151
 21
551.739053932891
 31
0
  0
LINE
  8
1
 62
3
 10
270.9748762203961
 20
554.172387266269
 30
0
 11
279.3511845306931
 21
554.172387266269
 31
0
  0
LINE
  8
1
 62
3
 10
268.806928102069
 20
545.3239024177931
 30
0
 11
270.9748762203961
 21
554.172387266269
 31
0
  0
LINE
  8
1
 62
3
 10
280.361287549218
 20
549.7481448420331
 30
0
 11
274.079056316412
 21
549.7481448420331
 31
0
  0
LINE
  8
1
 62
3
 10
280.361287549218
 20
549.7481448420331
 30
0
 11
278.7353264604461
 21
543.1117812056621
 31
0
  0
LINE
  8
1
 62
3
 10
274.079056316412
 20
549.7481448420331
 30
0
 11
273.5370692867651
 21
547.5360236298441
 31
0
  0
LINE
  8
1
 62
3
 10
273.5370692867651
 20
547.5360236298441
 30
0
 11
277.725223442165
 21
547.5360236298441
 31
0
  0
LINE
  8
1
 62
3
 10
277.725223442165
 20
547.5360236298441
 30
0
 11
277.1832364123981
 21
545.3239024177931
 31
0
  0
LINE
  8
1
 62
3
 10
278.7549987983151
 20
551.739053932891
 30
0
 11
280.8490758758411
 21
551.739053932891
 31
0
  0
LINE
  8
1
 62
3
 10
281.2482189535621
 20
543.1117812056621
 30
0
 11
283.3422960311222
 21
543.1117812056621
 31
0
  0
LINE
  8
1
 62
3
 10
283.3422960311222
 20
543.1117812056621
 30
0
 11
286.5942182086911
 21
556.3845084783202
 31
0
  0
LINE
  8
1
 62
3
 10
284.500141131127
 20
556.3845084783202
 30
0
 11
281.2482189535621
 21
543.1117812056621
 31
0
  0
LINE
  8
1
 62
3
 10
286.5942182086911
 20
556.3845084783202
 30
0
 11
284.500141131127
 21
556.3845084783202
 31
0
  0
LINE
  8
1
 62
3
 10
285.855188524292
 20
543.1117812056621
 30
0
 11
289.1071107018071
 21
556.3845084783202
 31
0
  0
LINE
  8
1
 62
3
 10
289.1071107018071
 20
556.3845084783202
 30
0
 11
292.2482263181481
 21
556.3845084783202
 31
0
  0
LINE
  8
1
 62
3
 10
292.2482263181481
 20
556.3845084783202
 30
0
 11
296.7320641844232
 21
544.770872114746
 31
0
  0
LINE
  8
1
 62
3
 10
296.7320641844232
 20
544.770872114746
 30
0
 11
299.577496089776
 21
556.3845084783202
 31
0
  0
LINE
  8
1
 62
3
 10
299.577496089776
 20
556.3845084783202
 30
0
 11
301.67157316739
 21
556.3845084783202
 31
0
  0
LINE
  8
1
 62
3
 10
301.67157316739
 20
556.3845084783202
 30
0
 11
298.4196509897701
 21
543.1117812056621
 31
0
  0
LINE
  8
1
 62
3
 10
298.4196509897701
 20
543.1117812056621
 30
0
 11
295.1769725010012
 21
543.1117812056621
 31
0
  0
LINE
  8
1
 62
3
 10
295.1769725010012
 20
543.1117812056621
 30
0
 11
291.395816165291
 21
552.9053946295351
 31
0
  0
LINE
  8
1
 62
3
 10
291.395816165291
 20
552.9053946295351
 30
0
 11
290.755267898781
 21
554.5644855385979
 31
0
  0
LINE
  8
1
 62
3
 10
290.755267898781
 20
554.5644855385979
 30
0
 11
287.9492656018521
 21
543.1117812056621
 31
0
  0
LINE
  8
1
 62
3
 10
287.9492656018521
 20
543.1117812056621
 30
0
 11
285.855188524292
 21
543.1117812056621
 31
0
  0
LINE
  8
1
 62
3
 10
300.932543482886
 20
543.1117812056621
 30
0
 11
308.443973761783
 21
556.3845084783202
 31
0
  0
LINE
  8
1
 62
3
 10
308.443973761783
 20
556.3845084783202
 30
0
 11
312.489420024758
 21
556.3845084783202
 31
0
  0
LINE
  8
1
 62
3
 10
312.489420024758
 20
556.3845084783202
 30
0
 11
313.49700594852
 21
543.1117812056621
 31
0
  0
LINE
  8
1
 62
3
 10
313.49700594852
 20
543.1117812056621
 30
0
 11
311.467323785451
 21
543.1117812056621
 31
0
  0
LINE
  8
1
 62
3
 10
311.467323785451
 20
543.1117812056621
 30
0
 11
311.2993927981842
 21
545.3239024177931
 31
0
  0
LINE
  8
1
 62
3
 10
311.2993927981842
 20
545.3239024177931
 30
0
 11
304.5632455178201
 21
545.3239024177931
 31
0
  0
LINE
  8
1
 62
3
 10
304.5632455178201
 20
545.3239024177931
 30
0
 11
303.3113404714571
 21
543.1117812056621
 31
0
  0
LINE
  8
1
 62
3
 10
303.3113404714571
 20
543.1117812056621
 30
0
 11
300.932543482886
 21
543.1117812056621
 31
0
  0
LINE
  8
1
 62
3
 10
305.815150564351
 20
547.5360236298441
 30
0
 11
311.1314618108621
 21
547.5360236298441
 31
0
  0
LINE
  8
1
 62
3
 10
311.1314618108621
 20
547.5360236298441
 30
0
 11
310.6276688490071
 21
554.172387266269
 31
0
  0
LINE
  8
1
 62
3
 10
310.6276688490071
 20
554.172387266269
 30
0
 11
309.570865703717
 21
554.172387266269
 31
0
  0
LINE
  8
1
 62
3
 10
305.815150564351
 20
547.5360236298441
 30
0
 11
309.570865703717
 21
554.172387266269
 31
0
  0
LINE
  8
1
 62
3
 10
319.2618206192091
 20
556.3845084783202
 30
0
 11
316.0098984416401
 21
543.1117812056621
 31
0
  0
LINE
  8
1
 62
3
 10
316.0098984416401
 20
543.1117812056621
 30
0
 11
328.5743609072191
 21
543.1117812056621
 31
0
  0
LINE
  8
1
 62
3
 10
328.5743609072191
 20
543.1117812056621
 30
0
 11
329.1163479368801
 21
545.3239024177931
 31
0
  0
LINE
  8
1
 62
3
 10
329.1163479368801
 20
545.3239024177931
 30
0
 11
318.64596254886
 21
545.3239024177931
 31
0
  0
LINE
  8
1
 62
3
 10
318.64596254886
 20
545.3239024177931
 30
0
 11
321.355897696823
 21
556.3845084783202
 31
0
  0
LINE
  8
1
 62
3
 10
321.355897696823
 20
556.3845084783202
 30
0
 11
319.2618206192091
 21
556.3845084783202
 31
0
  0
LINE
  8
1
 62
3
 10
365.8771329834921
 20
550.2001112138419
 30
0
 11
365.8771329834921
 21
547.4510557882823
 31
0
  0
LINE
  8
1
 62
3
 10
365.0046852843772
 20
547.4510557882823
 30
0
 11
365.0046852843772
 21
554.3095239634563
 31
0
  0
LINE
  8
1
 62
3
 10
365.0046852843772
 20
554.3095239634563
 30
0
 11
367.4466051436172
 21
554.3095239634563
 31
0
  0
LINE
  8
1
 62
3
 10
367.4466051436172
 20
554.3095239634563
 30
0
 11
367.7429617259692
 21
554.3095239634563
 31
0
  0
LINE
  8
1
 62
3
 10
369.576596240535
 20
549.3306895546259
 30
0
 11
369.576596240535
 21
547.4510557882823
 31
0
  0
LINE
  8
1
 62
3
 10
369.576596240535
 20
547.4510557882823
 30
0
 11
368.61540942503
 21
547.4510557882823
 31
0
  0
LINE
  8
1
 62
3
 10
368.61540942503
 20
547.4510557882823
 30
0
 11
368.61540942503
 21
549.0729110559
 31
0
  0
LINE
  8
1
 62
3
 10
367.60219468511
 20
550.2001112138419
 30
0
 11
365.8771329834921
 21
550.2001112138419
 31
0
  0
LINE
  8
1
 62
3
 10
365.8771329834921
 20
547.4510557882823
 30
0
 11
365.0046852843772
 21
547.4510557882823
 31
0
  0
LINE
  8
1
 62
3
 10
365.8771329834921
 20
551.050334541276
 30
0
 11
367.8646162114341
 21
551.050334541276
 31
0
  0
LINE
  8
1
 62
3
 10
367.733105975578
 20
553.505992531278
 30
0
 11
365.8771329834921
 21
553.505992531278
 31
0
  0
LINE
  8
1
 62
3
 10
365.8771329834921
 20
553.505992531278
 30
0
 11
365.8771329834921
 21
551.050334541276
 31
0
  0
ARC
  8
1
 62
3
 10
367.6131909171091
 20
552.3039199213811
 30
0
 40
2.00979800886174
 50
304.0700115354277
 51
86.29788871825579
  0
ARC
  8
1
 62
3
 10
367.5348730910952
 20
552.264025930551
 30
0
 40
1.257687287767183
 50
285.1995809529328
 51
80.93139523880343
  0
ARC
  8
1
 62
3
 10
367.4596904528991
 20
549.0530393898221
 30
0
 40
1.155889798231655
 50
0.9850581704851609
 51
82.91825463293485
  0
ARC
  8
1
 62
3
 10
368.1850836393891
 20
549.3622336822259
 30
0
 40
1.39187009132817
 50
358.7013873342734
 51
66.54486649404123
  0
CIRCLE
  8
1
 62
3
 10
367.4063720857301
 20
550.878787878755
 30
0
 40
5.972862778753958
  0
CIRCLE
  8
1
 62
3
 10
367.4063720857301
 20
550.878787878755
 30
0
 40
5.530127989695984
  0
ENDBLK
  8
0
  0
BLOCK
  8
0
  2
WANNE_PICCOLO_SKY_181
 70
0
 10
875
 20
399.9999100026359
 30
0
  0
LINE
  8
MITTELLINIEN
 62
3
  6
DASHDOT
 10
815.6780190000129
 20
440
 30
0
 11
686.010045000002
 21
440
 31
0
  0
LINE
  8
MITTELLINIEN
 62
3
  6
DASHDOT
 10
750
 20
374.3219809999989
 30
0
 11
750
 21
503.9899549999991
 31
0
  0
LINE
  8
1
 62
7
 10
1250
 20
0
 30
0
 11
1750
 21
0
 31
0
  0
LINE
  8
1
 62
7
 10
1750
 20
0
 30
0
 11
1750
 21
800
 31
0
  0
LINE
  8
1
 62
7
 10
0
 20
300
 30
0
 11
0
 21
800
 31
0
  0
LINE
  8
1
 62
7
 10
0
 20
800
 30
0
 11
1750
 21
800
 31
0
  0
ARC
  8
1
 62
7
 10
1379.999996137552
 20
373.0469798131881
 30
0
 40
310.0000011942379
 50
0
 51
74.78022132022539
  0
ARC
  8
1
 62
7
 10
260.0000090883082
 20
494.3371808405341
 30
0
 40
200.0000047491054
 50
180
 51
243.9295637671208
  0
ARC
  8
1
 62
7
 10
805.076226145196
 20
-1740.140309089828
 30
0
 40
2499.999512446125
 50
90
 51
103.7089386348168
  0
ARC
  8
1
 62
7
 10
1270.794129999992
 20
2560.322469999949
 30
0
 40
2499.99999999995
 50
270
 51
272.8582790000003
  0
ARC
  8
1
 62
7
 10
1270.794129999992
 20
2560.322469999949
 30
0
 40
2499.99999999995
 50
243.9295659999997
 51
270
  0
ARC
  8
1
 62
7
 10
1270.794122792777
 20
2560.322454905469
 30
0
 40
2479.999983273869
 50
243.9295659963091
 51
272.8582793698488
  0
ARC
  8
1
 62
7
 10
1379.999999596686
 20
373.046982704308
 30
0
 40
290.0000027210563
 50
272.8582790529414
 51
74.78021810532744
  0
ARC
  8
1
 62
7
 10
1379.999996137552
 20
373.0469798131881
 30
0
 40
310.0000011942389
 50
272.8582808076302
 51
0
  0
ARC
  8
1
 62
7
 10
805.0762384743721
 20
-1740.139892051564
 30
0
 40
2479.999106798412
 50
74.78021705151016
 51
103.7089410540634
  0
ARC
  8
1
 62
7
 10
805.076226145196
 20
-1740.140309089828
 30
0
 40
2499.999512446125
 50
74.78021932758495
 51
90
  0
ARC
  8
1
 62
7
 10
260.0000090883082
 20
494.3371808405341
 30
0
 40
200.0000047491045
 50
103.7089405965576
 51
180
  0
ARC
  8
1
 62
7
 10
260.0000000000182
 20
494.33718
 30
0
 40
180.0000000000029
 50
103.7089360000051
 51
243.9295659999951
  0
ARC
  8
1
 62
7
 10
1159.817418989861
 20
396.8916132271879
 30
0
 40
257.9973732921271
 50
274.1720861715956
 51
73.46641830058076
  0
ARC
  8
1
 62
7
 10
805.076202166515
 20
-1740.140488337001
 30
0
 40
2422.499680904233
 50
79.8198567355296
 51
103.7089371634235
  0
ARC
  8
1
 62
7
 10
1270.794139766263
 20
2560.322491987903
 30
0
 40
2422.500024042768
 50
243.9295660210632
 51
267.8186427872986
  0
ARC
  8
1
 62
7
 10
260.0000010878448
 20
494.337178921696
 30
0
 40
122.5000013053937
 50
103.708936374788
 51
243.9295671891638
  0
ARC
  8
1
 62
7
 10
1248.999974476199
 20
2749.999910450893
 30
0
 40
2750.000090445622
 50
242.9876982367988
 51
270.0208356977056
  0
CIRCLE
  8
WANNE
 62
7
 10
750.0000000000059
 20
440
 30
0
 40
26
  0
CIRCLE
  8
WANNE
 62
7
 10
750.0000000000059
 20
440
 30
0
 40
45
  0
POLYLINE
  8
1
 62
7
 66
1
 70
1
  0
VERTEX
  8
1
 10
725.2763388867554
 20
159.8483280050407
 30
0
 42
-0.0256245625916523
  0
VERTEX
  8
1
 10
725.7203562243966
 20
160.6267994787206
 30
0
 42
-0.06552457434314755
  0
VERTEX
  8
1
 10
726.3893788658256
 20
161.3976444340424
 30
0
 42
-0.006121967984318077
  0
VERTEX
  8
1
 10
727.2626316251283
 20
162.1131124423314
 30
0
 42
-0.05633725240792467
  0
VERTEX
  8
1
 10
729.3299437267974
 20
163.2330303542146
 30
0
 42
-0.04571526804108669
  0
VERTEX
  8
1
 10
730.7011746291073
 20
163.738916556053
 30
0
 42
-0.002396160508943245
  0
VERTEX
  8
1
 10
732.2197262943959
 20
164.1602178442511
 30
0
 42
-0.02982393328909649
  0
VERTEX
  8
1
 10
735.4326450732883
 20
164.7256215039753
 30
0
 42
-0.02589224383327763
  0
VERTEX
  8
1
 10
737.3122072174073
 20
164.9039185097617
 30
0
 42
-0.0008698712255008998
  0
VERTEX
  8
1
 10
739.2782272432911
 20
164.9940938034086
 30
0
 42
-0.02026110617918565
  0
VERTEX
  8
1
 10
743.2923844152011
 20
164.9245444070417
 30
0
 42
-0.01881601084427905
  0
VERTEX
  8
1
 10
745.4448803875154
 20
164.7640267949026
 30
0
 42
-0.0002260589483035815
  0
VERTEX
  8
1
 10
747.6182991596357
 20
164.521443261094
 30
0
 42
-0.01730721381248015
  0
VERTEX
  8
1
 10
751.961161190504
 20
163.805806025515
 30
0
 42
-0.01708545577683096
  0
VERTEX
  8
1
 10
756.245202004804
 20
162.7960627049044
 30
0
 42
-0.01719777651376455
  0
VERTEX
  8
1
 10
758.3447360784398
 20
162.1840556759231
 30
0
 42
-0.0004961276394733981
  0
VERTEX
  8
1
 10
760.3933929825754
 20
161.5043427190266
 30
0
 42
-0.01947009172208737
  0
VERTEX
  8
1
 10
764.1255186056388
 20
160.0246355679316
 30
0
 42
-0.02057053689316128
  0
VERTEX
  8
1
 10
765.9056235189941
 20
159.1852352920144
 30
0
 42
-0.001447198519816673
  0
VERTEX
  8
1
 10
767.5720281908043
 20
158.2977449283214
 30
0
 42
-0.02781383443762302
  0
VERTEX
  8
1
 10
770.3203364303048
 20
156.5400958737926
 30
0
 42
-0.03087276587396856
  0
VERTEX
  8
1
 10
771.560037474819
 20
155.5671440477411
 30
0
 42
-0.003977098318319295
  0
VERTEX
  8
1
 10
772.6312174637062
 20
154.5727756713001
 30
0
 42
-0.0515210264912114
  0
VERTEX
  8
1
 10
774.1087679043737
 20
152.7438852562268
 30
0
 42
-0.06034256381186604
  0
VERTEX
  8
1
 10
774.6396673741642
 20
151.7475868042093
 30
0
 42
-0.006682867485264129
  0
VERTEX
  8
1
 10
774.9607479092878
 20
150.778721215051
 30
0
 42
-0.1009733083480235
  0
VERTEX
  8
1
 10
775.0000020482572
 20
148.9999996275693
 30
0
 42
-0.1014223788201254
  0
VERTEX
  8
1
 10
774.2796437756031
 20
147.3732005212795
 30
0
 42
-0.09806101325354985
  0
VERTEX
  8
1
 10
773.6106211341744
 20
146.6023555659583
 30
0
 42
-0.006121967984225884
  0
VERTEX
  8
1
 10
772.7373683748717
 20
145.8868875576699
 30
0
 42
-0.05633725240786843
  0
VERTEX
  8
1
 10
770.6700562732025
 20
144.7669696457852
 30
0
 42
-0.04571526804203054
  0
VERTEX
  8
1
 10
769.2988253708921
 20
144.2610834439471
 30
0
 42
-0.00239616050896067
  0
VERTEX
  8
1
 10
767.7802737056036
 20
143.8397821557499
 30
0
 42
-0.02982393328897305
  0
VERTEX
  8
1
 10
764.5673549267115
 20
143.2743784960253
 30
0
 42
-0.0258922438330577
  0
VERTEX
  8
1
 10
762.6877927825926
 20
143.0960814902388
 30
0
 42
-0.000869871225499847
  0
VERTEX
  8
1
 10
760.7217727567089
 20
143.005906196592
 30
0
 42
-0.02026110617919128
  0
VERTEX
  8
1
 10
756.7076155847989
 20
143.0754555929592
 30
0
 42
-0.01881601084367983
  0
VERTEX
  8
1
 10
754.5551196124847
 20
143.2359732050983
 30
0
 42
-0.0002260589482921756
  0
VERTEX
  8
1
 10
752.3817008403642
 20
143.4785567389069
 30
0
 42
-0.01730721381248089
  0
VERTEX
  8
1
 10
748.0388388094962
 20
144.1941939744859
 30
0
 42
-0.01708545577682033
  0
VERTEX
  8
1
 10
743.754797995196
 20
145.2039372950967
 30
0
 42
-0.01719777651261149
  0
VERTEX
  8
1
 10
741.6552639215602
 20
145.8159443240777
 30
0
 42
-0.0004961276394825315
  0
VERTEX
  8
1
 10
739.6066070174246
 20
146.4956572809738
 30
0
 42
-0.01947009172212045
  0
VERTEX
  8
1
 10
735.8744813943612
 20
147.9753644320689
 30
0
 42
-0.02057053689291625
  0
VERTEX
  8
1
 10
734.0943764810058
 20
148.8147647079863
 30
0
 42
-0.00144719851981767
  0
VERTEX
  8
1
 10
732.4279718091957
 20
149.7022550716793
 30
0
 42
-0.02781383443761755
  0
VERTEX
  8
1
 10
729.6796635696953
 20
151.4599041262075
 30
0
 42
-0.03087276587406882
  0
VERTEX
  8
1
 10
728.439962525181
 20
152.4328559522589
 30
0
 42
-0.003977098318354025
  0
VERTEX
  8
1
 10
727.3687825362939
 20
153.4272243287003
 30
0
 42
-0.05152102649102855
  0
VERTEX
  8
1
 10
725.8912320956263
 20
155.2561147437751
 30
0
 42
-0.06034256381259551
  0
VERTEX
  8
1
 10
725.3603326258358
 20
156.2524131957915
 30
0
 42
-0.006682867485296019
  0
VERTEX
  8
1
 10
725.0392520907121
 20
157.2212787849489
 30
0
 42
-0.1009733083480707
  0
VERTEX
  8
1
 10
724.999997951742
 20
159.0000003724321
 30
0
  0
VERTEX
  8
1
 10
725.2763388867554
 20
159.8483280050407
 30
0
  0
SEQEND
  8
1
  0
ENDBLK
  8
0
  0
ENDSEC
  0
SECTION
  2
ENTITIES
  0
TEXT
  8
1
 62
2
 10
24.99999999999955
 20
740
 30
0
 40
35
  1
PICCOLO Sky 181
 41
0.5993999999999999
 73
3
 11
24.99999999999955
 21
775
 31
0
  0
TEXT
  8
1
 62
3
 10
800
 20
490
 30
0
 40
35
  1
Ö 52
 41
0.5993999999999999
  0
INSERT
  8
0
  2
DLX
 10
194.6704968477931
 20
500
 30
0
  0
INSERT
  8
0
  2
WANNE_PICCOLO_SKY_181
 10
875
 20
399.9999100026359
 30
0
  0
ENDSEC
  0
EOF
