  0
SECTION
  2
HEADER
  9
$ACADVER
  1
AC1009
  9
$INSBASE
 10
0
 20
0
  9
$EXTMIN
 10
-1.13686837721616e-013
 20
0
  9
$EXTMAX
 10
1750
 20
650
  9
$LIMMIN
 10
-1.13686837721616e-013
 20
0
  9
$LIMMAX
 10
1750
 20
650
  9
$VIEWCTR
 10
10
 20
10
  9
$VIEWSIZE
 40
10
  9
$SNAPMODE
 70
0
  9
$SNAPUNIT
 10
1
 20
1
  9
$SNAPBASE
 10
0
 20
0
  9
$SNAPANG
 50
0
  9
$SNAPSTYLE
 70
0
  9
$SNAPISOPAIR
 70
0
  9
$GRIDMODE
 70
0
  9
$GRIDUNIT
 10
0
 20
0
  9
$ORTHOMODE
 70
0
  9
$REGENMODE
 70
1
  9
$FILLMODE
 70
1
  9
$QTEXTMODE
 70
0
  9
$DRAGMODE
 70
2
  9
$LTSCALE
 40
1
  9
$OSMODE
 70
0
  9
$ATTMODE
 70
1
  9
$TEXTSIZE
 40
3.5
  9
$TRACEWID
 40
0.5
  9
$TEXTSTYLE
  7
STANDARD
  9
$CLAYER
  8
0
  9
$CELTYPE
  6
BYLAYER
  9
$CECOLOR
 62
256
  9
$DIMSCALE
 40
1
  9
$DIMASZ
 40
0.18
  9
$DIMEXO
 40
0.0625
  9
$DIMDLI
 40
0.38
  9
$DIMRND
 40
0
  9
$DIMDLE
 40
0
  9
$DIMEXE
 40
0.18
  9
$DIMTP
 40
0
  9
$DIMTM
 40
0
  9
$DIMTXT
 40
0.18
  9
$DIMCEN
 40
0.09
  9
$DIMTSZ
 40
0
  9
$DIMTOL
 70
0
  9
$DIMLIM
 70
0
  9
$DIMTIH
 70
1
  9
$DIMTOH
 70
1
  9
$DIMSE1
 70
0
  9
$DIMSE2
 70
0
  9
$DIMTAD
 70
0
  9
$DIMZIN
 70
0
  9
$DIMBLK
  1

  9
$DIMASO
 70
1
  9
$DIMSHO
 70
1
  9
$DIMPOST
  1

  9
$DIMAPOST
  1

  9
$DIMALT
 70
0
  9
$DIMALTD
 70
2
  9
$DIMALTF
 40
25.4
  9
$DIMLFAC
 40
1
  9
$DIMTOFL
 70
0
  9
$DIMTVP
 40
0
  9
$DIMTIX
 70
0
  9
$DIMSOXD
 70
0
  9
$DIMSAH
 70
0
  9
$DIMBLK1
  1

  9
$DIMBLK2
  1

  9
$DIMSTYLE
  2
*UNNAMED
  9
$DIMCLRD
 70
0
  9
$DIMCLRE
 70
0
  9
$DIMCLRT
 70
0
  9
$DIMTFAC
 40
1
  9
$DIMGAP
 40
0.09
  9
$LUNITS
 70
2
  9
$LUPREC
 70
4
  9
$AXISMODE
 70
0
  9
$AXISUNIT
 10
0
 20
0
  9
$SKETCHINC
 40
0.1
  9
$FILLETRAD
 40
2
  9
$AUNITS
 70
0
  9
$AUPREC
 70
0
  9
$MENU
  1
ACAD
  9
$ELEVATION
 40
0
  9
$THICKNESS
 40
0
  9
$VIEWDIR
 10
0
 20
0
 30
1
  9
$LIMCHECK
 70
0
  9
$BLIPMODE
 70
1
  9
$CHAMFERA
 40
0
  9
$CHAMFERB
 40
0
  9
$FASTZOOM
 70
1
  9
$SKPOLY
 70
0
  9
$ANGBASE
 50
0
  9
$ANGDIR
 70
0
  9
$PDMODE
 70
0
  9
$PDSIZE
 40
0
  9
$PLINEWID
 40
0
  9
$COORDS
 70
2
  0
ENDSEC
  0
SECTION
  2
TABLES
  0
TABLE
  2
DIMSTYLE
 70
0
  0
ENDTAB
  0
TABLE
  2
LTYPE
 70
9
  0
LTYPE
  2
CONTINUOUS
 70
64
  3
Solid line
 72
65
 73
0
 40
0
  0
LTYPE
  2
BORDER
 70
64
  3
__ __ . __ __ .
 72
65
 73
6
 40
80.59210526315789
 49
23.02631578947369
 49
-11.51315789473684
 49
23.02631578947369
 49
-11.51315789473684
 49
0
 49
-11.51315789473684
  0
LTYPE
  2
CENTER
 70
64
  3
____ _ ____ _
 72
65
 73
4
 40
92.10526315789474
 49
57.56578947368421
 49
-11.51315789473684
 49
11.51315789473684
 49
-11.51315789473684
  0
LTYPE
  2
DASHDOT
 70
64
  3
__ . __ . __ .
 72
65
 73
4
 40
46.05263157894737
 49
23.02631578947369
 49
-11.51315789473684
 49
0
 49
-11.51315789473684
  0
LTYPE
  2
DASHED
 70
64
  3
__ __ __ __ __
 72
65
 73
2
 40
34.53947368421053
 49
23.02631578947369
 49
-11.51315789473684
  0
LTYPE
  2
DIVIDE
 70
64
  3
__ . . __ . . 
 72
65
 73
6
 40
57.56578947368421
 49
23.02631578947369
 49
-11.51315789473684
 49
0
 49
-11.51315789473684
 49
0
 49
-11.51315789473684
  0
LTYPE
  2
DOT
 70
64
  3
..............
 72
65
 73
4
 40
23.02631578947369
 49
0
 49
-11.51315789473684
 49
0
 49
-11.51315789473684
  0
LTYPE
  2
HIDDEN
 70
64
  3
_ _ _ _ _ _ _
 72
65
 73
2
 40
17.26973684210526
 49
11.51315789473684
 49
-5.756578947368421
  0
LTYPE
  2
PHANTOM
 70
64
  3
_____ _ _ _____ _ _ 
 72
65
 73
6
 40
115.1315789473684
 49
57.56578947368421
 49
-11.51315789473684
 49
11.51315789473684
 49
-11.51315789473684
 49
11.51315789473684
 49
-11.51315789473684
  0
ENDTAB
  0
TABLE
  2
LAYER
 70
5
  0
LAYER
  2
MITTELLINIEN
 70
0
 62
7
  6
CONTINUOUS
  0
LAYER
  2
1
 70
0
 62
7
  6
CONTINUOUS
  0
LAYER
  2
WANNE
 70
0
 62
7
  6
CONTINUOUS
  0
LAYER
  2
0
 70
0
 62
7
  6
CONTINUOUS
  0
ENDTAB
  0
TABLE
  2
STYLE
 70
4
  0
STYLE
  2
STANDARD
 70
0
 40
0
 41
1
 50
0
 71
0
 42
3.5
  3
txt
  4

  0
STYLE
  2
SIMPLEX
 70
0
 40
0
 41
1
 50
0
 71
0
 42
3.5
  3
simplex
  4

  0
STYLE
  2
COMPLEX
 70
0
 40
0
 41
1
 50
0
 71
0
 42
3.5
  3
complex
  4

  0
STYLE
  2
ITALIC
 70
0
 40
0
 41
1
 50
0
 71
0
 42
3.5
  3
italic
  4

  0
ENDTAB
  0
TABLE
  2
VIEW
 70
0
  0
ENDTAB
  0
ENDSEC
  0
SECTION
  2
BLOCKS
  0
BLOCK
  8
0
  2
DLX
 70
0
 10
1169.670496847793
 20
350
 30
0
  0
LINE
  8
1
 62
3
 10
1234.998720317111
 20
396.979895810782
 30
0
 11
1234.703317229731
 21
397.9784478723632
 31
0
  0
LINE
  8
1
 62
3
 10
1235.435399998678
 20
398.7622048583319
 30
0
 11
1234.703317229731
 21
397.9784478723632
 31
0
  0
LINE
  8
1
 62
3
 10
1270.466423967347
 20
368.2377087845271
 30
0
 11
1273.850831458228
 21
382.051175145079
 31
0
  0
LINE
  8
1
 62
3
 10
1266.278269812108
 20
368.2377087845271
 30
0
 11
1269.662677303124
 21
382.051175145079
 31
0
  0
LINE
  8
1
 62
3
 10
1266.278269812108
 20
368.2377087845271
 30
0
 11
1270.466423967347
 21
368.2377087845271
 31
0
  0
LINE
  8
1
 62
3
 10
1265.194295752939
 20
363.813466360341
 30
0
 11
1269.382449908127
 21
363.813466360341
 31
0
  0
LINE
  8
1
 62
3
 10
1265.998042417232
 20
350
 30
0
 11
1272.280273650129
 21
350
 31
0
  0
LINE
  8
1
 62
3
 10
1269.662677303124
 20
382.051175145079
 30
0
 11
1263.380446070259
 21
382.051175145079
 31
0
  0
LINE
  8
1
 62
3
 10
1301.073833467082
 20
382.051175145079
 30
0
 11
1293.221044426063
 21
350
 31
0
  0
LINE
  8
1
 62
3
 10
1293.707628175085
 20
377.626932720839
 30
0
 11
1288.022787252361
 21
354.424242424182
 31
0
  0
LINE
  8
1
 62
3
 10
1289.519474019835
 20
377.626932720839
 30
0
 11
1293.707628175085
 21
377.626932720839
 31
0
  0
LINE
  8
1
 62
3
 10
1301.073833467082
 20
382.051175145079
 30
0
 11
1284.321216846252
 21
382.051175145079
 31
0
  0
LINE
  8
1
 62
3
 10
1283.83463309726
 20
354.424242424182
 30
0
 11
1289.519474019835
 21
377.626932720839
 31
0
  0
LINE
  8
1
 62
3
 10
1284.321216846252
 20
382.051175145079
 30
0
 11
1276.468427805255
 21
350
 31
0
  0
LINE
  8
1
 62
3
 10
1288.022787252361
 20
354.424242424182
 30
0
 11
1283.83463309726
 21
354.424242424182
 31
0
  0
LINE
  8
1
 62
3
 10
1276.468427805255
 20
350
 30
0
 11
1293.221044426063
 21
350
 31
0
  0
LINE
  8
1
 62
3
 10
1280.133062691144
 20
382.051175145079
 30
0
 11
1273.850831458228
 21
382.051175145079
 31
0
  0
LINE
  8
1
 62
3
 10
1263.380446070259
 20
382.051175145079
 30
0
 11
1255.527657029266
 21
350
 31
0
  0
LINE
  8
1
 62
3
 10
1261.809888262054
 20
350
 30
0
 11
1265.194295752939
 21
363.813466360341
 31
0
  0
LINE
  8
1
 62
3
 10
1265.998042417232
 20
350
 30
0
 11
1269.382449908127
 21
363.813466360341
 31
0
  0
LINE
  8
1
 62
3
 10
1272.280273650129
 20
350
 30
0
 11
1280.133062691144
 21
382.051175145079
 31
0
  0
LINE
  8
1
 62
3
 10
1255.527657029266
 20
350
 30
0
 11
1261.809888262054
 21
350
 31
0
  0
LINE
  8
1
 62
3
 10
1250.200125534309
 20
370.990569084413
 30
0
 11
1256.482356767115
 21
370.990569084413
 31
0
  0
LINE
  8
1
 62
3
 10
1251.826086623103
 20
377.626932720839
 30
0
 11
1250.200125534309
 21
370.990569084413
 31
0
  0
LINE
  8
1
 62
3
 10
1247.637932467911
 20
377.626932720839
 30
0
 11
1251.826086623103
 21
377.626932720839
 31
0
  0
LINE
  8
1
 62
3
 10
1241.953091545282
 20
354.424242424182
 30
0
 11
1247.637932467911
 21
377.626932720839
 31
0
  0
LINE
  8
1
 62
3
 10
1246.141245700484
 20
354.424242424182
 30
0
 11
1241.953091545282
 21
354.424242424182
 31
0
  0
LINE
  8
1
 62
3
 10
1247.767206789271
 20
361.0606060606083
 30
0
 11
1246.141245700484
 21
354.424242424182
 31
0
  0
LINE
  8
1
 62
3
 10
1254.049438022059
 20
361.0606060606083
 30
0
 11
1247.767206789271
 21
361.0606060606083
 31
0
  0
LINE
  8
1
 62
3
 10
1251.339502874085
 20
350
 30
0
 11
1254.049438022059
 21
361.0606060606083
 31
0
  0
LINE
  8
1
 62
3
 10
1234.586886253332
 20
350
 30
0
 11
1251.339502874085
 21
350
 31
0
  0
LINE
  8
1
 62
3
 10
1242.439675294325
 20
382.051175145079
 30
0
 11
1234.586886253332
 21
350
 31
0
  0
LINE
  8
1
 62
3
 10
1259.192291915045
 20
382.051175145079
 30
0
 11
1242.439675294325
 21
382.051175145079
 31
0
  0
LINE
  8
1
 62
3
 10
1256.482356767115
 20
370.990569084413
 30
0
 11
1259.192291915045
 21
382.051175145079
 31
0
  0
LINE
  8
1
 62
3
 10
1237.167547079949
 20
377.626932720839
 30
0
 11
1238.251521139107
 21
382.051175145079
 31
0
  0
LINE
  8
1
 62
3
 10
1226.697161691969
 20
377.626932720839
 30
0
 11
1237.167547079949
 21
377.626932720839
 31
0
  0
LINE
  8
1
 62
3
 10
1224.264242946956
 20
367.6969696969529
 30
0
 11
1226.697161691969
 21
377.626932720839
 31
0
  0
LINE
  8
1
 62
3
 10
1234.73462833502
 20
367.6969696969529
 30
0
 11
1224.264242946956
 21
367.6969696969529
 31
0
  0
LINE
  8
1
 62
3
 10
1230.398732098096
 20
350
 30
0
 11
1234.73462833502
 21
367.6969696969529
 31
0
  0
LINE
  8
1
 62
3
 10
1213.646115477273
 20
350
 30
0
 11
1230.398732098096
 21
350
 31
0
  0
LINE
  8
1
 62
3
 10
1214.730089536581
 20
354.424242424182
 30
0
 11
1213.646115477273
 21
350
 31
0
  0
LINE
  8
1
 62
3
 10
1225.200474924492
 20
354.424242424182
 30
0
 11
1214.730089536581
 21
354.424242424182
 31
0
  0
LINE
  8
1
 62
3
 10
1227.36842304291
 20
363.2727272727971
 30
0
 11
1225.200474924492
 21
354.424242424182
 31
0
  0
LINE
  8
1
 62
3
 10
1216.898037654944
 20
363.2727272727971
 30
0
 11
1227.36842304291
 21
363.2727272727971
 31
0
  0
LINE
  8
1
 62
3
 10
1221.498904518336
 20
382.051175145079
 30
0
 11
1216.898037654944
 21
363.2727272727971
 31
0
  0
LINE
  8
1
 62
3
 10
1238.251521139107
 20
382.051175145079
 30
0
 11
1221.498904518336
 21
382.051175145079
 31
0
  0
LINE
  8
1
 62
3
 10
1217.310750363173
 20
382.051175145079
 30
0
 11
1209.457961322158
 21
350
 31
0
  0
LINE
  8
1
 62
3
 10
1211.028519130367
 20
382.051175145079
 30
0
 11
1217.310750363173
 21
382.051175145079
 31
0
  0
LINE
  8
1
 62
3
 10
1209.457961322158
 20
350
 30
0
 11
1191.658306162568
 21
350
 31
0
  0
LINE
  8
1
 62
3
 10
1204.259704148561
 20
354.424242424182
 30
0
 11
1211.028519130367
 21
382.051175145079
 31
0
  0
LINE
  8
1
 62
3
 10
1199.024511454576
 20
354.424242424182
 30
0
 11
1204.259704148561
 21
354.424242424182
 31
0
  0
LINE
  8
1
 62
3
 10
1205.793326436371
 20
382.051175145079
 30
0
 11
1199.024511454576
 21
354.424242424182
 31
0
  0
LINE
  8
1
 62
3
 10
1199.511095203561
 20
382.051175145079
 30
0
 11
1205.793326436371
 21
382.051175145079
 31
0
  0
LINE
  8
1
 62
3
 10
1191.658306162568
 20
350
 30
0
 11
1199.511095203561
 21
382.051175145079
 31
0
  0
LINE
  8
1
 62
3
 10
1187.470152007441
 20
350
 30
0
 11
1169.670496847793
 21
350
 31
0
  0
LINE
  8
1
 62
3
 10
1198.032876196361
 20
393.1117812056621
 30
0
 11
1187.470152007441
 21
350
 31
0
  0
LINE
  8
1
 62
3
 10
1174.059549119069
 20
393.1117812056621
 30
0
 11
1198.032876196361
 21
393.1117812056621
 31
0
  0
LINE
  8
1
 62
3
 10
1172.704581545084
 20
387.581478175405
 30
0
 11
1174.059549119069
 21
393.1117812056621
 31
0
  0
LINE
  8
1
 62
3
 10
1190.395677389617
 20
387.581478175405
 30
0
 11
1172.704581545084
 21
387.581478175405
 31
0
  0
LINE
  8
1
 62
3
 10
1182.271894833735
 20
354.424242424182
 30
0
 11
1190.395677389617
 21
387.581478175405
 31
0
  0
LINE
  8
1
 62
3
 10
1177.036702139856
 20
354.424242424182
 30
0
 11
1182.271894833735
 21
354.424242424182
 31
0
  0
LINE
  8
1
 62
3
 10
1183.805517121546
 20
382.051175145079
 30
0
 11
1177.036702139856
 21
354.424242424182
 31
0
  0
LINE
  8
1
 62
3
 10
1177.523285888849
 20
382.051175145079
 30
0
 11
1183.805517121546
 21
382.051175145079
 31
0
  0
LINE
  8
1
 62
3
 10
1169.670496847793
 20
350
 30
0
 11
1177.523285888849
 21
382.051175145079
 31
0
  0
LINE
  8
1
 62
3
 10
1304.790178081308
 20
356.1939393939099
 30
0
 11
1313.835338587399
 21
393.1117812056621
 31
0
  0
LINE
  8
1
 62
3
 10
1313.835338587399
 20
393.1117812056621
 30
0
 11
1307.971922770131
 21
393.1117812056621
 31
0
  0
LINE
  8
1
 62
3
 10
1307.971922770131
 20
393.1117812056621
 30
0
 11
1297.40919858119
 21
350
 31
0
  0
LINE
  8
1
 62
3
 10
1315.31355759476
 20
382.051175145079
 30
0
 11
1309.628716672072
 21
358.848484848477
 31
0
  0
LINE
  8
1
 62
3
 10
1309.628716672072
 20
358.848484848477
 30
0
 11
1325.334294753993
 21
358.848484848477
 31
0
  0
LINE
  8
1
 62
3
 10
1325.334294753993
 20
358.848484848477
 30
0
 11
1331.019135676601
 21
382.051175145079
 31
0
  0
LINE
  8
1
 62
3
 10
1331.019135676601
 20
382.051175145079
 30
0
 11
1325.783942982678
 21
382.051175145079
 31
0
  0
LINE
  8
1
 62
3
 10
1325.783942982678
 20
382.051175145079
 30
0
 11
1321.183076119283
 21
363.2727272727971
 31
0
  0
LINE
  8
1
 62
3
 10
1321.183076119283
 20
363.2727272727971
 30
0
 11
1315.947883425331
 21
363.2727272727971
 31
0
  0
LINE
  8
1
 62
3
 10
1315.947883425331
 20
363.2727272727971
 30
0
 11
1320.548750288682
 21
382.051175145079
 31
0
  0
LINE
  8
1
 62
3
 10
1320.548750288682
 20
382.051175145079
 30
0
 11
1315.31355759476
 21
382.051175145079
 31
0
  0
LINE
  8
1
 62
3
 10
1337.577474432742
 20
382.051175145079
 30
0
 11
1333.532028169727
 21
382.051175145079
 31
0
  0
LINE
  8
1
 62
3
 10
1333.532028169727
 20
382.051175145079
 30
0
 11
1337.654323691924
 21
371.4153012186609
 31
0
  0
LINE
  8
1
 62
3
 10
1337.654323691924
 20
371.4153012186609
 30
0
 11
1327.847187247134
 21
358.848484848477
 31
0
  0
LINE
  8
1
 62
3
 10
1327.847187247134
 20
358.848484848477
 30
0
 11
1331.892633510131
 21
358.848484848477
 31
0
  0
LINE
  8
1
 62
3
 10
1331.892633510131
 20
358.848484848477
 30
0
 11
1338.996766090233
 21
367.951685370502
 31
0
  0
LINE
  8
1
 62
3
 10
1338.996766090233
 20
367.951685370502
 30
0
 11
1342.525021784917
 21
358.848484848477
 31
0
  0
LINE
  8
1
 62
3
 10
1342.525021784917
 20
358.848484848477
 30
0
 11
1346.570468047965
 21
358.848484848477
 31
0
  0
LINE
  8
1
 62
3
 10
1346.570468047965
 20
358.848484848477
 30
0
 11
1341.699769954961
 21
371.415301218603
 31
0
  0
LINE
  8
1
 62
3
 10
1341.699769954961
 20
371.415301218603
 30
0
 11
1350.000000000043
 21
382.051175145079
 31
0
  0
LINE
  8
1
 62
3
 10
1350.000000000043
 20
382.051175145079
 30
0
 11
1345.954553736985
 21
382.051175145079
 31
0
  0
LINE
  8
1
 62
3
 10
1345.954553736985
 20
382.051175145079
 30
0
 11
1340.357327556699
 21
374.878917066824
 31
0
  0
LINE
  8
1
 62
3
 10
1340.357327556699
 20
374.878917066824
 30
0
 11
1337.577474432742
 21
382.051175145079
 31
0
  0
LINE
  8
1
 62
3
 10
1347.599327633481
 20
356.1939393939099
 30
0
 11
1350
 21
350
 31
0
  0
LINE
  8
1
 62
3
 10
1347.599327633481
 20
356.1939393939099
 30
0
 11
1304.790178081308
 21
356.1939393939099
 31
0
  0
LINE
  8
1
 62
3
 10
1350
 20
350
 30
0
 11
1297.40919858119
 21
350
 31
0
  0
LINE
  8
1
 62
3
 10
1206.40918450676
 20
393.1117812056621
 30
0
 11
1209.661106684242
 21
406.3845084783202
 31
0
  0
LINE
  8
1
 62
3
 10
1209.661106684242
 20
406.3845084783202
 30
0
 11
1222.22556914996
 21
406.3845084783202
 31
0
  0
LINE
  8
1
 62
3
 10
1222.22556914996
 20
406.3845084783202
 30
0
 11
1218.973646972285
 21
393.1117812056621
 31
0
  0
LINE
  8
1
 62
3
 10
1218.973646972285
 20
393.1117812056621
 30
0
 11
1206.40918450676
 21
393.1117812056621
 31
0
  0
LINE
  8
1
 62
3
 10
1217.421556924281
 20
395.3239024177931
 30
0
 11
1209.045248613926
 21
395.3239024177931
 31
0
  0
LINE
  8
1
 62
3
 10
1219.589505042757
 20
404.172387266269
 30
0
 11
1217.421556924281
 21
395.3239024177931
 31
0
  0
LINE
  8
1
 62
3
 10
1211.213196732268
 20
404.172387266269
 30
0
 11
1219.589505042757
 21
404.172387266269
 31
0
  0
LINE
  8
1
 62
3
 10
1209.045248613926
 20
395.3239024177931
 30
0
 11
1211.213196732268
 21
404.172387266269
 31
0
  0
LINE
  8
1
 62
3
 10
1224.738461642952
 20
406.3845084783202
 30
0
 11
1221.486539465415
 21
393.1117812056621
 31
0
  0
LINE
  8
1
 62
3
 10
1224.738461642952
 20
406.3845084783202
 30
0
 11
1237.302924108531
 21
406.3845084783202
 31
0
  0
LINE
  8
1
 62
3
 10
1237.302924108531
 20
406.3845084783202
 30
0
 11
1235.435399998678
 21
398.7622048583319
 31
0
  0
LINE
  8
1
 62
3
 10
1234.051001930999
 20
393.1117812056621
 30
0
 11
1231.956924853359
 21
393.1117812056621
 31
0
  0
LINE
  8
1
 62
3
 10
1231.956924853359
 20
393.1117812056621
 30
0
 11
1233.040898912732
 21
397.5360236298441
 31
0
  0
LINE
  8
1
 62
3
 10
1233.040898912732
 20
397.5360236298441
 30
0
 11
1224.664590602202
 21
397.5360236298441
 31
0
  0
LINE
  8
1
 62
3
 10
1225.206577631794
 20
399.7481448420331
 30
0
 11
1233.582885942175
 21
399.7481448420331
 31
0
  0
LINE
  8
1
 62
3
 10
1233.582885942175
 20
399.7481448420331
 30
0
 11
1234.666860001496
 21
404.172387266269
 31
0
  0
LINE
  8
1
 62
3
 10
1234.666860001496
 20
404.172387266269
 30
0
 11
1226.290551690978
 21
404.172387266269
 31
0
  0
LINE
  8
1
 62
3
 10
1226.290551690978
 20
404.172387266269
 30
0
 11
1225.206577631794
 21
399.7481448420331
 31
0
  0
LINE
  8
1
 62
3
 10
1234.998720317111
 20
396.979895810782
 30
0
 11
1234.051001930999
 21
393.1117812056621
 31
0
  0
LINE
  8
1
 62
3
 10
1221.486539465415
 20
393.1117812056621
 30
0
 11
1223.580616543091
 21
393.1117812056621
 31
0
  0
LINE
  8
1
 62
3
 10
1223.580616543091
 20
393.1117812056621
 30
0
 11
1224.664590602202
 21
397.5360236298441
 31
0
  0
LINE
  8
1
 62
3
 10
1241.909893679258
 20
406.3845084783202
 30
0
 11
1239.815816601695
 21
406.3845084783202
 31
0
  0
LINE
  8
1
 62
3
 10
1239.815816601695
 20
406.3845084783202
 30
0
 11
1236.563894424129
 21
393.1117812056621
 31
0
  0
LINE
  8
1
 62
3
 10
1236.563894424129
 20
393.1117812056621
 30
0
 11
1238.657971501849
 21
393.1117812056621
 31
0
  0
LINE
  8
1
 62
3
 10
1238.657971501849
 20
393.1117812056621
 30
0
 11
1241.909893679258
 21
406.3845084783202
 31
0
  0
LINE
  8
1
 62
3
 10
1241.170863994834
 20
393.1117812056621
 30
0
 11
1244.422786172378
 21
406.3845084783202
 31
0
  0
LINE
  8
1
 62
3
 10
1244.422786172378
 20
406.3845084783202
 30
0
 11
1256.987248637968
 21
406.3845084783202
 31
0
  0
LINE
  8
1
 62
3
 10
1256.987248637968
 20
406.3845084783202
 30
0
 11
1255.849075875841
 21
401.739053932891
 31
0
  0
LINE
  8
1
 62
3
 10
1253.735326460446
 20
393.1117812056621
 30
0
 11
1241.170863994834
 21
393.1117812056621
 31
0
  0
LINE
  8
1
 62
3
 10
1252.183236412398
 20
395.3239024177931
 30
0
 11
1243.806928102069
 21
395.3239024177931
 31
0
  0
LINE
  8
1
 62
3
 10
1254.351184530693
 20
404.172387266269
 30
0
 11
1253.754998798315
 21
401.739053932891
 31
0
  0
LINE
  8
1
 62
3
 10
1245.974876220397
 20
404.172387266269
 30
0
 11
1254.351184530693
 21
404.172387266269
 31
0
  0
LINE
  8
1
 62
3
 10
1243.806928102069
 20
395.3239024177931
 30
0
 11
1245.974876220397
 21
404.172387266269
 31
0
  0
LINE
  8
1
 62
3
 10
1255.361287549218
 20
399.7481448420331
 30
0
 11
1249.079056316412
 21
399.7481448420331
 31
0
  0
LINE
  8
1
 62
3
 10
1255.361287549218
 20
399.7481448420331
 30
0
 11
1253.735326460446
 21
393.1117812056621
 31
0
  0
LINE
  8
1
 62
3
 10
1249.079056316412
 20
399.7481448420331
 30
0
 11
1248.537069286765
 21
397.5360236298441
 31
0
  0
LINE
  8
1
 62
3
 10
1248.537069286765
 20
397.5360236298441
 30
0
 11
1252.725223442165
 21
397.5360236298441
 31
0
  0
LINE
  8
1
 62
3
 10
1252.725223442165
 20
397.5360236298441
 30
0
 11
1252.183236412398
 21
395.3239024177931
 31
0
  0
LINE
  8
1
 62
3
 10
1253.754998798315
 20
401.739053932891
 30
0
 11
1255.849075875841
 21
401.739053932891
 31
0
  0
LINE
  8
1
 62
3
 10
1256.248218953562
 20
393.1117812056621
 30
0
 11
1258.342296031122
 21
393.1117812056621
 31
0
  0
LINE
  8
1
 62
3
 10
1258.342296031122
 20
393.1117812056621
 30
0
 11
1261.594218208691
 21
406.3845084783202
 31
0
  0
LINE
  8
1
 62
3
 10
1259.500141131127
 20
406.3845084783202
 30
0
 11
1256.248218953562
 21
393.1117812056621
 31
0
  0
LINE
  8
1
 62
3
 10
1261.594218208691
 20
406.3845084783202
 30
0
 11
1259.500141131127
 21
406.3845084783202
 31
0
  0
LINE
  8
1
 62
3
 10
1260.855188524292
 20
393.1117812056621
 30
0
 11
1264.107110701807
 21
406.3845084783202
 31
0
  0
LINE
  8
1
 62
3
 10
1264.107110701807
 20
406.3845084783202
 30
0
 11
1267.248226318148
 21
406.3845084783202
 31
0
  0
LINE
  8
1
 62
3
 10
1267.248226318148
 20
406.3845084783202
 30
0
 11
1271.732064184423
 21
394.770872114746
 31
0
  0
LINE
  8
1
 62
3
 10
1271.732064184423
 20
394.770872114746
 30
0
 11
1274.577496089776
 21
406.3845084783202
 31
0
  0
LINE
  8
1
 62
3
 10
1274.577496089776
 20
406.3845084783202
 30
0
 11
1276.67157316739
 21
406.3845084783202
 31
0
  0
LINE
  8
1
 62
3
 10
1276.67157316739
 20
406.3845084783202
 30
0
 11
1273.41965098977
 21
393.1117812056621
 31
0
  0
LINE
  8
1
 62
3
 10
1273.41965098977
 20
393.1117812056621
 30
0
 11
1270.176972501001
 21
393.1117812056621
 31
0
  0
LINE
  8
1
 62
3
 10
1270.176972501001
 20
393.1117812056621
 30
0
 11
1266.395816165291
 21
402.9053946295351
 31
0
  0
LINE
  8
1
 62
3
 10
1266.395816165291
 20
402.9053946295351
 30
0
 11
1265.755267898781
 21
404.5644855385979
 31
0
  0
LINE
  8
1
 62
3
 10
1265.755267898781
 20
404.5644855385979
 30
0
 11
1262.949265601852
 21
393.1117812056621
 31
0
  0
LINE
  8
1
 62
3
 10
1262.949265601852
 20
393.1117812056621
 30
0
 11
1260.855188524292
 21
393.1117812056621
 31
0
  0
LINE
  8
1
 62
3
 10
1275.932543482886
 20
393.1117812056621
 30
0
 11
1283.443973761783
 21
406.3845084783202
 31
0
  0
LINE
  8
1
 62
3
 10
1283.443973761783
 20
406.3845084783202
 30
0
 11
1287.489420024758
 21
406.3845084783202
 31
0
  0
LINE
  8
1
 62
3
 10
1287.489420024758
 20
406.3845084783202
 30
0
 11
1288.49700594852
 21
393.1117812056621
 31
0
  0
LINE
  8
1
 62
3
 10
1288.49700594852
 20
393.1117812056621
 30
0
 11
1286.467323785451
 21
393.1117812056621
 31
0
  0
LINE
  8
1
 62
3
 10
1286.467323785451
 20
393.1117812056621
 30
0
 11
1286.299392798184
 21
395.3239024177931
 31
0
  0
LINE
  8
1
 62
3
 10
1286.299392798184
 20
395.3239024177931
 30
0
 11
1279.56324551782
 21
395.3239024177931
 31
0
  0
LINE
  8
1
 62
3
 10
1279.56324551782
 20
395.3239024177931
 30
0
 11
1278.311340471457
 21
393.1117812056621
 31
0
  0
LINE
  8
1
 62
3
 10
1278.311340471457
 20
393.1117812056621
 30
0
 11
1275.932543482886
 21
393.1117812056621
 31
0
  0
LINE
  8
1
 62
3
 10
1280.815150564351
 20
397.5360236298441
 30
0
 11
1286.131461810862
 21
397.5360236298441
 31
0
  0
LINE
  8
1
 62
3
 10
1286.131461810862
 20
397.5360236298441
 30
0
 11
1285.627668849007
 21
404.172387266269
 31
0
  0
LINE
  8
1
 62
3
 10
1285.627668849007
 20
404.172387266269
 30
0
 11
1284.570865703717
 21
404.172387266269
 31
0
  0
LINE
  8
1
 62
3
 10
1280.815150564351
 20
397.5360236298441
 30
0
 11
1284.570865703717
 21
404.172387266269
 31
0
  0
LINE
  8
1
 62
3
 10
1294.261820619209
 20
406.3845084783202
 30
0
 11
1291.00989844164
 21
393.1117812056621
 31
0
  0
LINE
  8
1
 62
3
 10
1291.00989844164
 20
393.1117812056621
 30
0
 11
1303.574360907219
 21
393.1117812056621
 31
0
  0
LINE
  8
1
 62
3
 10
1303.574360907219
 20
393.1117812056621
 30
0
 11
1304.11634793688
 21
395.3239024177931
 31
0
  0
LINE
  8
1
 62
3
 10
1304.11634793688
 20
395.3239024177931
 30
0
 11
1293.64596254886
 21
395.3239024177931
 31
0
  0
LINE
  8
1
 62
3
 10
1293.64596254886
 20
395.3239024177931
 30
0
 11
1296.355897696823
 21
406.3845084783202
 31
0
  0
LINE
  8
1
 62
3
 10
1296.355897696823
 20
406.3845084783202
 30
0
 11
1294.261820619209
 21
406.3845084783202
 31
0
  0
LINE
  8
1
 62
3
 10
1340.877132983492
 20
400.2001112138419
 30
0
 11
1340.877132983492
 21
397.451055788282
 31
0
  0
LINE
  8
1
 62
3
 10
1340.004685284377
 20
397.451055788282
 30
0
 11
1340.004685284377
 21
404.3095239634563
 31
0
  0
LINE
  8
1
 62
3
 10
1340.004685284377
 20
404.3095239634563
 30
0
 11
1342.446605143617
 21
404.3095239634563
 31
0
  0
LINE
  8
1
 62
3
 10
1342.446605143617
 20
404.3095239634563
 30
0
 11
1342.742961725969
 21
404.3095239634563
 31
0
  0
LINE
  8
1
 62
3
 10
1344.576596240535
 20
399.3306895546259
 30
0
 11
1344.576596240535
 21
397.451055788282
 31
0
  0
LINE
  8
1
 62
3
 10
1344.576596240535
 20
397.451055788282
 30
0
 11
1343.61540942503
 21
397.451055788282
 31
0
  0
LINE
  8
1
 62
3
 10
1343.61540942503
 20
397.451055788282
 30
0
 11
1343.61540942503
 21
399.0729110559
 31
0
  0
LINE
  8
1
 62
3
 10
1342.60219468511
 20
400.2001112138419
 30
0
 11
1340.877132983492
 21
400.2001112138419
 31
0
  0
LINE
  8
1
 62
3
 10
1340.877132983492
 20
397.451055788282
 30
0
 11
1340.004685284377
 21
397.451055788282
 31
0
  0
LINE
  8
1
 62
3
 10
1340.877132983492
 20
401.050334541276
 30
0
 11
1342.864616211434
 21
401.050334541276
 31
0
  0
LINE
  8
1
 62
3
 10
1342.733105975578
 20
403.505992531278
 30
0
 11
1340.877132983492
 21
403.505992531278
 31
0
  0
LINE
  8
1
 62
3
 10
1340.877132983492
 20
403.505992531278
 30
0
 11
1340.877132983492
 21
401.050334541276
 31
0
  0
ARC
  8
1
 62
3
 10
1342.613190917109
 20
402.3039199213811
 30
0
 40
2.009798008861834
 50
304.0700115354259
 51
86.29788871825893
  0
ARC
  8
1
 62
3
 10
1342.534873091095
 20
402.264025930551
 30
0
 40
1.257687287767128
 50
285.1995809529335
 51
80.93139523879873
  0
ARC
  8
1
 62
3
 10
1342.459690452899
 20
399.0530393898221
 30
0
 40
1.155889798231881
 50
0.9850581704821496
 51
82.91825463293205
  0
ARC
  8
1
 62
3
 10
1343.185083639389
 20
399.3622336822259
 30
0
 40
1.391870091328397
 50
358.7013873342735
 51
66.544866494036
  0
CIRCLE
  8
1
 62
3
 10
1342.40637208573
 20
400.878787878755
 30
0
 40
5.972862778753957
  0
CIRCLE
  8
1
 62
3
 10
1342.40637208573
 20
400.878787878755
 30
0
 40
5.530127989695984
  0
ENDBLK
  8
0
  0
BLOCK
  8
0
  2
WANNENF_SSE
 70
0
 10
1134.531473999999
 20
0
 30
0
  0
LINE
  8
1
 62
2
 10
1185.538080823757
 20
178.429896316592
 30
0
 11
1185.408739931214
 21
183.4282231299885
 31
0
  0
LINE
  8
1
 62
2
 10
1180.410413117818
 20
183.2988822374459
 30
0
 11
1180.151731332733
 21
193.2955358642385
 31
0
  0
LINE
  8
1
 62
2
 10
1165.027410000001
 20
197.9058400000067
 30
0
 11
1165.156750892544
 21
192.9075131866107
 31
0
  0
LINE
  8
1
 62
2
 10
1165.027410000001
 20
197.9058400000067
 30
0
 11
1185.020717253587
 21
198.4232035701771
 31
0
  0
LINE
  8
1
 62
2
 10
1185.020717253587
 20
198.4232035701771
 30
0
 11
1185.279399038672
 21
188.4265499433845
 31
0
  0
LINE
  8
1
 62
2
 10
1190.277725852069
 20
188.5558908359271
 30
0
 11
1190.407066744611
 21
183.5575640225311
 31
0
  0
LINE
  8
1
 62
2
 10
1225.524695330927
 20
179.4646234569327
 30
0
 11
1225.395354438385
 21
184.4629502703292
 31
0
  0
LINE
  8
1
 62
2
 10
1220.397027624987
 20
184.3336093777866
 30
0
 11
1220.267686732445
 21
189.3319361911827
 31
0
  0
LINE
  8
1
 62
2
 10
1230.39368125178
 20
184.5922911628718
 30
0
 11
1230.134999466695
 21
194.5889447896643
 31
0
  0
LINE
  8
1
 62
2
 10
1225.266013545842
 20
189.4612770837252
 30
0
 11
1225.007331760757
 21
199.4579307105178
 31
0
  0
LINE
  8
1
 62
2
 10
1225.007331760757
 20
199.4579307105178
 30
0
 11
1245.000639014342
 21
199.9752942806881
 31
0
  0
LINE
  8
1
 62
2
 10
1245.000639014342
 20
199.9752942806881
 30
0
 11
1245.129979906885
 21
194.9769674672921
 31
0
  0
LINE
  8
1
 62
2
 10
1200
 20
178.8041250543211
 30
0
 11
1200
 21
85
 31
0
  0
LINE
  8
1
 62
2
 10
1210
 20
179.0628934329634
 30
0
 11
1210
 21
85
 31
0
  0
LINE
  8
1
 62
2
 10
1195
 20
85
 30
0
 11
1190
 21
55
 31
0
  0
LINE
  8
1
 62
2
 10
1215
 20
85
 30
0
 11
1220
 21
55
 31
0
  0
LINE
  8
1
 62
2
 10
1220
 20
55
 30
0
 11
1220
 21
25
 31
0
  0
LINE
  8
1
 62
2
 10
1190
 20
55
 30
0
 11
1190
 21
25
 31
0
  0
LINE
  8
1
 62
2
 10
1185
 20
25
 30
0
 11
1185
 21
0
 31
0
  0
LINE
  8
1
 62
2
 10
1225
 20
25
 30
0
 11
1225
 21
0
 31
0
  0
LINE
  8
1
 62
2
 10
1185.279399038672
 20
188.4265499433845
 30
0
 11
1190.277725852069
 21
188.5558908359271
 31
0
  0
LINE
  8
1
 62
2
 10
1220.267686732445
 20
189.3319361911827
 30
0
 11
1225.266013545842
 21
189.4612770837252
 31
0
  0
LINE
  8
1
 62
2
 10
1165.156750892544
 20
192.9075131866107
 30
0
 11
1180.151731332733
 21
193.2955358642385
 31
0
  0
LINE
  8
1
 62
2
 10
1230.134999466695
 20
194.5889447896643
 30
0
 11
1245.129979906885
 21
194.9769674672921
 31
0
  0
LINE
  8
1
 62
2
 10
1180.410413117818
 20
183.2988822374459
 30
0
 11
1185.408739931214
 21
183.4282231299885
 31
0
  0
LINE
  8
1
 62
2
 10
1190.407066744611
 20
183.5575640225311
 30
0
 11
1220.397027624987
 21
184.3336093777866
 31
0
  0
LINE
  8
1
 62
2
 10
1225.395354438385
 20
184.4629502703292
 30
0
 11
1230.39368125178
 21
184.5922911628718
 31
0
  0
LINE
  8
1
 62
2
 10
1185.538080823757
 20
178.429896316592
 30
0
 11
1225.524695330927
 21
179.4646234569327
 31
0
  0
LINE
  8
1
 62
2
 10
1195
 20
85
 30
0
 11
1215
 21
85
 31
0
  0
LINE
  8
1
 62
2
 10
1190
 20
55
 30
0
 11
1220
 21
55
 31
0
  0
LINE
  8
1
 62
2
 10
1185
 20
25
 30
0
 11
1225
 21
25
 31
0
  0
LINE
  8
1
 62
2
 10
364.5912600687859
 20
179.8345388493044
 30
0
 11
364.4619191762431
 21
174.8362120359079
 31
0
  0
LINE
  8
1
 62
2
 10
369.8482686672669
 20
189.7018515835543
 30
0
 11
369.589586882182
 21
179.7051979567618
 31
0
  0
LINE
  8
1
 62
2
 10
384.8432491074559
 20
189.3138289059266
 30
0
 11
384.972589999998
 21
194.3121557193226
 31
0
  0
LINE
  8
1
 62
2
 10
364.9792827464121
 20
194.829519289493
 30
0
 11
384.972589999998
 21
194.3121557193226
 31
0
  0
LINE
  8
1
 62
2
 10
364.7206009613281
 20
184.8328656627004
 30
0
 11
364.9792827464121
 21
194.829519289493
 31
0
  0
LINE
  8
1
 62
2
 10
359.592933255389
 20
179.963879741847
 30
0
 11
359.7222741479311
 21
184.962206555243
 31
0
  0
LINE
  8
1
 62
2
 10
324.6046455616149
 20
180.8692659896451
 30
0
 11
324.475304669073
 21
175.8709391762486
 31
0
  0
LINE
  8
1
 62
2
 10
329.7323132675549
 20
185.7382519104986
 30
0
 11
329.6029723750121
 21
180.7399250971025
 31
0
  0
LINE
  8
1
 62
2
 10
319.865000533305
 20
190.9952605089802
 30
0
 11
319.60631874822
 21
180.9986068821877
 31
0
  0
LINE
  8
1
 62
2
 10
324.9926682392429
 20
195.8642464298337
 30
0
 11
324.733986454158
 21
185.8675928030411
 31
0
  0
LINE
  8
1
 62
2
 10
304.9993609856581
 20
196.381610000004
 30
0
 11
324.9926682392429
 21
195.8642464298337
 31
0
  0
LINE
  8
1
 62
2
 10
304.870020093115
 20
191.383283186608
 30
0
 11
304.9993609856581
 21
196.381610000004
 31
0
  0
LINE
  8
1
 62
2
 10
350
 20
85
 30
0
 11
350
 21
175.210440773637
 31
0
  0
LINE
  8
1
 62
2
 10
340
 20
85
 30
0
 11
340
 21
175.4692091522793
 31
0
  0
LINE
  8
1
 62
2
 10
360
 20
55
 30
0
 11
355
 21
85
 31
0
  0
LINE
  8
1
 62
2
 10
330
 20
55
 30
0
 11
335
 21
85
 31
0
  0
LINE
  8
1
 62
2
 10
330
 20
25
 30
0
 11
330
 21
55
 31
0
  0
LINE
  8
1
 62
2
 10
360
 20
25
 30
0
 11
360
 21
55
 31
0
  0
LINE
  8
1
 62
2
 10
365
 20
0
 30
0
 11
365
 21
25
 31
0
  0
LINE
  8
1
 62
2
 10
325
 20
0
 30
0
 11
325
 21
25
 31
0
  0
LINE
  8
1
 62
2
 10
359.7222741479311
 20
184.962206555243
 30
0
 11
364.7206009613281
 21
184.8328656627004
 31
0
  0
LINE
  8
1
 62
2
 10
324.733986454158
 20
185.8675928030411
 30
0
 11
329.7323132675549
 21
185.7382519104986
 31
0
  0
LINE
  8
1
 62
2
 10
369.8482686672669
 20
189.7018515835543
 30
0
 11
384.8432491074559
 21
189.3138289059266
 31
0
  0
LINE
  8
1
 62
2
 10
304.870020093115
 20
191.383283186608
 30
0
 11
319.865000533305
 21
190.9952605089802
 31
0
  0
LINE
  8
1
 62
2
 10
364.5912600687859
 20
179.8345388493044
 30
0
 11
369.589586882182
 21
179.7051979567618
 31
0
  0
LINE
  8
1
 62
2
 10
329.6029723750121
 20
180.7399250971025
 30
0
 11
359.592933255389
 21
179.963879741847
 31
0
  0
LINE
  8
1
 62
2
 10
319.60631874822
 20
180.9986068821877
 30
0
 11
324.6046455616149
 21
180.8692659896451
 31
0
  0
LINE
  8
1
 62
2
 10
324.475304669073
 20
175.8709391762486
 30
0
 11
364.4619191762431
 21
174.8362120359079
 31
0
  0
LINE
  8
1
 62
2
 10
335
 20
85
 30
0
 11
355
 21
85
 31
0
  0
LINE
  8
1
 62
2
 10
330
 20
55
 30
0
 11
360
 21
55
 31
0
  0
LINE
  8
1
 62
2
 10
325
 20
25
 30
0
 11
365
 21
25
 31
0
  0
ENDBLK
  8
0
  0
BLOCK
  8
0
  2
WANNE_PICCOLO_SKY_181
 70
0
 10
875
 20
399.9999100026359
 30
0
  0
LINE
  8
MITTELLINIEN
 62
3
  6
DASHDOT
 10
750
 20
509.3219809999989
 30
0
 11
750
 21
638.9899549999991
 31
0
  0
LINE
  8
MITTELLINIEN
 62
3
  6
DASHDOT
 10
815.6780190000129
 20
575
 30
0
 11
686.010045000002
 21
575
 31
0
  0
LINE
  8
1
 62
7
 10
-1.13686837721616e-013
 20
650
 30
0
 11
1750
 21
650
 31
0
  0
LINE
  8
1
 62
7
 10
1750
 20
615
 30
0
 11
0
 21
615
 31
0
  0
LINE
  8
1
 62
7
 10
-1.13686837721616e-013
 20
650
 30
0
 11
0
 21
615
 31
0
  0
LINE
  8
1
 62
7
 10
1750
 20
615
 30
0
 11
1750
 21
650
 31
0
  0
LINE
  8
1
 62
7
 10
1250
 20
615
 30
0
 11
1250
 21
650
 31
0
  0
LINE
  8
1
 62
7
 10
724
 20
190
 30
0
 11
776
 21
190
 31
0
  0
LINE
  8
1
 62
7
 10
705.4863508715409
 20
209.4880517141673
 30
0
 11
724
 21
190
 31
0
  0
LINE
  8
1
 62
7
 10
776
 20
190
 30
0
 11
794.504431859662
 21
209.4783493259597
 31
0
  0
LINE
  8
1
 62
3
  6
DASHDOT
 10
750
 20
165
 30
0
 11
750
 21
235
 31
0
  0
LINE
  8
1
 62
7
 10
706.1236999999831
 20
210
 30
0
 11
793.8762999999981
 21
210
 31
0
  0
LINE
  8
1
 62
7
 10
138.3599710762728
 20
304.958063896152
 30
0
 11
83.69120999999905
 21
615
 31
0
  0
LINE
  8
1
 62
7
 10
793.8762999999981
 20
210
 30
0
 11
1333.300971934922
 21
224.1253270592551
 31
0
  0
LINE
  8
1
 62
7
 10
234.2230521277452
 20
222.3571499442865
 30
0
 11
706.1236999999831
 21
210
 31
0
  0
LINE
  8
1
 62
7
 10
817.2226299999991
 20
190.6113500000065
 30
0
 11
1309.2954
 21
203.4967200000028
 31
0
  0
LINE
  8
1
 62
7
 10
264.0407699999971
 20
201.5763500000035
 30
0
 11
682.0108199999991
 21
190.6314200000047
 31
0
  0
LINE
  8
1
 62
7
 10
817.2226299999991
 20
190.6113500000065
 30
0
 11
793.8762999999981
 21
210
 31
0
  0
LINE
  8
1
 62
7
 10
682.0108199999991
 20
190.6314200000047
 30
0
 11
706.1237000000001
 21
209.9999999999996
 31
0
  0
LINE
  8
1
 62
7
 10
1309.2954
 20
203.4967200000028
 30
0
 11
1334.680069999999
 21
224.1614400000035
 31
0
  0
LINE
  8
1
 62
7
 10
234.2230500000001
 20
222.3571500000035
 30
0
 11
264.0407699999971
 21
201.5763500000035
 31
0
  0
ARC
  8
1
 62
7
 10
216.1772413335189
 20
1374.961125283126
 30
0
 40
1631.813174267354
 50
316.683321182884
 51
332.243445108429
  0
CIRCLE
  8
WANNE
 62
7
 10
750.0000000000059
 20
575
 30
0
 40
26
  0
ARC
  8
1
 62
7
 10
1330.683278047229
 20
324.0910595815069
 30
0
 40
100.0000000000003
 50
271.4999994594616
 51
316.6833211828839
  0
ARC
  8
1
 62
7
 10
236.8407462368041
 20
322.322882460741
 30
0
 40
100.0000000000011
 50
190.0000004642131
 51
268.5000004136617
  0
INSERT
  8
0
  2
WANNENF_SSE
 10
1134.531473999999
 20
0
 30
0
  0
ENDBLK
  8
0
  0
ENDSEC
  0
SECTION
  2
ENTITIES
  0
TEXT
  8
1
 62
2
 10
1035.315
 20
275.0000000000002
 30
0
 40
35
  1
PICCOLO Sky 181
 41
0.5993999999999999
 72
2
 11
1350
 21
275.0000000000002
 31
0
  0
TEXT
  8
1
 62
3
 10
800
 20
490
 30
0
 40
35
  1
Ö 52
 41
0.5993999999999999
 73
3
 11
800
 21
525
 31
0
  0
TEXT
  8
1
 62
3
 10
708.042
 20
105.0000000000003
 30
0
 40
35
  1
Ö 52
 41
0.5993999999999999
 72
1
 73
3
 11
750
 21
140.0000000000003
 31
0
  0
INSERT
  8
0
  2
DLX
 10
1169.670496847793
 20
350
 30
0
  0
INSERT
  8
0
  2
WANNE_PICCOLO_SKY_181
 10
875
 20
399.9999100026359
 30
0
  0
ENDSEC
  0
EOF
