  0
SECTION
  2
HEADER
  9
$ACADVER
  1
AC1014
  9
$ACADMAINTVER
 70
           0
  9
$DWGCODEPAGE
  3
ANSI_1252
  9
$INSBASE
 10
0.0
 20
0.0
 30
0.0
  9
$EXTMIN
 10
1.000000000000E+20
 20
1.000000000000E+20
 30
1.000000000000E+20
  9
$EXTMAX
 10
-1.000000000000E+20
 20
-1.000000000000E+20
 30
-1.000000000000E+20
  9
$LIMMIN
 10
0.0
 20
0.0
  9
$LIMMAX
 10
0.0
 20
0.0
  9
$ORTHOMODE
 70
           0
  9
$REGENMODE
 70
           1
  9
$FILLMODE
 70
           1
  9
$QTEXTMODE
 70
           0
  9
$MIRRTEXT
 70
           1
  9
$DRAGMODE
 70
           2
  9
$LTSCALE
 40
1.0
  9
$OSMODE
 70
           0
  9
$ATTMODE
 70
           1
  9
$TEXTSIZE
 40
0.2
  9
$TRACEWID
 40
0.05
  9
$TEXTSTYLE
  7
STANDARD
  9
$CLAYER
  8
0
  9
$CELTYPE
  6
CONTINUOUS
  9
$CECOLOR
 62
         256
  9
$CELTSCALE
 40
1.0
  9
$DELOBJ
 70
           1
  9
$DISPSILH
 70
           0
  9
$DIMSCALE
 40
1.0
  9
$DIMASZ
 40
0.18
  9
$DIMEXO
 40
0.0625
  9
$DIMDLI
 40
0.38
  9
$DIMRND
 40
0.0
  9
$DIMDLE
 40
0.0
  9
$DIMEXE
 40
0.18
  9
$DIMTP
 40
0.0
  9
$DIMTM
 40
0.0
  9
$DIMTXT
 40
0.18
  9
$DIMCEN
 40
0.09
  9
$DIMTSZ
 40
0.0
  9
$DIMTOL
 70
           0
  9
$DIMLIM
 70
           0
  9
$DIMTIH
 70
           1
  9
$DIMTOH
 70
           1
  9
$DIMSE1
 70
           0
  9
$DIMSE2
 70
           0
  9
$DIMTAD
 70
           0
  9
$DIMZIN
 70
           0
  9
$DIMBLK
  1

  9
$DIMASO
 70
           1
  9
$DIMSHO
 70
           1
  9
$DIMPOST
  1

  9
$DIMAPOST
  1

  9
$DIMALT
 70
           0
  9
$DIMALTD
 70
           2
  9
$DIMALTF
 40
25.4
  9
$DIMLFAC
 40
1.0
  9
$DIMTOFL
 70
           0
  9
$DIMTVP
 40
0.0
  9
$DIMTIX
 70
           0
  9
$DIMSOXD
 70
           0
  9
$DIMSAH
 70
           0
  9
$DIMBLK1
  1

  9
$DIMBLK2
  1

  9
$DIMSTYLE
  2
STANDARD
  9
$DIMCLRD
 70
           0
  9
$DIMCLRE
 70
           0
  9
$DIMCLRT
 70
           0
  9
$DIMTFAC
 40
1.0
  9
$DIMGAP
 40
0.09
  9
$DIMJUST
 70
           0
  9
$DIMSD1
 70
           0
  9
$DIMSD2
 70
           0
  9
$DIMTOLJ
 70
           1
  9
$DIMTZIN
 70
           0
  9
$DIMALTZ
 70
           0
  9
$DIMALTTZ
 70
           0
  9
$DIMFIT
 70
           3
  9
$DIMUPT
 70
           0
  9
$DIMUNIT
 70
           2
  9
$DIMDEC
 70
           4
  9
$DIMTDEC
 70
           4
  9
$DIMALTU
 70
           2
  9
$DIMALTTD
 70
           2
  9
$DIMTXSTY
  7
STANDARD
  9
$DIMAUNIT
 70
           0
  9
$LUNITS
 70
           2
  9
$LUPREC
 70
           4
  9
$SKETCHINC
 40
0.1
  9
$FILLETRAD
 40
0.0
  9
$AUNITS
 70
           0
  9
$AUPREC
 70
           0
  9
$MENU
  1
acad
  9
$ELEVATION
 40
0.0
  9
$PELEVATION
 40
0.0
  9
$THICKNESS
 40
0.0
  9
$LIMCHECK
 70
           0
  9
$BLIPMODE
 70
           1
  9
$CHAMFERA
 40
0.0
  9
$CHAMFERB
 40
0.0
  9
$CHAMFERC
 40
0.0
  9
$CHAMFERD
 40
0.0
  9
$SKPOLY
 70
           0
  9
$TDCREATE
 40
0.000000000
  9
$TDUPDATE
 40
0.000000000
  9
$TDINDWG
 40
0.0000000000
  9
$TDUSRTIMER
 40
0.0000000000
  9
$USRTIMER
 70
           1
  9
$ANGBASE
 50
0.0
  9
$ANGDIR
 70
           0
  9
$PDMODE
 70
           0
  9
$PDSIZE
 40
0.0
  9
$PLINEWID
 40
0.0
  9
$COORDS
 70
           0
  9
$SPLFRAME
 70
           0
  9
$SPLINETYPE
 70
           6
  9
$SPLINESEGS
 70
           8
  9
$ATTDIA
 70
           0
  9
$ATTREQ
 70
           1
  9
$HANDLING
 70
           1
  9
$HANDSEED
  5
15A
  9
$SURFTAB1
 70
           6
  9
$SURFTAB2
 70
           6
  9
$SURFTYPE
 70
           6
  9
$SURFU
 70
           6
  9
$SURFV
 70
           6
  9
$UCSNAME
  2

  9
$UCSORG
 10
0.0
 20
0.0
 30
0.0
  9
$UCSXDIR
 10
1.0
 20
0.0
 30
0.0
  9
$UCSYDIR
 10
0.0
 20
1.0
 30
0.0
  9
$PUCSNAME
  2

  9
$PUCSORG
 10
0.0
 20
0.0
 30
0.0
  9
$PUCSXDIR
 10
1.0
 20
0.0
 30
0.0
  9
$PUCSYDIR
 10
0.0
 20
1.0
 30
0.0
  9
$USERI1
 70
           0
  9
$USERI2
 70
           0
  9
$USERI3
 70
           0
  9
$USERI4
 70
           0
  9
$USERI5
 70
           0
  9
$USERR1
 40
0.0
  9
$USERR2
 40
0.0
  9
$USERR3
 40
0.0
  9
$USERR4
 40
0.0
  9
$USERR5
 40
0.0
  9
$WORLDVIEW
 70
           1
  9
$SHADEDGE
 70
           3
  9
$SHADEDIF
 70
          70
  9
$TILEMODE
 70
           1
  9
$MAXACTVP
 70
          16
  9
$PINSBASE
 10
0.0
 20
0.0
 30
0.0
  9
$PLIMCHECK
 70
           0
  9
$PEXTMIN
 10
1.000000000000E+20
 20
1.000000000000E+20
 30
1.000000000000E+20
  9
$PEXTMAX
 10
-1.000000000000E+20
 20
-1.000000000000E+20
 30
-1.000000000000E+20
  9
$PLIMMIN
 10
0.0
 20
0.0
  9
$PLIMMAX
 10
12.0
 20
9.0
  9
$UNITMODE
 70
           0
  9
$VISRETAIN
 70
           0
  9
$PLINEGEN
 70
           1
  9
$PSLTSCALE
 70
           0
  9
$TREEDEPTH
 70
        3020
  9
$PICKSTYLE
 70
           1
  9
$CMLSTYLE
  2
STANDARD
  9
$CMLJUST
 70
           0
  9
$CMLSCALE
 40
1.0
  9
$PROXYGRAPHICS
 70
           0
  9
$MEASUREMENT
 70
           0
  0
ENDSEC
  0
SECTION
  2
CLASSES
  0
CLASS
  1
LWPOLYLINE
  2
AcDbPolyline
  3
"AutoCAD"
 90
        0
280
           0
281
           1
  0
CLASS
  1
IMAGE
  2
AcDbRasterImage
  3
ISM
 90
      127
280
           0
281
           1
  0
CLASS
  1
OLE2FRAME
  2
AcDbOle2Frame
  3
""
 90
        0
280
           0
281
           1
  0
CLASS
  1
HATCH
  2
AcDbHatch
  3
"ACAD_SEDONA"
 90
        0
280
           0
281
           1
  0
CLASS
  1
DICTIONARYVAR
  2
AcDbDictionaryVar
  3
"AutoCAD"
 90
        0
280
           0
281
           0
  0
CLASS
  1
RASTERVARIABLES
  2
AcDbRasterVariables
  3
ISM
 90
        0
280
           0
281
           0
  0
CLASS
  1
IMAGEDEF
  2
AcDbRasterImageDef
  3
ISM
 90
        0
280
           0
281
           0
  0
CLASS
  1
IMAGEDEF_REACTOR
  2
AcDbRasterImageDefReactor
  3
ISM
 90
        1
280
           0
281
           0
  0
CLASS
  1
IDBUFFER
  2
AcDbIdBuffer
  3
"Acad"
 90
        0
280
           0
281
           0
  0
CLASS
  1
SPATIAL_FILTER
  2
AcDbSpatialFilter
  3
"Acad"
 90
        0
280
           0
281
           0
  0
CLASS
  1
XRECORD
  2
AcDbXrecord
  3
"<Built In>"
 90
        0
280
           0
281
           0
  0
CLASS
  1
SORTENTSTABLE
  2
AcDbSortentsTable
  3
"AutoCAD"
 90
        0
280
           0
281
           0
  0
CLASS
  1
LAYER_INDEX
  2
AcDbLayerIndex
  3
"Acad"
 90
        0
280
           0
281
           0
  0
CLASS
  1
SPATIAL_INDEX
  2
AcDbSpatialIndex
  3
"Acad"
 90
        0
280
           0
281
           0
  0
CLASS
  1
OBJECT_PTR
  2
CAseDLPNTableRecord
  3
"ASE-LPNTableRecord"
 90
        1
280
           0
281
           0
  0
CLASS
  1
LAYOUT
  2
AcDbLayout
  3
"AutoCAD 2000"
 90
        1
280
           0
281
           0
  0
CLASS
  1
PLOTSETTINGS
  2
AcDbPlotSettings
  3
"AutoCAD 2000"
 90
        1
280
           0
281
           0
  0
CLASS
  1
ACDBDICTIONARYWDFLT
  2
AcDbDictionaryWithDefault
  3
"AutoCAD 2000"
 90
        1
280
           0
281
           0
  0
CLASS
  1
ACDBPLACEHOLDER
  2
AcDbPlaceHolder
  3
"AutoCAD 2000"
 90
        1
280
           0
281
           0
  0
CLASS
  1
VBA_PROJECT
  2
AcDbVbaProject
  3
"acadvba"
 90
        1
280
           0
281
           0
  0
CLASS
  1
WIPEOUT
  2
AcDbWipeout
  3
WipeOut|AutoCAD Express Tool|expresstools@autodesk.com
 90
      127
280
           0
281
           1
  0
CLASS
  1
WIPEOUTVARIABLES
  2
AcDbWipeoutVariables
  3
WipeOut|AutoCAD Express Tool|expresstools@autodesk.com
 90
        0
280
           0
281
           0
  0
CLASS
  1
RTEXT
  2
RText
  3
RText|AutoCAD Express Tool|expresstools@autodesk.com
 90
        0
280
           0
281
           1
  0
CLASS
  1
ARCALIGNEDTEXT
  2
AcDbArcAlignedText
  3
ATEXT|AutoCAD Express Tool|expresstools@autodesk.com
 90
        0
280
           0
281
           1
  0
ENDSEC
  0
SECTION
  2
TABLES
  0
TABLE
  2
VPORT
  5
7
100
AcDbSymbolTable
 70
           1
  0
VPORT
  5
15
100
AcDbSymbolTableRecord
100
AcDbViewportTableRecord
  2
*ACTIVE
 70
           0
 10
0.0
 20
0.0
 11
1.0
 21
1.0
 12
6.591288
 22
4.579184
 13
0.0
 23
0.0
 14
1.0
 24
1.0
 15
0.0
 25
0.0
 16
0.0
 26
0.0
 36
1.0
 17
0.0
 27
0.0
 37
0.0
 40
9.158369
 41
0.688564
 42
50.0
 43
0.0
 44
0.0
 50
0.0
 51
0.0
 71
           0
 72
         100
 73
           1
 74
           1
 75
           0
 76
           0
 77
           0
 78
           0
  0
ENDTAB
  0
TABLE
  2
LTYPE
  5
4
100
AcDbSymbolTable
 70
          10
  0
LTYPE
  5
11
100
AcDbSymbolTableRecord
100
AcDbLinetypeTableRecord
  2
BYBLOCK
 70
          64
  3

 72
          65
 73
           0
 40
0.0
  0
LTYPE
  5
12
100
AcDbSymbolTableRecord
100
AcDbLinetypeTableRecord
  2
BYLAYER
 70
          64
  3

 72
          65
 73
           0
 40
0.0
  0
LTYPE
  5
13
100
AcDbSymbolTableRecord
100
AcDbLinetypeTableRecord
  2
CONTINUOUS
 70
          64
  3
Solid line
 72
          65
 73
           0
 40
0.0
  0
LTYPE
  5
1D
100
AcDbSymbolTableRecord
100
AcDbLinetypeTableRecord
  2
DASHED
 70
          64
  3
Dashed
 72
          65
 73
           2
 40
15.0
 49
12.0
 74
           0
 49
-3.0
 74
           0
  0
LTYPE
  5
1E
100
AcDbSymbolTableRecord
100
AcDbLinetypeTableRecord
  2
DOTTED
 70
          64
  3
Dotted
 72
          65
 73
           2
 40
3.5
 49
0.5
 74
           0
 49
-3.0
 74
           0
  0
LTYPE
  5
1F
100
AcDbSymbolTableRecord
100
AcDbLinetypeTableRecord
  2
DOT_CENTER
 70
          64
  3
Dot_Center
 72
          65
 73
           4
 40
2.0
 49
1.25
 74
           0
 49
-0.25
 74
           0
 49
0.25
 74
           0
 49
-0.25
 74
           0
  0
LTYPE
  5
20
100
AcDbSymbolTableRecord
100
AcDbLinetypeTableRecord
  2
LONG_DASHED
 70
          64
  3
Long_Dashed
 72
          65
 73
           2
 40
2.0
 49
1.5
 74
           0
 49
-0.5
 74
           0
  0
LTYPE
  5
21
100
AcDbSymbolTableRecord
100
AcDbLinetypeTableRecord
  2
DASH_CENTER
 70
          64
  3
Dash_Center
 72
          65
 73
           4
 40
36.0
 49
24.0
 74
           0
 49
-3.0
 74
           0
 49
6.0
 74
           0
 49
-3.0
 74
           0
  0
LTYPE
  5
22
100
AcDbSymbolTableRecord
100
AcDbLinetypeTableRecord
  2
PHANTOM
 70
          64
  3
Phantom
 72
          65
 73
           6
 40
2.5
 49
1.25
 74
           0
 49
-0.25
 74
           0
 49
0.25
 74
           0
 49
-0.25
 74
           0
 49
0.25
 74
           0
 49
-0.25
 74
           0
  0
LTYPE
  5
23
100
AcDbSymbolTableRecord
100
AcDbLinetypeTableRecord
  2
CENTER_DASH_DASH
 70
          64
  3
Center_Dash_Dash
 72
          65
 73
           6
 40
22.0
 49
12.0
 74
           0
 49
-3.0
 74
           0
 49
0.5
 74
           0
 49
-3.0
 74
           0
 49
0.5
 74
           0
 49
-3.0
 74
           0
  0
ENDTAB
  0
TABLE
  2
LAYER
  5
2
100
AcDbSymbolTable
 70
           4
  0
LAYER
  5
14
100
AcDbSymbolTableRecord
100
AcDbLayerTableRecord
  2
0
 70
           0
 62
           7
  6
CONTINUOUS
  0
LAYER
  5
24
100
AcDbSymbolTableRecord
100
AcDbLayerTableRecord
  2
MITTELLINIEN
 70
           0
 62
           7
  6
CONTINUOUS
  0
LAYER
  5
25
100
AcDbSymbolTableRecord
100
AcDbLayerTableRecord
  2
1
 70
           0
 62
           7
  6
CONTINUOUS
  0
LAYER
  5
26
100
AcDbSymbolTableRecord
100
AcDbLayerTableRecord
  2
WANNE
 70
           0
 62
           7
  6
CONTINUOUS
  0
ENDTAB
  0
TABLE
  2
STYLE
  5
3
100
AcDbSymbolTable
 70
           2
  0
STYLE
  5
17
100
AcDbSymbolTableRecord
100
AcDbTextStyleTableRecord
  2
STANDARD
 70
           0
 40
0.0
 41
1.0
 50
0.0
 71
           0
 42
0.0
  3
txt
  4

  0
STYLE
  5
156
100
AcDbSymbolTableRecord
100
AcDbTextStyleTableRecord
  2
CONVERTER_1
 70
           0
 40
0.0
 41
0.71262
 50
0.0
 71
           0
 42
0.0
  3
txt.shx
  4

  0
ENDTAB
  0
TABLE
  2
VIEW
  5
5
100
AcDbSymbolTable
 70
           0
  0
ENDTAB
  0
TABLE
  2
UCS
  5
6
100
AcDbSymbolTable
 70
           0
  0
ENDTAB
  0
TABLE
  2
APPID
  5
8
100
AcDbSymbolTable
 70
           1
  0
APPID
  5
16
100
AcDbSymbolTableRecord
100
AcDbRegAppTableRecord
  2
ACAD
 70
           0
  0
ENDTAB
  0
TABLE
  2
DIMSTYLE
  5
9
100
AcDbSymbolTable
 70
           1
  0
DIMSTYLE
105
18
100
AcDbSymbolTableRecord
100
AcDbDimStyleTableRecord
  2
STANDARD
 70
           0
  3

  4

  5

  6

  7

 40
1.0
 41
0.18
 42
0.0625
 43
0.38
 44
0.18
 45
0.0
 46
0.0
 47
0.0
 48
0.0
 71
           0
 72
           0
 73
           1
 74
           1
 75
           0
 76
           0
 77
           0
 78
           0
140
0.18
141
0.09
142
0.0
143
25.4
144
1.0
145
0.0
146
1.0
147
0.09
170
           0
171
           2
172
           0
173
           0
174
           0
175
           0
176
           0
177
           0
178
           0
270
           2
271
           4
272
           4
273
           2
274
           2
275
           0
280
           0
281
           0
282
           0
283
           1
284
           0
285
           0
286
           0
287
           0
288
           0
340
17
  0
ENDTAB
  0
TABLE
  2
BLOCK_RECORD
  5
1
100
AcDbSymbolTable
 70
           2
  0
BLOCK_RECORD
  5
A
100
AcDbSymbolTableRecord
100
AcDbBlockTableRecord
  2
*MODEL_SPACE
  0
BLOCK_RECORD
  5
B
100
AcDbSymbolTableRecord
100
AcDbBlockTableRecord
  2
*PAPER_SPACE
  0
BLOCK_RECORD
  5
27
100
AcDbSymbolTableRecord
100
AcDbBlockTableRecord
  2
WANNE_PICCOLO_STEP_IN_LIN0
  0
BLOCK_RECORD
  5
29
100
AcDbSymbolTableRecord
100
AcDbBlockTableRecord
  2
DLX
  0
ENDTAB
  0
ENDSEC
  0
SECTION
  2
BLOCKS
  0
BLOCK
  5
D
100
AcDbEntity
  8
0
100
AcDbBlockBegin
  2
*MODEL_SPACE
 70
           0
 10
0.0
 20
0.0
 30
0.0
  3
*MODEL_SPACE
  1

  0
ENDBLK
  5
E
100
AcDbEntity
  8
0
100
AcDbBlockEnd
  0
BLOCK
  5
F
100
AcDbEntity
 67
           1
  8
0
100
AcDbBlockBegin
  2
*PAPER_SPACE
 70
           0
 10
0.0
 20
0.0
 30
0.0
  3
*PAPER_SPACE
  1

  0
ENDBLK
  5
10
100
AcDbEntity
 67
           1
  8
0
100
AcDbBlockEnd
  0
BLOCK
  5
28
100
AcDbEntity
  8
0
100
AcDbBlockBegin
  2
WANNE_PICCOLO_STEP_IN_LIN0
 70
           0
 10
0.0
 20
0.0
 30
0.0
  3
WANNE_PICCOLO_STEP_IN_LIN0
  1

  0
ARC
  5
9E
100
AcDbEntity
  8
1
  6
CONTINUOUS
 62
           7
100
AcDbCircle
 10
145.0
 20
146.750504592966
 40
50.0
100
AcDbArc
 50
180.0
 51
-81.950326934209
  0
ARC
  5
9D
100
AcDbEntity
  8
1
  6
CONTINUOUS
 62
           7
100
AcDbCircle
 10
1600.0
 20
352.523916159857
 40
50.0
100
AcDbArc
 50
-81.950326934209
 51
0.0
  0
ARC
  5
9C
100
AcDbEntity
  8
1
  6
CONTINUOUS
 62
           7
100
AcDbCircle
 10
1605.0
 20
840.421777939881
 40
45.0
100
AcDbArc
 50
0.0
 51
90.0
  0
ARC
  5
9B
100
AcDbEntity
  8
1
  6
CONTINUOUS
 62
           7
100
AcDbCircle
 10
140.0
 20
840.421777939881
 40
45.0
100
AcDbArc
 50
90.0
 51
180.0
  0
ARC
  5
9A
100
AcDbEntity
  8
1
  6
CONTINUOUS
 62
           7
100
AcDbCircle
 10
1405.736996649788
 20
784.975130419242
 40
55.0
100
AcDbArc
 50
0.0
 51
90.0
  0
ARC
  5
99
100
AcDbEntity
  8
1
  6
CONTINUOUS
 62
           7
100
AcDbCircle
 10
1380.736996649788
 20
391.70885688813
 40
80.000000000001
100
AcDbArc
 50
-75.734762324787
 51
0.0
  0
ARC
  5
98
100
AcDbEntity
  8
1
  6
CONTINUOUS
 62
           7
100
AcDbCircle
 10
227.035797053585
 20
754.975130419242
 40
85.0
100
AcDbArc
 50
90.0
 51
180.0
  0
ARC
  5
97
100
AcDbEntity
  8
1
  6
CONTINUOUS
 62
           7
100
AcDbCircle
 10
227.035797053585
 20
233.596390778506
 40
85.0
100
AcDbArc
 50
180.0
 51
-81.950326934209
  0
SPLINE
  5
96
100
AcDbEntity
  8
1
  6
CONTINUOUS
 62
           7
100
AcDbSpline
210
0.0
220
0.0
230
1.0
 70
           0
 71
           3
 72
          41
 73
          38
 74
          77
 42
0.00000000001
 43
0.00000000001
 44
0.00000000001
 40
-1.9332773527494425
 40
-0.0519149600598183
 40
1.8294474326298031
 40
3.8160231382409919
 40
6.0890057211307713
 40
8.7583165725683472
 40
11.856343216495699
 40
15.358060651053478
 40
19.202594105612505
 40
23.306173214999006
 40
27.570576436275765
 40
31.889464432284626
 40
36.153867653561036
 40
40.257446762948035
 40
44.101980217507055
 40
47.603697652064405
 40
50.701724295991362
 40
53.371035147428159
 40
55.644017730318069
 40
57.630593435929811
 40
59.511955828620451
 40
61.498531534232356
 40
63.771514117121363
 40
66.440824968558175
 40
69.538851612485232
 40
73.040569047043022
 40
76.885102501602503
 40
80.988681610989886
 40
85.253084832266254
 40
89.571972828273701
 40
93.836376049549941
 40
97.939955158937551
 40
101.78448861349719
 40
105.28620604805405
 40
108.38423269198125
 40
111.05354354342001
 40
113.32652612630926
 40
115.3131018319196
 40
117.19446422460925
 40
119.07582661729887
 40
120.9571890099885
 10
708.01497436237696
 20
195.82513841254541
 30
0.0
 10
707.33898211142377
 20
197.58086018129981
 30
0.0
 10
705.91056954035503
 20
199.10900246029971
 30
0.0
 10
703.82248050945691
 20
200.39852359651971
 30
0.0
 10
701.1323819337108
 20
201.43938661159561
 30
0.0
 10
697.91131740908077
 20
202.20846989727491
 30
0.0
 10
694.25025405147699
 20
202.68407761407781
 30
0.0
 10
690.25652156715387
 20
202.85148920373169
 30
0.0
 10
686.04915062642567
 20
202.70505459829721
 30
0.0
 10
681.75443368500783
 20
202.2487653093892
 30
0.0
 10
677.50161488027607
 20
201.49621914058281
 30
0.0
 10
673.4186404153229
 20
200.47019143866851
 30
0.0
 10
669.62795670950072
 20
199.20186859368459
 30
0.0
 10
666.24235954156802
 20
197.72968673496189
 30
0.0
 10
663.36088733047109
 20
196.09755203806441
 30
0.0
 10
661.0649233364561
 20
194.35153499875261
 30
0.0
 10
659.41631328313906
 20
192.53355110063561
 30
0.0
 10
658.467679231685
 20
190.66923494330581
 30
0.0
 10
658.30506595213183
 20
188.79491336632401
 30
0.0
 10
658.98105820308592
 20
187.03919159756771
 30
0.0
 10
660.40947077415603
 20
185.51104931857
 30
0.0
 10
662.49755980505188
 20
184.22152818234801
 30
0.0
 10
665.18765838079798
 20
183.1806651672739
 30
0.0
 10
668.40872290542802
 20
182.4115818815944
 30
0.0
 10
672.0697862630318
 20
181.93597416479159
 30
0.0
 10
676.06351874735583
 20
181.76856257513779
 30
0.0
 10
680.27088968808494
 20
181.91499718057031
 30
0.0
 10
684.56560662950096
 20
182.37128646948011
 30
0.0
 10
688.81842543423181
 20
183.12383263828471
 30
0.0
 10
692.90139989918498
 20
184.14986034020259
 30
0.0
 10
696.69208360500807
 20
185.41818318518489
 30
0.0
 10
700.07768077294168
 20
186.89036504390771
 30
0.0
 10
702.9591529840377
 20
188.52249974080311
 30
0.0
 10
705.25511697805268
 20
190.26851678011869
 30
0.0
 10
706.903727031372
 20
192.08650067823581
 30
0.0
 10
707.85236108282379
 20
193.9508168355635
 30
0.0
 10
708.01497436237696
 20
195.82513841254541
 30
0.0
 10
707.33898211142377
 20
197.58086018129981
 30
0.0
 11
707.68617220309432
 21
196.67912025605324
 31
0.0
 11
707.25923362657022
 21
197.53359921009468
 31
0.0
 11
706.67279808033891
 21
198.29355622172585
 31
0.0
 11
705.86104633300477
 21
199.053405017399
 31
0.0
 11
704.95024817097033
 21
199.70205892727074
 31
0.0
 11
703.79315620686873
 21
200.34484371992372
 31
0.0
 11
702.57741563759066
 21
200.88026875938473
 31
0.0
 11
701.11563540977511
 21
201.38986218275707
 31
0.0
 11
699.62036213408805
 21
201.80040674845227
 31
0.0
 11
697.90230131156
 21
202.16313076932974
 31
0.0
 11
696.16620829398994
 21
202.43517653431698
 31
0.0
 11
694.24629656607829
 21
202.6420967560004
 31
0.0
 11
692.318469867369
 21
202.76505526152897
 31
0.0
 11
690.25619494854857
 21
202.81192818302952
 31
0.0
 11
688.19326679251776
 21
202.77967906312585
 31
0.0
 11
686.05174778570722
 21
202.66703660593123
 31
0.0
 11
683.91542309745978
 21
202.47835816400465
 31
0.0
 11
681.75970419707039
 21
202.21149812801502
 31
0.0
 11
679.61452632080614
 21
201.87010372927699
 31
0.0
 11
677.50966210507977
 21
201.45897192387042
 31
0.0
 11
675.42089233896127
 21
200.97334568503913
 31
0.0
 11
673.42992464167423
 21
200.43227248200574
 31
0.0
 11
671.46152539708987
 21
199.81536136564671
 31
0.0
 11
669.64340043829964
 21
199.16263155281285
 31
0.0
 11
667.856162937107
 21
198.43142765823552
 31
0.0
 11
666.26359475607364
 21
197.68862589958039
 31
0.0
 11
664.71349700405153
 21
196.86370247016225
 31
0.0
 11
663.39071040136946
 21
196.05461371534582
 31
0.0
 11
662.12756994048425
 21
195.15964831509228
 31
0.0
 11
661.10798323568622
 21
194.30809205971755
 31
0.0
 11
660.17451632934831
 21
193.36964992627264
 31
0.0
 11
659.47931168113337
 21
192.49386702859888
 31
0.0
 11
658.91010382890715
 21
191.53871598685166
 31
0.0
 11
658.55740580753559
 21
190.64594198682005
 31
0.0
 11
658.38416093786532
 21
189.70658207381697
 31
0.0
 11
658.407040238386
 21
188.80933508232005
 31
0.0
 11
658.63386811141504
 21
187.94093152281519
 31
0.0
 11
659.06080668793959
 21
187.0864525687733
 31
0.0
 11
659.6472422341717
 21
186.32649555714244
 31
0.0
 11
660.45899398150573
 21
185.56664676147014
 31
0.0
 11
661.36979214353971
 21
184.91799285159806
 31
0.0
 11
662.5268841076404
 21
184.27520805894449
 31
0.0
 11
663.74262467691801
 21
183.73978301948387
 31
0.0
 11
665.20440490473368
 21
183.23018959611221
 31
0.0
 11
666.69967818042073
 21
182.81964503041715
 31
0.0
 11
668.41773900294891
 21
182.4569210095396
 31
0.0
 11
670.15383202051873
 21
182.18487524455239
 31
0.0
 11
672.07374374843062
 21
181.97795502286905
 31
0.0
 11
674.00157044714001
 21
181.85499651734048
 31
0.0
 11
676.06384536596113
 21
181.8081235958397
 31
0.0
 11
678.12677352199285
 21
181.84037271574269
 31
0.0
 11
680.26829252880327
 21
181.95301517293677
 31
0.0
 11
682.40461721705026
 21
182.14169361486381
 31
0.0
 11
684.56033611743851
 21
182.40855365085383
 31
0.0
 11
686.70551399370197
 21
182.74994804959135
 31
0.0
 11
688.81037820942799
 21
183.16107985499769
 31
0.0
 11
690.8991479755465
 21
183.64670609383012
 31
0.0
 11
692.89011567283364
 21
184.18777929686473
 31
0.0
 11
694.85851491741846
 21
184.80469041322357
 31
0.0
 11
696.67663987620926
 21
185.45742022605685
 31
0.0
 11
698.46387737740247
 21
186.1886241206341
 31
0.0
 11
700.05644555843583
 21
186.93142587928889
 31
0.0
 11
701.60654331045748
 21
187.75634930870615
 31
0.0
 11
702.92932991313933
 21
188.56543806352232
 31
0.0
 11
704.1924703740242
 21
189.46040346377697
 31
0.0
 11
705.21205707882291
 21
190.31195971915338
 31
0.0
 11
706.14552398516207
 21
191.25040185259917
 31
0.0
 11
706.84072863337724
 21
192.12618475027239
 31
0.0
 11
707.40993648560277
 21
193.08133579201882
 31
0.0
 11
707.76263450697343
 21
193.97410979204955
 31
0.0
 11
707.93587937664347
 21
194.91346970505231
 31
0.0
 11
707.91070158457433
 21
195.8166864567664
 31
0.0
 11
707.67697823690037
 21
196.7029992969226
 31
0.0
 11
707.50798017416207
 21
197.14192973911119
 31
0.0
 11
707.67697823690037
 21
196.7029992969226
 31
0.0
 11
707.84827479118701
 21
196.25809909451664
 31
0.0
 11
707.68617220309432
 21
196.67912025605324
 31
0.0
  0
CIRCLE
  5
95
100
AcDbEntity
  8
WANNE
  6
CONTINUOUS
 62
           7
100
AcDbCircle
 10
255.653422603734
 20
269.610889930863
 40
45.0
  0
CIRCLE
  5
94
100
AcDbEntity
  8
WANNE
  6
CONTINUOUS
 62
           7
100
AcDbCircle
 10
255.653422603729
 20
269.610889930863
 40
26.0
  0
ARC
  5
93
100
AcDbEntity
  8
1
  6
CONTINUOUS
 62
           7
100
AcDbCircle
 10
885.801534623259
 20
158.410784764522
 40
7.998531137365
100
AcDbArc
 50
-3.499827108889
 51
97.978129469698
  0
ARC
  5
92
100
AcDbEntity
  8
1
  6
CONTINUOUS
 62
           7
100
AcDbCircle
 10
861.511510027232
 20
173.177268636944
 40
9.994730426716
100
AcDbArc
 50
-169.110809766708
 51
-82.027160964938
  0
ARC
  5
91
100
AcDbEntity
  8
1
  6
CONTINUOUS
 62
           7
100
AcDbCircle
 10
888.987990176543
 20
133.972976349435
 40
8.17788950371
100
AcDbArc
 50
-84.966350355212
 51
15.779333317405
  0
ARC
  5
90
100
AcDbEntity
  8
1
  6
CONTINUOUS
 62
           7
100
AcDbCircle
 10
887.789419810199
 20
168.345025610484
 40
7.997264780748
100
AcDbArc
 50
7.989187324232
 51
97.989192099866
  0
ARC
  5
8F
100
AcDbEntity
  8
1
  6
CONTINUOUS
 62
           7
100
AcDbCircle
 10
863.508937970414
 20
183.181369401876
 40
9.996580837714
100
AcDbArc
 50
-172.010813529274
 51
-82.010808571657
  0
ARC
  5
8E
100
AcDbEntity
  8
1
  6
CONTINUOUS
 62
           7
100
AcDbCircle
 10
887.865619771924
 20
137.841611373928
 40
12.155045005568
100
AcDbArc
 50
-81.293691968497
 51
7.236537813357
  0
ARC
  5
8D
100
AcDbEntity
  8
1
  6
CONTINUOUS
 62
           7
100
AcDbCircle
 10
838.329276927973
 20
218.890062840716
 40
9.994702671046
100
AcDbArc
 50
8.440520953856
 51
98.01015741815
  0
ARC
  5
8C
100
AcDbEntity
  8
1
  6
CONTINUOUS
 62
           7
100
AcDbCircle
 10
864.507338536458
 20
230.851740506807
 40
13.110318505658
100
AcDbArc
 50
5.437567612034
 51
81.158173712565
  0
ARC
  5
8B
100
AcDbEntity
  8
1
  6
CONTINUOUS
 62
           7
100
AcDbCircle
 10
840.625431992155
 20
193.892997682997
 40
8.037391859159
100
AcDbArc
 50
22.09890609437
 51
95.86669483536
  0
ARC
  5
8A
100
AcDbEntity
  8
1
  6
CONTINUOUS
 62
           7
100
AcDbCircle
 10
865.03195033113
 20
209.545128019467
 40
19.992109268823
100
AcDbArc
 50
102.926453043508
 51
147.261030334053
  0
ARC
  5
89
100
AcDbEntity
  8
1
  6
CONTINUOUS
 62
           7
100
AcDbCircle
 10
884.729877125739
 20
143.607530155003
 40
88.776670885887
100
AcDbArc
 50
94.633295651688
 51
105.79867892899
  0
ARC
  5
88
100
AcDbEntity
  8
1
  6
CONTINUOUS
 62
           7
100
AcDbCircle
 10
972.738095309477
 20
251.150211623951
 40
137.630547256523
100
AcDbArc
 50
-170.648810154557
 51
-162.072863400273
  0
ARC
  5
87
100
AcDbEntity
  8
1
  6
CONTINUOUS
 62
           7
100
AcDbCircle
 10
835.151226060999
 20
206.962595761724
 40
6.884466745765
100
AcDbArc
 50
-47.482036683562
 51
15.363049312777
  0
ARC
  5
86
100
AcDbEntity
  8
1
  6
CONTINUOUS
 62
           7
100
AcDbCircle
 10
846.837820792808
 20
425.517622346074
 40
195.847985935034
100
AcDbArc
 50
-80.975276754079
 51
-72.989020235232
  0
ARC
  5
85
100
AcDbEntity
  8
1
  6
CONTINUOUS
 62
           7
100
AcDbCircle
 10
805.192799588593
 20
430.308174276008
 40
196.327008302054
100
AcDbArc
 50
-71.796955772213
 51
-65.256718600798
  0
ARC
  5
84
100
AcDbEntity
  8
1
  6
CONTINUOUS
 62
           7
100
AcDbCircle
 10
980.116736150802
 20
58.181069822923
 40
214.873430260962
100
AcDbArc
 50
100.158854353984
 51
115.572470922351
  0
ARC
  5
83
100
AcDbEntity
  8
1
  6
CONTINUOUS
 62
           7
100
AcDbCircle
 10
966.515763135654
 20
95.920016917842
 40
153.953854492546
100
AcDbArc
 50
97.947644463974
 51
105.234575412563
  0
ARC
  5
82
100
AcDbEntity
  8
1
  6
CONTINUOUS
 62
           7
100
AcDbCircle
 10
848.431203063078
 20
222.83480758319
 40
12.944463081293
100
AcDbArc
 50
109.85808547524
 51
152.622909900573
  0
ARC
  5
81
100
AcDbEntity
  8
1
  6
CONTINUOUS
 62
           7
100
AcDbCircle
 10
918.507933255966
 20
77.764009243774
 40
173.989988284384
100
AcDbArc
 50
107.38458874751
 51
115.3429393311
  0
ARC
  5
80
100
AcDbEntity
  8
1
  6
CONTINUOUS
 62
           7
100
AcDbCircle
 10
874.590516991662
 20
153.547705395795
 40
21.985757875278
100
AcDbArc
 50
100.794732816328
 51
116.157459240835
  0
ARC
  5
7F
100
AcDbEntity
  8
1
  6
CONTINUOUS
 62
           7
100
AcDbCircle
 10
893.721749186423
 20
162.712384956867
 40
15.273511176408
100
AcDbArc
 50
98.358466224561
 51
117.463284349017
  0
ARC
  5
7E
100
AcDbEntity
  8
1
  6
CONTINUOUS
 62
           7
100
AcDbCircle
 10
1037.055437872416
 20
-544.090256776872
 40
736.441207488911
100
AcDbArc
 50
96.48948344884
 51
101.399279783133
  0
ARC
  5
7D
100
AcDbEntity
  8
1
  6
CONTINUOUS
 62
           7
100
AcDbCircle
 10
1085.043726535177
 20
-892.200116579599
 40
1088.698781330246
100
AcDbArc
 50
96.929574948489
 51
101.366804015761
  0
ARC
  5
7C
100
AcDbEntity
  8
1
  6
CONTINUOUS
 62
           7
100
AcDbCircle
 10
1384.743953814101
 20
228.973728937997
 40
7.998531137391
100
AcDbArc
 50
98.121216661898
 51
-160.400826759518
  0
ARC
  5
7B
100
AcDbEntity
  8
1
  6
CONTINUOUS
 62
           7
100
AcDbCircle
 10
1403.986579523195
 20
249.896818973884
 40
9.99473042673
100
AcDbArc
 50
-81.873492903469
 51
5.210155898299
  0
ARC
  5
7A
100
AcDbEntity
  8
1
  6
CONTINUOUS
 62
           7
100
AcDbCircle
 10
1388.459158076482
 20
204.610698822383
 40
8.177889503678
100
AcDbArc
 50
-179.679987185815
 51
-78.934303513194
  0
ARC
  5
79
100
AcDbEntity
  8
1
  6
CONTINUOUS
 62
           7
100
AcDbCircle
 10
1380.079227243338
 20
237.967123998933
 40
7.997264780747
100
AcDbArc
 50
98.110154031729
 51
-171.889841192642
  0
ARC
  5
78
100
AcDbEntity
  8
1
  6
CONTINUOUS
 62
           7
100
AcDbCircle
 10
1399.293312027738
 20
258.954687968255
 40
9.996580837714
100
AcDbArc
 50
-81.889845296749
 51
8.110159660867
  0
ARC
  5
77
100
AcDbEntity
  8
1
  6
CONTINUOUS
 62
           7
100
AcDbCircle
 10
1388.464724953833
 20
208.638852405326
 40
12.155045005569
100
AcDbArc
 50
-171.137191681766
 51
-82.606961899912
  0
ARC
  5
76
100
AcDbEntity
  8
1
  6
CONTINUOUS
 62
           7
100
AcDbCircle
 10
1413.583332741995
 20
300.245382141487
 40
9.994702671046
100
AcDbArc
 50
98.089188713445
 51
-172.341174822264
  0
ARC
  5
75
100
AcDbEntity
  8
1
  6
CONTINUOUS
 62
           7
100
AcDbCircle
 10
1418.309005930448
 20
275.591911645551
 40
8.037391859189
100
AcDbArc
 50
95.896646454928
 51
174.00044003722
  0
ARC
  5
74
100
AcDbEntity
  8
1
  6
CONTINUOUS
 62
           7
100
AcDbCircle
 10
1396.863851178387
 20
227.410224808916
 40
21.985757875278
100
AcDbArc
 50
79.941886890755
 51
95.304613315261
  0
ARC
  5
73
100
AcDbEntity
  8
1
  6
CONTINUOUS
 62
           7
100
AcDbCircle
 10
1375.941502099543
 20
230.910325631742
 40
15.273511176409
100
AcDbArc
 50
78.636061782579
 51
97.74087990703
  0
ARC
  5
72
100
AcDbEntity
  8
1
  6
CONTINUOUS
 62
           7
100
AcDbCircle
 10
1434.228008065357
 20
-487.920116055602
 40
736.441207488911
100
AcDbArc
 50
94.700066348459
 51
99.609862682752
  0
ARC
  5
71
100
AcDbEntity
  8
1
  6
CONTINUOUS
 62
           7
100
AcDbCircle
 10
1484.653857010002
 20
-835.685243834203
 40
1088.698781330245
100
AcDbArc
 50
94.732542115831
 51
99.169771183103
  0
ARC
  5
70
100
AcDbEntity
  8
1
  6
CONTINUOUS
 62
           7
100
AcDbCircle
 10
1405.72325267313
 20
304.826633183209
 40
8.343721909213
100
AcDbArc
 50
37.651762979037
 51
78.724802681561
  0
ARC
  5
6F
100
AcDbEntity
  8
1
  6
CONTINUOUS
 62
           7
100
AcDbCircle
 10
1384.656606780587
 20
199.654795667504
 40
115.604704102206
100
AcDbArc
 50
78.676887433979
 51
87.992453676242
  0
ARC
  5
6E
100
AcDbEntity
  8
1
  6
CONTINUOUS
 62
           7
100
AcDbCircle
 10
1389.899959490046
 20
304.102430213159
 40
23.172392554487
100
AcDbArc
 50
-4.906691682601
 51
14.54891586574
  0
ARC
  5
6D
100
AcDbEntity
  8
1
  6
CONTINUOUS
 62
           7
100
AcDbCircle
 10
1440.469819622104
 20
301.510510348196
 40
27.489154070684
100
AcDbArc
 50
178.728659446575
 51
-162.785362831453
  0
ARC
  5
6C
100
AcDbEntity
  8
1
  6
CONTINUOUS
 62
           7
100
AcDbCircle
 10
1396.347139684755
 20
279.100915656028
 40
21.606938581343
100
AcDbArc
 50
11.982448447818
 51
22.647202060959
  0
ARC
  5
6B
100
AcDbEntity
  8
1
  6
CONTINUOUS
 62
           7
100
AcDbCircle
 10
1391.905562983029
 20
306.56859751665
 40
9.194472150819
100
AcDbArc
 50
110.361825247291
 51
-172.849002495344
  0
ARC
  5
6A
100
AcDbEntity
  8
1
  6
CONTINUOUS
 62
           7
100
AcDbCircle
 10
1395.712076835899
 20
293.795766378082
 40
9.361493053783
100
AcDbArc
 50
30.312070866866
 51
75.487740766684
  0
ARC
  5
69
100
AcDbEntity
  8
1
  6
CONTINUOUS
 62
           7
100
AcDbCircle
 10
1383.705616845541
 20
264.160581546368
 40
41.273766990487
100
AcDbArc
 50
69.651165213185
 51
91.281414892748
  0
ARC
  5
68
100
AcDbEntity
  8
1
  6
CONTINUOUS
 62
           7
100
AcDbCircle
 10
1392.026416403506
 20
387.28801472632
 40
72.175871123671
100
AcDbArc
 50
-101.575022720166
 51
-92.636501892114
  0
ARC
  5
67
100
AcDbEntity
  8
1
  6
CONTINUOUS
 62
           7
100
AcDbCircle
 10
1148.485577756313
 20
-579.379977523439
 40
924.776816058087
100
AcDbArc
 50
75.65909381901
 51
77.413670374354
  0
ARC
  5
66
100
AcDbEntity
  8
1
  6
CONTINUOUS
 62
           7
100
AcDbCircle
 10
1316.25738340547
 20
198.713963590989
 40
128.953364884603
100
AcDbArc
 50
74.829238143569
 51
93.457306163678
  0
ARC
  5
65
100
AcDbEntity
  8
1
  6
CONTINUOUS
 62
           7
100
AcDbCircle
 10
1312.636551814831
 20
239.690385780074
 40
87.840604895508
100
AcDbArc
 50
92.711630927233
 51
99.394628286632
  0
ARC
  5
64
100
AcDbEntity
  8
1
  6
CONTINUOUS
 62
           7
100
AcDbCircle
 10
1387.235760070916
 20
477.838900481869
 40
172.472372500373
100
AcDbArc
 50
-98.392828715697
 51
-91.479512760343
  0
ARC
  5
63
100
AcDbEntity
  8
1
  6
CONTINUOUS
 62
           7
100
AcDbCircle
 10
1324.036088034681
 20
210.465681998305
 40
101.127480250421
100
AcDbArc
 50
79.308499905591
 51
102.943017744966
  0
LINE
  5
62
100
AcDbEntity
  8
1
  6
CONTINUOUS
 62
           7
100
AcDbLine
 10
238.938480496504
 20
149.433892438345
 11
844.034077755973
 21
235.009552487957
  0
LINE
  5
61
100
AcDbEntity
  8
1
  6
CONTINUOUS
 62
           7
100
AcDbLine
 10
142.035797053585
 20
754.975130419242
 11
142.035797053585
 21
233.596390778506
  0
LINE
  5
60
100
AcDbEntity
  8
1
  6
CONTINUOUS
 62
           7
100
AcDbLine
 10
1460.736996649788
 20
784.975130419242
 11
1460.736996649788
 21
391.70885688813
  0
LINE
  5
5F
100
AcDbEntity
  8
1
  6
CONTINUOUS
 62
           7
100
AcDbLine
 10
227.035797053585
 20
839.975130419242
 11
1405.736996649788
 21
839.975130419242
  0
LINE
  5
5E
100
AcDbEntity
  8
1
  6
CONTINUOUS
 62
           7
100
AcDbLine
 10
152.001578495835
 20
97.243152628165
 11
848.243145929863
 21
195.709133800385
  0
LINE
  5
5D
100
AcDbEntity
  8
1
  6
CONTINUOUS
 62
           7
100
AcDbLine
 10
0.0
 20
0.0
 11
1700.0
 21
240.422542724202
  0
LINE
  5
5C
100
AcDbEntity
  8
MITTELLINIEN
  6
DOT_CENTER
 62
           3
100
AcDbLine
 10
319.643377603732
 20
269.610889930863
 11
189.975403603722
 21
269.610889930863
  0
LINE
  5
5B
100
AcDbEntity
  8
MITTELLINIEN
  6
DOT_CENTER
 62
           3
100
AcDbLine
 10
255.653422603734
 20
333.600844930861
 11
255.653422603734
 21
203.932870930862
  0
LINE
  5
5A
100
AcDbEntity
  8
WANNE
  6
CONTINUOUS
 62
           7
100
AcDbLine
 10
0.0
 20
0.0
 11
0.0
 21
940.421777939881
  0
LINE
  5
59
100
AcDbEntity
  8
WANNE
  6
CONTINUOUS
 62
           7
100
AcDbLine
 10
0.0
 20
940.421777939881
 11
1700.0
 21
940.421777939881
  0
LINE
  5
58
100
AcDbEntity
  8
WANNE
  6
CONTINUOUS
 62
           7
100
AcDbLine
 10
1700.0
 20
940.421777939881
 11
1700.0
 21
240.422542724202
  0
LINE
  5
57
100
AcDbEntity
  8
1
  6
CONTINUOUS
 62
           7
100
AcDbLine
 10
140.0
 20
885.421777939881
 11
1605.0
 21
885.421777939881
  0
LINE
  5
56
100
AcDbEntity
  8
1
  6
CONTINUOUS
 62
           7
100
AcDbLine
 10
1650.0
 20
840.421777939881
 11
1650.0
 21
352.523916159857
  0
LINE
  5
55
100
AcDbEntity
  8
1
  6
CONTINUOUS
 62
           7
100
AcDbLine
 10
95.0
 20
146.750504592966
 11
95.0
 21
840.421777939881
  0
LINE
  5
54
100
AcDbEntity
  8
1
  6
CONTINUOUS
 62
           7
100
AcDbLine
 10
942.217808041875
 20
269.68582693327
 11
961.134446560942
 21
135.92846326
  0
LINE
  5
53
100
AcDbEntity
  8
1
  6
CONTINUOUS
 62
           7
100
AcDbLine
 10
895.599589769642
 20
170.06476081622
 11
899.912303412383
 21
139.570061319301
  0
LINE
  5
52
100
AcDbEntity
  8
1
  6
CONTINUOUS
 62
           7
100
AcDbLine
 10
893.785148361138
 20
157.922510210867
 11
896.857705260526
 21
136.196815649226
  0
LINE
  5
51
100
AcDbEntity
  8
1
  6
CONTINUOUS
 62
           7
100
AcDbLine
 10
848.213220188761
 20
219.947610123627
 11
853.612336363394
 21
181.771083942364
  0
LINE
  5
50
100
AcDbEntity
  8
1
  6
CONTINUOUS
 62
           7
100
AcDbLine
 10
848.072363398186
 20
196.916717334609
 11
851.696741007489
 21
171.289162339138
  0
LINE
  5
4F
100
AcDbEntity
  8
1
  6
CONTINUOUS
 62
           7
100
AcDbLine
 10
862.897815622973
 20
163.279147951773
 11
884.691377751224
 21
166.331899084823
  0
LINE
  5
4E
100
AcDbEntity
  8
1
  6
CONTINUOUS
 62
           7
100
AcDbLine
 10
848.067205527564
 20
196.073375917883
 11
848.215724696984
 21
220.357111576523
  0
LINE
  5
4D
100
AcDbEntity
  8
1
  6
CONTINUOUS
 62
           7
100
AcDbLine
 10
886.677909561723
 20
176.264671369033
 11
884.691377751224
 21
166.331899084823
  0
LINE
  5
4C
100
AcDbEntity
  8
1
  6
CONTINUOUS
 62
           7
100
AcDbLine
 10
893.722368847884
 20
159.522938324874
 11
895.709065661394
 21
169.456535198853
  0
LINE
  5
4B
100
AcDbEntity
  8
1
  6
CONTINUOUS
 62
           7
100
AcDbLine
 10
864.898325645773
 20
173.281812324284
 11
862.897815622973
 21
163.279147951773
  0
LINE
  5
4A
100
AcDbEntity
  8
1
  6
CONTINUOUS
 62
           7
100
AcDbLine
 10
853.612336363394
 20
181.771083942364
 11
851.611679480014
 21
171.803226629083
  0
LINE
  5
49
100
AcDbEntity
  8
1
  6
CONTINUOUS
 62
           7
100
AcDbLine
 10
897.083600839992
 20
135.130112780772
 11
899.830924267732
 21
139.442328125331
  0
LINE
  5
48
100
AcDbEntity
  8
1
  6
CONTINUOUS
 62
           7
100
AcDbLine
 10
839.803895498173
 20
201.888292904984
 11
840.778529320514
 21
194.973902338333
  0
LINE
  5
47
100
AcDbEntity
  8
1
  6
CONTINUOUS
 62
           7
100
AcDbLine
 10
904.134120277838
 20
238.238238376212
 11
926.061081756141
 21
244.463640367641
  0
LINE
  5
46
100
AcDbEntity
  8
1
  6
CONTINUOUS
 62
           7
100
AcDbLine
 10
1410.48641982445
 20
275.224402941159
 11
1607.001578495835
 21
303.016564195056
  0
LINE
  5
45
100
AcDbEntity
  8
1
  6
CONTINUOUS
 62
           7
100
AcDbLine
 10
1318.599854680885
 20
186.483017587177
 11
1298.298025391113
 21
326.352825904993
  0
LINE
  5
44
100
AcDbEntity
  8
1
  6
CONTINUOUS
 62
           7
100
AcDbLine
 10
1376.411178765637
 20
206.958926741495
 11
1372.098465122891
 21
237.453626238413
  0
LINE
  5
43
100
AcDbEntity
  8
1
  6
CONTINUOUS
 62
           7
100
AcDbLine
 10
1380.281396128421
 20
204.565023279613
 11
1377.20883922903
 21
226.290717841252
  0
LINE
  5
42
100
AcDbEntity
  8
1
  6
CONTINUOUS
 62
           7
100
AcDbLine
 10
1409.192869228573
 20
260.34407476566
 11
1403.793753053932
 21
298.520600946923
  0
LINE
  5
41
100
AcDbEntity
  8
1
  6
CONTINUOUS
 62
           7
100
AcDbLine
 10
1413.940014902074
 20
250.804431479966
 11
1410.315637292766
 21
276.431986475437
  0
LINE
  5
40
100
AcDbEntity
  8
1
  6
CONTINUOUS
 62
           7
100
AcDbLine
 10
1383.614018688095
 20
236.892046118234
 11
1405.399426995695
 21
240.0024519743
  0
LINE
  5
3F
100
AcDbEntity
  8
1
  6
CONTINUOUS
 62
           7
100
AcDbLine
 10
1403.677790503288
 20
298.913348193041
 11
1410.554454569373
 21
275.623149250039
  0
LINE
  5
3E
100
AcDbEntity
  8
1
  6
CONTINUOUS
 62
           7
100
AcDbLine
 10
1383.614018688095
 20
236.892046118234
 11
1378.950999655079
 21
245.884405507284
  0
LINE
  5
3D
100
AcDbEntity
  8
1
  6
CONTINUOUS
 62
           7
100
AcDbLine
 10
1372.161945829025
 20
236.838895750765
 11
1376.825352055801
 21
227.845789866388
  0
LINE
  5
3C
100
AcDbEntity
  8
1
  6
CONTINUOUS
 62
           7
100
AcDbLine
 10
1405.399426995695
 20
240.0024519743
 11
1400.703596609553
 21
249.058086236184
  0
LINE
  5
3B
100
AcDbEntity
  8
1
  6
CONTINUOUS
 62
           7
100
AcDbLine
 10
1413.879188589845
 20
251.321923235836
 11
1409.192869228573
 21
260.34407476566
  0
LINE
  5
3A
100
AcDbEntity
  8
1
  6
CONTINUOUS
 62
           7
100
AcDbLine
 10
1376.524787294802
 20
206.858769684195
 11
1380.360160289955
 21
203.47751234668
  0
LINE
  5
39
100
AcDbEntity
  8
1
  6
CONTINUOUS
 62
           7
100
AcDbLine
 10
953.591505489053
 20
188.842758862883
 11
1311.158427406523
 21
239.100489405993
  0
LINE
  5
38
100
AcDbEntity
  8
1
  6
CONTINUOUS
 62
           7
100
AcDbLine
 10
1311.347256320243
 20
238.119076808983
 11
953.822231565408
 21
187.632289995865
  0
LINE
  5
37
100
AcDbEntity
  8
1
  6
CONTINUOUS
 62
           7
100
AcDbLine
 10
1416.288038736221
 20
287.420791849654
 11
1414.212103031447
 21
293.375037960773
  0
LINE
  5
36
100
AcDbEntity
  8
1
  6
CONTINUOUS
 62
           7
100
AcDbLine
 10
1417.483289973326
 20
283.586776313343
 11
1418.507249150983
 21
276.438614867843
  0
LINE
  5
35
100
AcDbEntity
  8
1
  6
CONTINUOUS
 62
           7
100
AcDbLine
 10
1410.639676704054
 20
274.224571352853
 11
1417.571491957503
 21
275.195459488233
  0
LINE
  5
34
100
AcDbEntity
  8
1
  6
CONTINUOUS
 62
           7
100
AcDbLine
 10
1417.571491957503
 20
275.195459488233
 11
1418.507249150983
 21
276.438614867843
  0
LINE
  5
33
100
AcDbEntity
  8
1
  6
CONTINUOUS
 62
           7
100
AcDbLine
 10
1342.797343261348
 20
309.837622525393
 11
1362.061829248269
 21
307.213601997606
  0
LINE
  5
32
100
AcDbEntity
  8
1
  6
CONTINUOUS
 62
           7
100
AcDbLine
 10
941.765327680123
 20
269.535524974344
 11
1298.298025391113
 21
326.352825904993
  0
LINE
  5
31
100
AcDbEntity
  8
1
  6
CONTINUOUS
 62
           7
100
AcDbLine
 10
945.262288029672
 20
248.158660967005
 11
1301.385362362623
 21
309.023846999123
  0
LINE
  5
30
100
AcDbEntity
  8
1
  6
CONTINUOUS
 62
           7
100
AcDbLine
 10
1465.430757286889
 20
282.994907247639
 11
1475.93312503064
 21
208.733879300438
  0
LINE
  5
2F
100
AcDbEntity
  8
1
  6
CONTINUOUS
 62
           7
100
AcDbLine
 10
792.130770565599
 20
187.773439704284
 11
802.633138309351
 21
113.512411757083
  0
ENDBLK
  5
9F
100
AcDbEntity
  8
0
100
AcDbBlockEnd
  0
BLOCK
  5
2A
100
AcDbEntity
  8
0
100
AcDbBlockBegin
  2
DLX
 70
           0
 10
0.0
 20
0.0
 30
0.0
  3
DLX
  1

  0
CIRCLE
  5
153
100
AcDbEntity
  8
1
  6
CONTINUOUS
 62
           3
100
AcDbCircle
 10
388.281819264639
 20
765.853918297996
 40
5.530127989697
  0
CIRCLE
  5
152
100
AcDbEntity
  8
1
  6
CONTINUOUS
 62
           3
100
AcDbCircle
 10
388.281819264639
 20
765.853918297996
 40
5.972862778755
  0
ARC
  5
151
100
AcDbEntity
  8
1
  6
CONTINUOUS
 62
           3
100
AcDbCircle
 10
389.060530818298
 20
764.337364101467
 40
1.391870091328
100
AcDbArc
 50
-1.298612665717
 51
66.544866494049
  0
ARC
  5
150
100
AcDbEntity
  8
1
  6
CONTINUOUS
 62
           3
100
AcDbCircle
 10
388.335137631808
 20
764.028169809063
 40
1.155889798231
100
AcDbArc
 50
0.985058170485
 51
82.918254632946
  0
ARC
  5
14F
100
AcDbEntity
  8
1
  6
CONTINUOUS
 62
           3
100
AcDbCircle
 10
388.410320270004
 20
767.239156349792
 40
1.257687287768
100
AcDbArc
 50
-74.800419047062
 51
80.931395238782
  0
ARC
  5
14E
100
AcDbEntity
  8
1
  6
CONTINUOUS
 62
           3
100
AcDbCircle
 10
388.488638096018
 20
767.279050340622
 40
2.009798008862
100
AcDbArc
 50
-55.929988464563
 51
86.297888718245
  0
LINE
  5
14D
100
AcDbEntity
  8
1
  6
CONTINUOUS
 62
           3
100
AcDbLine
 10
386.752580162401
 20
768.481122950519
 11
386.752580162401
 21
766.025464960517
  0
LINE
  5
14C
100
AcDbEntity
  8
1
  6
CONTINUOUS
 62
           3
100
AcDbLine
 10
388.608553154487
 20
768.481122950519
 11
386.752580162401
 21
768.481122950519
  0
LINE
  5
14B
100
AcDbEntity
  8
1
  6
CONTINUOUS
 62
           3
100
AcDbLine
 10
386.752580162401
 20
766.025464960517
 11
388.740063390343
 21
766.025464960517
  0
LINE
  5
14A
100
AcDbEntity
  8
1
  6
CONTINUOUS
 62
           3
100
AcDbLine
 10
386.752580162401
 20
762.426186207523
 11
385.880132463286
 21
762.426186207523
  0
LINE
  5
149
100
AcDbEntity
  8
1
  6
CONTINUOUS
 62
           3
100
AcDbLine
 10
388.477641864019
 20
765.175241633083
 11
386.752580162401
 21
765.175241633083
  0
LINE
  5
148
100
AcDbEntity
  8
1
  6
CONTINUOUS
 62
           3
100
AcDbLine
 10
389.490856603939
 20
762.426186207523
 11
389.490856603939
 21
764.048041475141
  0
LINE
  5
147
100
AcDbEntity
  8
1
  6
CONTINUOUS
 62
           3
100
AcDbLine
 10
390.452043419444
 20
762.426186207523
 11
389.490856603939
 21
762.426186207523
  0
LINE
  5
146
100
AcDbEntity
  8
1
  6
CONTINUOUS
 62
           3
100
AcDbLine
 10
390.452043419444
 20
764.305819973867
 11
390.452043419444
 21
762.426186207523
  0
LINE
  5
145
100
AcDbEntity
  8
1
  6
CONTINUOUS
 62
           3
100
AcDbLine
 10
388.322052322526
 20
769.284654382697
 11
388.618408904878
 21
769.284654382697
  0
LINE
  5
144
100
AcDbEntity
  8
1
  6
CONTINUOUS
 62
           3
100
AcDbLine
 10
385.880132463286
 20
769.284654382697
 11
388.322052322526
 21
769.284654382697
  0
LINE
  5
143
100
AcDbEntity
  8
1
  6
CONTINUOUS
 62
           3
100
AcDbLine
 10
385.880132463286
 20
762.426186207523
 11
385.880132463286
 21
769.284654382697
  0
LINE
  5
142
100
AcDbEntity
  8
1
  6
CONTINUOUS
 62
           3
100
AcDbLine
 10
386.752580162401
 20
765.175241633083
 11
386.752580162401
 21
762.426186207523
  0
LINE
  5
141
100
AcDbEntity
  8
1
  6
CONTINUOUS
 62
           3
100
AcDbLine
 10
342.231344875732
 20
771.359638897561
 11
340.137267798118
 21
771.359638897561
  0
LINE
  5
140
100
AcDbEntity
  8
1
  6
CONTINUOUS
 62
           3
100
AcDbLine
 10
339.521409727769
 20
760.299032837034
 11
342.231344875732
 21
771.359638897561
  0
LINE
  5
13F
100
AcDbEntity
  8
1
  6
CONTINUOUS
 62
           3
100
AcDbLine
 10
349.991795115789
 20
760.299032837034
 11
339.521409727769
 21
760.299032837034
  0
LINE
  5
13E
100
AcDbEntity
  8
1
  6
CONTINUOUS
 62
           3
100
AcDbLine
 10
349.449808086128
 20
758.086911624903
 11
349.991795115789
 21
760.299032837034
  0
LINE
  5
13D
100
AcDbEntity
  8
1
  6
CONTINUOUS
 62
           3
100
AcDbLine
 10
336.88534562055
 20
758.086911624903
 11
349.449808086128
 21
758.086911624903
  0
LINE
  5
13C
100
AcDbEntity
  8
1
  6
CONTINUOUS
 62
           3
100
AcDbLine
 10
340.137267798118
 20
771.359638897561
 11
336.88534562055
 21
758.086911624903
  0
LINE
  5
13B
100
AcDbEntity
  8
1
  6
CONTINUOUS
 62
           3
100
AcDbLine
 10
326.690597743261
 20
762.511154049085
 11
330.446312882626
 21
769.14751768551
  0
LINE
  5
13A
100
AcDbEntity
  8
1
  6
CONTINUOUS
 62
           3
100
AcDbLine
 10
331.503116027916
 20
769.14751768551
 11
330.446312882626
 21
769.14751768551
  0
LINE
  5
139
100
AcDbEntity
  8
1
  6
CONTINUOUS
 62
           3
100
AcDbLine
 10
332.006908989771
 20
762.511154049085
 11
331.503116027916
 21
769.14751768551
  0
LINE
  5
138
100
AcDbEntity
  8
1
  6
CONTINUOUS
 62
           3
100
AcDbLine
 10
326.690597743261
 20
762.511154049085
 11
332.006908989771
 21
762.511154049085
  0
LINE
  5
137
100
AcDbEntity
  8
1
  6
CONTINUOUS
 62
           3
100
AcDbLine
 10
324.186787650366
 20
758.086911624903
 11
321.807990661795
 21
758.086911624903
  0
LINE
  5
136
100
AcDbEntity
  8
1
  6
CONTINUOUS
 62
           3
100
AcDbLine
 10
325.438692696729
 20
760.299032837034
 11
324.186787650366
 21
758.086911624903
  0
LINE
  5
135
100
AcDbEntity
  8
1
  6
CONTINUOUS
 62
           3
100
AcDbLine
 10
332.174839977093
 20
760.299032837034
 11
325.438692696729
 21
760.299032837034
  0
LINE
  5
134
100
AcDbEntity
  8
1
  6
CONTINUOUS
 62
           3
100
AcDbLine
 10
332.34277096436
 20
758.086911624903
 11
332.174839977093
 21
760.299032837034
  0
LINE
  5
133
100
AcDbEntity
  8
1
  6
CONTINUOUS
 62
           3
100
AcDbLine
 10
334.372453127429
 20
758.086911624903
 11
332.34277096436
 21
758.086911624903
  0
LINE
  5
132
100
AcDbEntity
  8
1
  6
CONTINUOUS
 62
           3
100
AcDbLine
 10
333.364867203667
 20
771.359638897561
 11
334.372453127429
 21
758.086911624903
  0
LINE
  5
131
100
AcDbEntity
  8
1
  6
CONTINUOUS
 62
           3
100
AcDbLine
 10
329.319420940692
 20
771.359638897561
 11
333.364867203667
 21
771.359638897561
  0
LINE
  5
130
100
AcDbEntity
  8
1
  6
CONTINUOUS
 62
           3
100
AcDbLine
 10
321.807990661795
 20
758.086911624903
 11
329.319420940692
 21
771.359638897561
  0
LINE
  5
12F
100
AcDbEntity
  8
1
  6
CONTINUOUS
 62
           3
100
AcDbLine
 10
308.824712780762
 20
758.086911624903
 11
306.730635703201
 21
758.086911624903
  0
LINE
  5
12E
100
AcDbEntity
  8
1
  6
CONTINUOUS
 62
           3
100
AcDbLine
 10
311.63071507769
 20
769.539615957839
 11
308.824712780762
 21
758.086911624903
  0
LINE
  5
12D
100
AcDbEntity
  8
1
  6
CONTINUOUS
 62
           3
100
AcDbLine
 10
312.271263344201
 20
767.880525048776
 11
311.63071507769
 21
769.539615957839
  0
LINE
  5
12C
100
AcDbEntity
  8
1
  6
CONTINUOUS
 62
           3
100
AcDbLine
 10
316.05241967991
 20
758.086911624903
 11
312.271263344201
 21
767.880525048776
  0
LINE
  5
12B
100
AcDbEntity
  8
1
  6
CONTINUOUS
 62
           3
100
AcDbLine
 10
319.295098168679
 20
758.086911624903
 11
316.05241967991
 21
758.086911624903
  0
LINE
  5
12A
100
AcDbEntity
  8
1
  6
CONTINUOUS
 62
           3
100
AcDbLine
 10
322.547020346299
 20
771.359638897561
 11
319.295098168679
 21
758.086911624903
  0
LINE
  5
129
100
AcDbEntity
  8
1
  6
CONTINUOUS
 62
           3
100
AcDbLine
 10
320.452943268685
 20
771.359638897561
 11
322.547020346299
 21
771.359638897561
  0
LINE
  5
128
100
AcDbEntity
  8
1
  6
CONTINUOUS
 62
           3
100
AcDbLine
 10
317.607511363332
 20
759.746002533987
 11
320.452943268685
 21
771.359638897561
  0
LINE
  5
127
100
AcDbEntity
  8
1
  6
CONTINUOUS
 62
           3
100
AcDbLine
 10
313.123673497057
 20
771.359638897561
 11
317.607511363332
 21
759.746002533987
  0
LINE
  5
126
100
AcDbEntity
  8
1
  6
CONTINUOUS
 62
           3
100
AcDbLine
 10
309.982557880717
 20
771.359638897561
 11
313.123673497057
 21
771.359638897561
  0
LINE
  5
125
100
AcDbEntity
  8
1
  6
CONTINUOUS
 62
           3
100
AcDbLine
 10
306.730635703201
 20
758.086911624903
 11
309.982557880717
 21
771.359638897561
  0
LINE
  5
124
100
AcDbEntity
  8
1
  6
CONTINUOUS
 62
           3
100
AcDbLine
 10
307.469665387601
 20
771.359638897561
 11
305.375588310037
 21
771.359638897561
  0
LINE
  5
123
100
AcDbEntity
  8
1
  6
CONTINUOUS
 62
           3
100
AcDbLine
 10
305.375588310037
 20
771.359638897561
 11
302.123666132471
 21
758.086911624903
  0
LINE
  5
122
100
AcDbEntity
  8
1
  6
CONTINUOUS
 62
           3
100
AcDbLine
 10
304.217743210031
 20
758.086911624903
 11
307.469665387601
 21
771.359638897561
  0
LINE
  5
121
100
AcDbEntity
  8
1
  6
CONTINUOUS
 62
           3
100
AcDbLine
 10
302.123666132471
 20
758.086911624903
 11
304.217743210031
 21
758.086911624903
  0
LINE
  5
120
100
AcDbEntity
  8
1
  6
CONTINUOUS
 62
           3
100
AcDbLine
 10
299.630445977224
 20
766.714184352132
 11
301.72452305475
 21
766.714184352132
  0
LINE
  5
11F
100
AcDbEntity
  8
1
  6
CONTINUOUS
 62
           3
100
AcDbLine
 10
298.600670621075
 20
762.511154049085
 11
298.058683591307
 21
760.299032837034
  0
LINE
  5
11E
100
AcDbEntity
  8
1
  6
CONTINUOUS
 62
           3
100
AcDbLine
 10
294.412516465674
 20
762.511154049085
 11
298.600670621075
 21
762.511154049085
  0
LINE
  5
11D
100
AcDbEntity
  8
1
  6
CONTINUOUS
 62
           3
100
AcDbLine
 10
294.954503495321
 20
764.723275261274
 11
294.412516465674
 21
762.511154049085
  0
LINE
  5
11C
100
AcDbEntity
  8
1
  6
CONTINUOUS
 62
           3
100
AcDbLine
 10
301.236734728127
 20
764.723275261274
 11
299.610773639355
 21
758.086911624903
  0
LINE
  5
11B
100
AcDbEntity
  8
1
  6
CONTINUOUS
 62
           3
100
AcDbLine
 10
301.236734728127
 20
764.723275261274
 11
294.954503495321
 21
764.723275261274
  0
LINE
  5
11A
100
AcDbEntity
  8
1
  6
CONTINUOUS
 62
           3
100
AcDbLine
 10
289.682375280978
 20
760.299032837034
 11
291.850323399305
 21
769.14751768551
  0
LINE
  5
119
100
AcDbEntity
  8
1
  6
CONTINUOUS
 62
           3
100
AcDbLine
 10
291.850323399305
 20
769.14751768551
 11
300.226631709602
 21
769.14751768551
  0
LINE
  5
118
100
AcDbEntity
  8
1
  6
CONTINUOUS
 62
           3
100
AcDbLine
 10
300.226631709602
 20
769.14751768551
 11
299.630445977224
 21
766.714184352132
  0
LINE
  5
117
100
AcDbEntity
  8
1
  6
CONTINUOUS
 62
           3
100
AcDbLine
 10
298.058683591307
 20
760.299032837034
 11
289.682375280978
 21
760.299032837034
  0
LINE
  5
116
100
AcDbEntity
  8
1
  6
CONTINUOUS
 62
           3
100
AcDbLine
 10
299.610773639355
 20
758.086911624903
 11
287.046311173742
 21
758.086911624903
  0
LINE
  5
115
100
AcDbEntity
  8
1
  6
CONTINUOUS
 62
           3
100
AcDbLine
 10
302.862695816877
 20
771.359638897561
 11
301.72452305475
 21
766.714184352132
  0
LINE
  5
114
100
AcDbEntity
  8
1
  6
CONTINUOUS
 62
           3
100
AcDbLine
 10
290.298233351286
 20
771.359638897561
 11
302.862695816877
 21
771.359638897561
  0
LINE
  5
113
100
AcDbEntity
  8
1
  6
CONTINUOUS
 62
           3
100
AcDbLine
 10
287.046311173742
 20
758.086911624903
 11
290.298233351286
 21
771.359638897561
  0
LINE
  5
112
100
AcDbEntity
  8
1
  6
CONTINUOUS
 62
           3
100
AcDbLine
 10
284.533418680758
 20
758.086911624903
 11
287.785340858167
 21
771.359638897561
  0
LINE
  5
111
100
AcDbEntity
  8
1
  6
CONTINUOUS
 62
           3
100
AcDbLine
 10
282.439341603038
 20
758.086911624903
 11
284.533418680758
 21
758.086911624903
  0
LINE
  5
110
100
AcDbEntity
  8
1
  6
CONTINUOUS
 62
           3
100
AcDbLine
 10
285.691263780603
 20
771.359638897561
 11
282.439341603038
 21
758.086911624903
  0
LINE
  5
10F
100
AcDbEntity
  8
1
  6
CONTINUOUS
 62
           3
100
AcDbLine
 10
287.785340858167
 20
771.359638897561
 11
285.691263780603
 21
771.359638897561
  0
LINE
  5
10E
100
AcDbEntity
  8
1
  6
CONTINUOUS
 62
           3
100
AcDbLine
 10
269.456063722
 20
758.086911624903
 11
270.540037781111
 21
762.511154049085
  0
LINE
  5
10D
100
AcDbEntity
  8
1
  6
CONTINUOUS
 62
           3
100
AcDbLine
 10
267.361986644324
 20
758.086911624903
 11
269.456063722
 21
758.086911624903
  0
LINE
  5
10C
100
AcDbEntity
  8
1
  6
CONTINUOUS
 62
           3
100
AcDbLine
 10
280.87416749602
 20
761.955026230023
 11
279.926449109907
 21
758.086911624903
  0
LINE
  5
10B
100
AcDbEntity
  8
1
  6
CONTINUOUS
 62
           3
100
AcDbLine
 10
272.165998869886
 20
769.14751768551
 11
271.082024810703
 21
764.723275261274
  0
LINE
  5
10A
100
AcDbEntity
  8
1
  6
CONTINUOUS
 62
           3
100
AcDbLine
 10
280.542307180405
 20
769.14751768551
 11
272.165998869886
 21
769.14751768551
  0
LINE
  5
109
100
AcDbEntity
  8
1
  6
CONTINUOUS
 62
           3
100
AcDbLine
 10
279.458333121083
 20
764.723275261274
 11
280.542307180405
 21
769.14751768551
  0
LINE
  5
108
100
AcDbEntity
  8
1
  6
CONTINUOUS
 62
           3
100
AcDbLine
 10
271.082024810703
 20
764.723275261274
 11
279.458333121083
 21
764.723275261274
  0
LINE
  5
107
100
AcDbEntity
  8
1
  6
CONTINUOUS
 62
           3
100
AcDbLine
 10
278.91634609164
 20
762.511154049085
 11
270.540037781111
 21
762.511154049085
  0
LINE
  5
106
100
AcDbEntity
  8
1
  6
CONTINUOUS
 62
           3
100
AcDbLine
 10
277.832372032268
 20
758.086911624903
 11
278.91634609164
 21
762.511154049085
  0
LINE
  5
105
100
AcDbEntity
  8
1
  6
CONTINUOUS
 62
           3
100
AcDbLine
 10
279.926449109907
 20
758.086911624903
 11
277.832372032268
 21
758.086911624903
  0
LINE
  5
104
100
AcDbEntity
  8
1
  6
CONTINUOUS
 62
           3
100
AcDbLine
 10
283.17837128744
 20
771.359638897561
 11
281.310847177586
 21
763.737335277573
  0
LINE
  5
103
100
AcDbEntity
  8
1
  6
CONTINUOUS
 62
           3
100
AcDbLine
 10
270.61390882186
 20
771.359638897561
 11
283.17837128744
 21
771.359638897561
  0
LINE
  5
102
100
AcDbEntity
  8
1
  6
CONTINUOUS
 62
           3
100
AcDbLine
 10
270.61390882186
 20
771.359638897561
 11
267.361986644324
 21
758.086911624903
  0
LINE
  5
101
100
AcDbEntity
  8
1
  6
CONTINUOUS
 62
           3
100
AcDbLine
 10
254.920695792834
 20
760.299032837034
 11
257.088643911176
 21
769.14751768551
  0
LINE
  5
100
100
AcDbEntity
  8
1
  6
CONTINUOUS
 62
           3
100
AcDbLine
 10
257.088643911176
 20
769.14751768551
 11
265.464952221666
 21
769.14751768551
  0
LINE
  5
FF
100
AcDbEntity
  8
1
  6
CONTINUOUS
 62
           3
100
AcDbLine
 10
265.464952221666
 20
769.14751768551
 11
263.297004103189
 21
760.299032837034
  0
LINE
  5
FE
100
AcDbEntity
  8
1
  6
CONTINUOUS
 62
           3
100
AcDbLine
 10
263.297004103189
 20
760.299032837034
 11
254.920695792834
 21
760.299032837034
  0
LINE
  5
FD
100
AcDbEntity
  8
1
  6
CONTINUOUS
 62
           3
100
AcDbLine
 10
264.849094151194
 20
758.086911624903
 11
252.284631685668
 21
758.086911624903
  0
LINE
  5
FC
100
AcDbEntity
  8
1
  6
CONTINUOUS
 62
           3
100
AcDbLine
 10
268.101016328868
 20
771.359638897561
 11
264.849094151194
 21
758.086911624903
  0
LINE
  5
FB
100
AcDbEntity
  8
1
  6
CONTINUOUS
 62
           3
100
AcDbLine
 10
255.53655386315
 20
771.359638897561
 11
268.101016328868
 21
771.359638897561
  0
LINE
  5
FA
100
AcDbEntity
  8
1
  6
CONTINUOUS
 62
           3
100
AcDbLine
 10
252.284631685668
 20
758.086911624903
 11
255.53655386315
 21
771.359638897561
  0
LINE
  5
F9
100
AcDbEntity
  8
1
  6
CONTINUOUS
 62
           3
100
AcDbLine
 10
395.875447178909
 20
714.975130419241
 11
343.284645760099
 21
714.975130419241
  0
LINE
  5
F8
100
AcDbEntity
  8
1
  6
CONTINUOUS
 62
           3
100
AcDbLine
 10
393.47477481239
 20
721.169069813151
 11
350.665625260217
 21
721.169069813151
  0
LINE
  5
F7
100
AcDbEntity
  8
1
  6
CONTINUOUS
 62
           3
100
AcDbLine
 10
393.47477481239
 20
721.169069813151
 11
395.875447178909
 21
714.975130419241
  0
LINE
  5
F6
100
AcDbEntity
  8
1
  6
CONTINUOUS
 62
           3
100
AcDbLine
 10
386.232774735608
 20
739.854047486065
 11
383.452921611651
 21
747.02630556432
  0
LINE
  5
F5
100
AcDbEntity
  8
1
  6
CONTINUOUS
 62
           3
100
AcDbLine
 10
391.830000915895
 20
747.02630556432
 11
386.232774735608
 21
739.854047486065
  0
LINE
  5
F4
100
AcDbEntity
  8
1
  6
CONTINUOUS
 62
           3
100
AcDbLine
 10
395.875447178952
 20
747.02630556432
 11
391.830000915895
 21
747.02630556432
  0
LINE
  5
F3
100
AcDbEntity
  8
1
  6
CONTINUOUS
 62
           3
100
AcDbLine
 10
387.57521713387
 20
736.390431637844
 11
395.875447178952
 21
747.02630556432
  0
LINE
  5
F2
100
AcDbEntity
  8
1
  6
CONTINUOUS
 62
           3
100
AcDbLine
 10
392.445915226874
 20
723.823615267718
 11
387.57521713387
 21
736.390431637844
  0
LINE
  5
F1
100
AcDbEntity
  8
1
  6
CONTINUOUS
 62
           3
100
AcDbLine
 10
388.400468963826
 20
723.823615267718
 11
392.445915226874
 21
723.823615267718
  0
LINE
  5
F0
100
AcDbEntity
  8
1
  6
CONTINUOUS
 62
           3
100
AcDbLine
 10
384.872213269142
 20
732.926815789743
 11
388.400468963826
 21
723.823615267718
  0
LINE
  5
EF
100
AcDbEntity
  8
1
  6
CONTINUOUS
 62
           3
100
AcDbLine
 10
377.76808068904
 20
723.823615267718
 11
384.872213269142
 21
732.926815789743
  0
LINE
  5
EE
100
AcDbEntity
  8
1
  6
CONTINUOUS
 62
           3
100
AcDbLine
 10
373.722634426043
 20
723.823615267718
 11
377.76808068904
 21
723.823615267718
  0
LINE
  5
ED
100
AcDbEntity
  8
1
  6
CONTINUOUS
 62
           3
100
AcDbLine
 10
383.529770870833
 20
736.390431637902
 11
373.722634426043
 21
723.823615267718
  0
LINE
  5
EC
100
AcDbEntity
  8
1
  6
CONTINUOUS
 62
           3
100
AcDbLine
 10
379.407475348636
 20
747.02630556432
 11
383.529770870833
 21
736.390431637902
  0
LINE
  5
EB
100
AcDbEntity
  8
1
  6
CONTINUOUS
 62
           3
100
AcDbLine
 10
383.452921611651
 20
747.02630556432
 11
379.407475348636
 21
747.02630556432
  0
LINE
  5
EA
100
AcDbEntity
  8
1
  6
CONTINUOUS
 62
           3
100
AcDbLine
 10
366.424197467591
 20
747.02630556432
 11
361.18900477367
 21
747.02630556432
  0
LINE
  5
E9
100
AcDbEntity
  8
1
  6
CONTINUOUS
 62
           3
100
AcDbLine
 10
361.82333060424
 20
728.247857692038
 11
366.424197467591
 21
747.02630556432
  0
LINE
  5
E8
100
AcDbEntity
  8
1
  6
CONTINUOUS
 62
           3
100
AcDbLine
 10
367.058523298192
 20
728.247857692038
 11
361.82333060424
 21
728.247857692038
  0
LINE
  5
E7
100
AcDbEntity
  8
1
  6
CONTINUOUS
 62
           3
100
AcDbLine
 10
371.659390161587
 20
747.02630556432
 11
367.058523298192
 21
728.247857692038
  0
LINE
  5
E6
100
AcDbEntity
  8
1
  6
CONTINUOUS
 62
           3
100
AcDbLine
 10
376.894582855511
 20
747.02630556432
 11
371.659390161587
 21
747.02630556432
  0
LINE
  5
E5
100
AcDbEntity
  8
1
  6
CONTINUOUS
 62
           3
100
AcDbLine
 10
371.209741932902
 20
723.823615267718
 11
376.894582855511
 21
747.02630556432
  0
LINE
  5
E4
100
AcDbEntity
  8
1
  6
CONTINUOUS
 62
           3
100
AcDbLine
 10
355.504163850981
 20
723.823615267718
 11
371.209741932902
 21
723.823615267718
  0
LINE
  5
E3
100
AcDbEntity
  8
1
  6
CONTINUOUS
 62
           3
100
AcDbLine
 10
361.18900477367
 20
747.02630556432
 11
355.504163850981
 21
723.823615267718
  0
LINE
  5
E2
100
AcDbEntity
  8
1
  6
CONTINUOUS
 62
           3
100
AcDbLine
 10
353.84736994904
 20
758.086911624903
 11
343.284645760099
 21
714.975130419241
  0
LINE
  5
E1
100
AcDbEntity
  8
1
  6
CONTINUOUS
 62
           3
100
AcDbLine
 10
359.710785766309
 20
758.086911624903
 11
353.84736994904
 21
758.086911624903
  0
LINE
  5
E0
100
AcDbEntity
  8
1
  6
CONTINUOUS
 62
           3
100
AcDbLine
 10
350.665625260217
 20
721.169069813151
 11
359.710785766309
 21
758.086911624903
  0
LINE
  5
DF
100
AcDbEntity
  8
1
  6
CONTINUOUS
 62
           3
100
AcDbLine
 10
215.545944026702
 20
714.975130419241
 11
223.398733067757
 21
747.02630556432
  0
LINE
  5
DE
100
AcDbEntity
  8
1
  6
CONTINUOUS
 62
           3
100
AcDbLine
 10
223.398733067757
 20
747.02630556432
 11
229.680964300454
 21
747.02630556432
  0
LINE
  5
DD
100
AcDbEntity
  8
1
  6
CONTINUOUS
 62
           3
100
AcDbLine
 10
229.680964300454
 20
747.02630556432
 11
222.912149318765
 21
719.399372843423
  0
LINE
  5
DC
100
AcDbEntity
  8
1
  6
CONTINUOUS
 62
           3
100
AcDbLine
 10
222.912149318765
 20
719.399372843423
 11
228.147342012644
 21
719.399372843423
  0
LINE
  5
DB
100
AcDbEntity
  8
1
  6
CONTINUOUS
 62
           3
100
AcDbLine
 10
228.147342012644
 20
719.399372843423
 11
236.271124568526
 21
752.556608594646
  0
LINE
  5
DA
100
AcDbEntity
  8
1
  6
CONTINUOUS
 62
           3
100
AcDbLine
 10
236.271124568526
 20
752.556608594646
 11
218.580028723992
 21
752.556608594646
  0
LINE
  5
D9
100
AcDbEntity
  8
1
  6
CONTINUOUS
 62
           3
100
AcDbLine
 10
218.580028723992
 20
752.556608594646
 11
219.934996297978
 21
758.086911624903
  0
LINE
  5
D8
100
AcDbEntity
  8
1
  6
CONTINUOUS
 62
           3
100
AcDbLine
 10
219.934996297978
 20
758.086911624903
 11
243.90832337527
 21
758.086911624903
  0
LINE
  5
D7
100
AcDbEntity
  8
1
  6
CONTINUOUS
 62
           3
100
AcDbLine
 10
243.90832337527
 20
758.086911624903
 11
233.34559918635
 21
714.975130419241
  0
LINE
  5
D6
100
AcDbEntity
  8
1
  6
CONTINUOUS
 62
           3
100
AcDbLine
 10
233.34559918635
 20
714.975130419241
 11
215.545944026702
 21
714.975130419241
  0
LINE
  5
D5
100
AcDbEntity
  8
1
  6
CONTINUOUS
 62
           3
100
AcDbLine
 10
237.533753341477
 20
714.975130419241
 11
245.38654238247
 21
747.02630556432
  0
LINE
  5
D4
100
AcDbEntity
  8
1
  6
CONTINUOUS
 62
           3
100
AcDbLine
 10
245.38654238247
 20
747.02630556432
 11
251.66877361528
 21
747.02630556432
  0
LINE
  5
D3
100
AcDbEntity
  8
1
  6
CONTINUOUS
 62
           3
100
AcDbLine
 10
251.66877361528
 20
747.02630556432
 11
244.899958633485
 21
719.399372843423
  0
LINE
  5
D2
100
AcDbEntity
  8
1
  6
CONTINUOUS
 62
           3
100
AcDbLine
 10
244.899958633485
 20
719.399372843423
 11
250.135151327469
 21
719.399372843423
  0
LINE
  5
D1
100
AcDbEntity
  8
1
  6
CONTINUOUS
 62
           3
100
AcDbLine
 10
250.135151327469
 20
719.399372843423
 11
256.903966309275
 21
747.02630556432
  0
LINE
  5
D0
100
AcDbEntity
  8
1
  6
CONTINUOUS
 62
           3
100
AcDbLine
 10
255.333408501066
 20
714.975130419241
 11
237.533753341477
 21
714.975130419241
  0
LINE
  5
CF
100
AcDbEntity
  8
1
  6
CONTINUOUS
 62
           3
100
AcDbLine
 10
256.903966309275
 20
747.02630556432
 11
263.186197542081
 21
747.02630556432
  0
LINE
  5
CE
100
AcDbEntity
  8
1
  6
CONTINUOUS
 62
           3
100
AcDbLine
 10
263.186197542081
 20
747.02630556432
 11
255.333408501066
 21
714.975130419241
  0
LINE
  5
CD
100
AcDbEntity
  8
1
  6
CONTINUOUS
 62
           3
100
AcDbLine
 10
284.126968318016
 20
747.02630556432
 11
267.374351697244
 21
747.02630556432
  0
LINE
  5
CC
100
AcDbEntity
  8
1
  6
CONTINUOUS
 62
           3
100
AcDbLine
 10
267.374351697244
 20
747.02630556432
 11
262.773484833853
 21
728.247857692038
  0
LINE
  5
CB
100
AcDbEntity
  8
1
  6
CONTINUOUS
 62
           3
100
AcDbLine
 10
262.773484833853
 20
728.247857692038
 11
273.243870221819
 21
728.247857692038
  0
LINE
  5
CA
100
AcDbEntity
  8
1
  6
CONTINUOUS
 62
           3
100
AcDbLine
 10
273.243870221819
 20
728.247857692038
 11
271.0759221034
 21
719.399372843423
  0
LINE
  5
C9
100
AcDbEntity
  8
1
  6
CONTINUOUS
 62
           3
100
AcDbLine
 10
271.0759221034
 20
719.399372843423
 11
260.605536715489
 21
719.399372843423
  0
LINE
  5
C8
100
AcDbEntity
  8
1
  6
CONTINUOUS
 62
           3
100
AcDbLine
 10
260.605536715489
 20
719.399372843423
 11
259.521562656182
 21
714.975130419241
  0
LINE
  5
C7
100
AcDbEntity
  8
1
  6
CONTINUOUS
 62
           3
100
AcDbLine
 10
259.521562656182
 20
714.975130419241
 11
276.274179277005
 21
714.975130419241
  0
LINE
  5
C6
100
AcDbEntity
  8
1
  6
CONTINUOUS
 62
           3
100
AcDbLine
 10
276.274179277005
 20
714.975130419241
 11
280.610075513929
 21
732.672100116194
  0
LINE
  5
C5
100
AcDbEntity
  8
1
  6
CONTINUOUS
 62
           3
100
AcDbLine
 10
280.610075513929
 20
732.672100116194
 11
270.139690125865
 21
732.672100116194
  0
LINE
  5
C4
100
AcDbEntity
  8
1
  6
CONTINUOUS
 62
           3
100
AcDbLine
 10
270.139690125865
 20
732.672100116194
 11
272.572608870878
 21
742.60206314008
  0
LINE
  5
C3
100
AcDbEntity
  8
1
  6
CONTINUOUS
 62
           3
100
AcDbLine
 10
272.572608870878
 20
742.60206314008
 11
283.042994258858
 21
742.60206314008
  0
LINE
  5
C2
100
AcDbEntity
  8
1
  6
CONTINUOUS
 62
           3
100
AcDbLine
 10
283.042994258858
 20
742.60206314008
 11
284.126968318016
 21
747.02630556432
  0
LINE
  5
C1
100
AcDbEntity
  8
1
  6
CONTINUOUS
 62
           3
100
AcDbLine
 10
302.357803946024
 20
735.965699503654
 11
305.067739093954
 21
747.02630556432
  0
LINE
  5
C0
100
AcDbEntity
  8
1
  6
CONTINUOUS
 62
           3
100
AcDbLine
 10
305.067739093954
 20
747.02630556432
 11
288.315122473233
 21
747.02630556432
  0
LINE
  5
BF
100
AcDbEntity
  8
1
  6
CONTINUOUS
 62
           3
100
AcDbLine
 10
288.315122473233
 20
747.02630556432
 11
280.46233343224
 21
714.975130419241
  0
LINE
  5
BE
100
AcDbEntity
  8
1
  6
CONTINUOUS
 62
           3
100
AcDbLine
 10
280.46233343224
 20
714.975130419241
 11
297.214950052994
 21
714.975130419241
  0
LINE
  5
BD
100
AcDbEntity
  8
1
  6
CONTINUOUS
 62
           3
100
AcDbLine
 10
297.214950052994
 20
714.975130419241
 11
299.924885200969
 21
726.035736479849
  0
LINE
  5
BC
100
AcDbEntity
  8
1
  6
CONTINUOUS
 62
           3
100
AcDbLine
 10
299.924885200969
 20
726.035736479849
 11
293.642653968181
 21
726.035736479849
  0
LINE
  5
BB
100
AcDbEntity
  8
1
  6
CONTINUOUS
 62
           3
100
AcDbLine
 10
293.642653968181
 20
726.035736479849
 11
292.016692879393
 21
719.399372843423
  0
LINE
  5
BA
100
AcDbEntity
  8
1
  6
CONTINUOUS
 62
           3
100
AcDbLine
 10
292.016692879393
 20
719.399372843423
 11
287.82853872419
 21
719.399372843423
  0
LINE
  5
B9
100
AcDbEntity
  8
1
  6
CONTINUOUS
 62
           3
100
AcDbLine
 10
287.82853872419
 20
719.399372843423
 11
293.51337964682
 21
742.60206314008
  0
LINE
  5
B8
100
AcDbEntity
  8
1
  6
CONTINUOUS
 62
           3
100
AcDbLine
 10
293.51337964682
 20
742.60206314008
 11
297.701533802012
 21
742.60206314008
  0
LINE
  5
B7
100
AcDbEntity
  8
1
  6
CONTINUOUS
 62
           3
100
AcDbLine
 10
297.701533802012
 20
742.60206314008
 11
296.075572713218
 21
735.965699503654
  0
LINE
  5
B6
100
AcDbEntity
  8
1
  6
CONTINUOUS
 62
           3
100
AcDbLine
 10
296.075572713218
 20
735.965699503654
 11
302.357803946024
 21
735.965699503654
  0
LINE
  5
B5
100
AcDbEntity
  8
1
  6
CONTINUOUS
 62
           3
100
AcDbLine
 10
301.403104208175
 20
714.975130419241
 11
307.685335440963
 21
714.975130419241
  0
LINE
  5
B4
100
AcDbEntity
  8
1
  6
CONTINUOUS
 62
           3
100
AcDbLine
 10
318.155720829039
 20
714.975130419241
 11
326.008509870053
 21
747.02630556432
  0
LINE
  5
B3
100
AcDbEntity
  8
1
  6
CONTINUOUS
 62
           3
100
AcDbLine
 10
311.873489596141
 20
714.975130419241
 11
315.257897087036
 21
728.788596779582
  0
LINE
  5
B2
100
AcDbEntity
  8
1
  6
CONTINUOUS
 62
           3
100
AcDbLine
 10
307.685335440963
 20
714.975130419241
 11
311.069742931848
 21
728.788596779582
  0
LINE
  5
B1
100
AcDbEntity
  8
1
  6
CONTINUOUS
 62
           3
100
AcDbLine
 10
309.255893249168
 20
747.02630556432
 11
301.403104208175
 21
714.975130419241
  0
LINE
  5
B0
100
AcDbEntity
  8
1
  6
CONTINUOUS
 62
           3
100
AcDbLine
 10
326.008509870053
 20
747.02630556432
 11
319.726278637137
 21
747.02630556432
  0
LINE
  5
AF
100
AcDbEntity
  8
1
  6
CONTINUOUS
 62
           3
100
AcDbLine
 10
322.343874984164
 20
714.975130419241
 11
339.096491604972
 21
714.975130419241
  0
LINE
  5
AE
100
AcDbEntity
  8
1
  6
CONTINUOUS
 62
           3
100
AcDbLine
 10
333.89823443127
 20
719.399372843423
 11
329.71008027617
 21
719.399372843423
  0
LINE
  5
AD
100
AcDbEntity
  8
1
  6
CONTINUOUS
 62
           3
100
AcDbLine
 10
330.196664025161
 20
747.02630556432
 11
322.343874984164
 21
714.975130419241
  0
LINE
  5
AC
100
AcDbEntity
  8
1
  6
CONTINUOUS
 62
           3
100
AcDbLine
 10
329.71008027617
 20
719.399372843423
 11
335.394921198744
 21
742.60206314008
  0
LINE
  5
AB
100
AcDbEntity
  8
1
  6
CONTINUOUS
 62
           3
100
AcDbLine
 10
346.949280645991
 20
747.02630556432
 11
330.196664025161
 21
747.02630556432
  0
LINE
  5
AA
100
AcDbEntity
  8
1
  6
CONTINUOUS
 62
           3
100
AcDbLine
 10
335.394921198744
 20
742.60206314008
 11
339.583075353994
 21
742.60206314008
  0
LINE
  5
A9
100
AcDbEntity
  8
1
  6
CONTINUOUS
 62
           3
100
AcDbLine
 10
339.583075353994
 20
742.60206314008
 11
333.89823443127
 21
719.399372843423
  0
LINE
  5
A8
100
AcDbEntity
  8
1
  6
CONTINUOUS
 62
           3
100
AcDbLine
 10
346.949280645991
 20
747.02630556432
 11
339.096491604972
 21
714.975130419241
  0
LINE
  5
A7
100
AcDbEntity
  8
1
  6
CONTINUOUS
 62
           3
100
AcDbLine
 10
315.538124482033
 20
747.02630556432
 11
309.255893249168
 21
747.02630556432
  0
LINE
  5
A6
100
AcDbEntity
  8
1
  6
CONTINUOUS
 62
           3
100
AcDbLine
 10
311.873489596141
 20
714.975130419241
 11
318.155720829039
 21
714.975130419241
  0
LINE
  5
A5
100
AcDbEntity
  8
1
  6
CONTINUOUS
 62
           3
100
AcDbLine
 10
311.069742931848
 20
728.788596779582
 11
315.257897087036
 21
728.788596779582
  0
LINE
  5
A4
100
AcDbEntity
  8
1
  6
CONTINUOUS
 62
           3
100
AcDbLine
 10
312.153716991017
 20
733.212839203768
 11
316.341871146256
 21
733.212839203768
  0
LINE
  5
A3
100
AcDbEntity
  8
1
  6
CONTINUOUS
 62
           3
100
AcDbLine
 10
312.153716991017
 20
733.212839203768
 11
315.538124482033
 21
747.02630556432
  0
LINE
  5
A2
100
AcDbEntity
  8
1
  6
CONTINUOUS
 62
           3
100
AcDbLine
 10
316.341871146256
 20
733.212839203768
 11
319.726278637137
 21
747.02630556432
  0
LINE
  5
A1
100
AcDbEntity
  8
1
  6
CONTINUOUS
 62
           3
100
AcDbLine
 10
281.310847177586
 20
763.737335277573
 11
280.578764408639
 21
762.953578291604
  0
LINE
  5
A0
100
AcDbEntity
  8
1
  6
CONTINUOUS
 62
           3
100
AcDbLine
 10
280.87416749602
 20
761.955026230023
 11
280.578764408639
 21
762.953578291604
  0
ENDBLK
  5
154
100
AcDbEntity
  8
0
100
AcDbBlockEnd
  0
ENDSEC
  0
SECTION
  2
ENTITIES
  0
TEXT
  5
158
100
AcDbEntity
  8
1
 62
           2
100
AcDbText
 10
215.545944026702
 20
624.975130419242
 40
35.0
  1
Piccolo Step-in links
 41
0.71262
  7
CONVERTER_1
100
AcDbText
  0
TEXT
  5
157
100
AcDbEntity
  8
1
 62
           3
100
AcDbText
 10
305.653422603733
 20
319.610889930864
 40
35.0
  1
ø 52
 41
0.71262
  7
CONVERTER_1
100
AcDbText
  0
INSERT
  5
2D
100
AcDbEntity
  8
0
100
AcDbBlockReference
  2
WANNE_PICCOLO_STEP_IN_LIN0
 10
0.0
 20
0.0
  0
INSERT
  5
2E
100
AcDbEntity
  8
0
100
AcDbBlockReference
  2
DLX
 10
0.0
 20
0.0
  0
ENDSEC
  0
SECTION
  2
OBJECTS
  0
DICTIONARY
  5
19
100
AcDbDictionary
  3
ACAD_GROUP
350
1A
  3
ACAD_MLINESTYLE
350
1B
  0
DICTIONARY
  5
1A
102
{ACAD_REACTORS
330
19
102
}
100
AcDbDictionary
  0
DICTIONARY
  5
1B
102
{ACAD_REACTORS
330
19
102
}
100
AcDbDictionary
  3
STANDARD
350
1C
  0
MLINESTYLE
  5
1C
102
{ACAD_REACTORS
330
1B
102
}
100
AcDbMlineStyle
  2
STANDARD
 70
           0
  3

 62
           0
 51
90.0
 52
90.0
 71
           2
 49
0.5
 62
         256
  6
BYLAYER
 49
-0.5
 62
         256
  6
BYLAYER
  0
ENDSEC
  0
EOF
