  0
SECTION
  2
HEADER
  9
$ACADVER
  1
AC1014
  9
$ACADMAINTVER
 70
           0
  9
$DWGCODEPAGE
  3
ANSI_1252
  9
$INSBASE
 10
0.0
 20
0.0
 30
0.0
  9
$EXTMIN
 10
1.000000000000E+20
 20
1.000000000000E+20
 30
1.000000000000E+20
  9
$EXTMAX
 10
-1.000000000000E+20
 20
-1.000000000000E+20
 30
-1.000000000000E+20
  9
$LIMMIN
 10
0.0
 20
0.0
  9
$LIMMAX
 10
0.0
 20
0.0
  9
$ORTHOMODE
 70
           0
  9
$REGENMODE
 70
           1
  9
$FILLMODE
 70
           1
  9
$QTEXTMODE
 70
           0
  9
$MIRRTEXT
 70
           1
  9
$DRAGMODE
 70
           2
  9
$LTSCALE
 40
1.0
  9
$OSMODE
 70
           0
  9
$ATTMODE
 70
           1
  9
$TEXTSIZE
 40
0.2
  9
$TRACEWID
 40
0.05
  9
$TEXTSTYLE
  7
STANDARD
  9
$CLAYER
  8
0
  9
$CELTYPE
  6
CONTINUOUS
  9
$CECOLOR
 62
         256
  9
$CELTSCALE
 40
1.0
  9
$DELOBJ
 70
           1
  9
$DISPSILH
 70
           0
  9
$DIMSCALE
 40
1.0
  9
$DIMASZ
 40
0.18
  9
$DIMEXO
 40
0.0625
  9
$DIMDLI
 40
0.38
  9
$DIMRND
 40
0.0
  9
$DIMDLE
 40
0.0
  9
$DIMEXE
 40
0.18
  9
$DIMTP
 40
0.0
  9
$DIMTM
 40
0.0
  9
$DIMTXT
 40
0.18
  9
$DIMCEN
 40
0.09
  9
$DIMTSZ
 40
0.0
  9
$DIMTOL
 70
           0
  9
$DIMLIM
 70
           0
  9
$DIMTIH
 70
           1
  9
$DIMTOH
 70
           1
  9
$DIMSE1
 70
           0
  9
$DIMSE2
 70
           0
  9
$DIMTAD
 70
           0
  9
$DIMZIN
 70
           0
  9
$DIMBLK
  1

  9
$DIMASO
 70
           1
  9
$DIMSHO
 70
           1
  9
$DIMPOST
  1

  9
$DIMAPOST
  1

  9
$DIMALT
 70
           0
  9
$DIMALTD
 70
           2
  9
$DIMALTF
 40
25.4
  9
$DIMLFAC
 40
1.0
  9
$DIMTOFL
 70
           0
  9
$DIMTVP
 40
0.0
  9
$DIMTIX
 70
           0
  9
$DIMSOXD
 70
           0
  9
$DIMSAH
 70
           0
  9
$DIMBLK1
  1

  9
$DIMBLK2
  1

  9
$DIMSTYLE
  2
STANDARD
  9
$DIMCLRD
 70
           0
  9
$DIMCLRE
 70
           0
  9
$DIMCLRT
 70
           0
  9
$DIMTFAC
 40
1.0
  9
$DIMGAP
 40
0.09
  9
$DIMJUST
 70
           0
  9
$DIMSD1
 70
           0
  9
$DIMSD2
 70
           0
  9
$DIMTOLJ
 70
           1
  9
$DIMTZIN
 70
           0
  9
$DIMALTZ
 70
           0
  9
$DIMALTTZ
 70
           0
  9
$DIMFIT
 70
           3
  9
$DIMUPT
 70
           0
  9
$DIMUNIT
 70
           2
  9
$DIMDEC
 70
           4
  9
$DIMTDEC
 70
           4
  9
$DIMALTU
 70
           2
  9
$DIMALTTD
 70
           2
  9
$DIMTXSTY
  7
STANDARD
  9
$DIMAUNIT
 70
           0
  9
$LUNITS
 70
           2
  9
$LUPREC
 70
           4
  9
$SKETCHINC
 40
0.1
  9
$FILLETRAD
 40
0.0
  9
$AUNITS
 70
           0
  9
$AUPREC
 70
           0
  9
$MENU
  1
acad
  9
$ELEVATION
 40
0.0
  9
$PELEVATION
 40
0.0
  9
$THICKNESS
 40
0.0
  9
$LIMCHECK
 70
           0
  9
$BLIPMODE
 70
           1
  9
$CHAMFERA
 40
0.0
  9
$CHAMFERB
 40
0.0
  9
$CHAMFERC
 40
0.0
  9
$CHAMFERD
 40
0.0
  9
$SKPOLY
 70
           0
  9
$TDCREATE
 40
0.000000000
  9
$TDUPDATE
 40
0.000000000
  9
$TDINDWG
 40
0.0000000000
  9
$TDUSRTIMER
 40
0.0000000000
  9
$USRTIMER
 70
           1
  9
$ANGBASE
 50
0.0
  9
$ANGDIR
 70
           0
  9
$PDMODE
 70
           0
  9
$PDSIZE
 40
0.0
  9
$PLINEWID
 40
0.0
  9
$COORDS
 70
           0
  9
$SPLFRAME
 70
           0
  9
$SPLINETYPE
 70
           6
  9
$SPLINESEGS
 70
           8
  9
$ATTDIA
 70
           0
  9
$ATTREQ
 70
           1
  9
$HANDLING
 70
           1
  9
$HANDSEED
  5
15A
  9
$SURFTAB1
 70
           6
  9
$SURFTAB2
 70
           6
  9
$SURFTYPE
 70
           6
  9
$SURFU
 70
           6
  9
$SURFV
 70
           6
  9
$UCSNAME
  2

  9
$UCSORG
 10
0.0
 20
0.0
 30
0.0
  9
$UCSXDIR
 10
1.0
 20
0.0
 30
0.0
  9
$UCSYDIR
 10
0.0
 20
1.0
 30
0.0
  9
$PUCSNAME
  2

  9
$PUCSORG
 10
0.0
 20
0.0
 30
0.0
  9
$PUCSXDIR
 10
1.0
 20
0.0
 30
0.0
  9
$PUCSYDIR
 10
0.0
 20
1.0
 30
0.0
  9
$USERI1
 70
           0
  9
$USERI2
 70
           0
  9
$USERI3
 70
           0
  9
$USERI4
 70
           0
  9
$USERI5
 70
           0
  9
$USERR1
 40
0.0
  9
$USERR2
 40
0.0
  9
$USERR3
 40
0.0
  9
$USERR4
 40
0.0
  9
$USERR5
 40
0.0
  9
$WORLDVIEW
 70
           1
  9
$SHADEDGE
 70
           3
  9
$SHADEDIF
 70
          70
  9
$TILEMODE
 70
           1
  9
$MAXACTVP
 70
          16
  9
$PINSBASE
 10
0.0
 20
0.0
 30
0.0
  9
$PLIMCHECK
 70
           0
  9
$PEXTMIN
 10
1.000000000000E+20
 20
1.000000000000E+20
 30
1.000000000000E+20
  9
$PEXTMAX
 10
-1.000000000000E+20
 20
-1.000000000000E+20
 30
-1.000000000000E+20
  9
$PLIMMIN
 10
0.0
 20
0.0
  9
$PLIMMAX
 10
12.0
 20
9.0
  9
$UNITMODE
 70
           0
  9
$VISRETAIN
 70
           0
  9
$PLINEGEN
 70
           1
  9
$PSLTSCALE
 70
           0
  9
$TREEDEPTH
 70
        3020
  9
$PICKSTYLE
 70
           1
  9
$CMLSTYLE
  2
STANDARD
  9
$CMLJUST
 70
           0
  9
$CMLSCALE
 40
1.0
  9
$PROXYGRAPHICS
 70
           0
  9
$MEASUREMENT
 70
           0
  0
ENDSEC
  0
SECTION
  2
CLASSES
  0
CLASS
  1
LWPOLYLINE
  2
AcDbPolyline
  3
"AutoCAD"
 90
        0
280
           0
281
           1
  0
CLASS
  1
IMAGE
  2
AcDbRasterImage
  3
ISM
 90
      127
280
           0
281
           1
  0
CLASS
  1
OLE2FRAME
  2
AcDbOle2Frame
  3
""
 90
        0
280
           0
281
           1
  0
CLASS
  1
HATCH
  2
AcDbHatch
  3
"ACAD_SEDONA"
 90
        0
280
           0
281
           1
  0
CLASS
  1
DICTIONARYVAR
  2
AcDbDictionaryVar
  3
"AutoCAD"
 90
        0
280
           0
281
           0
  0
CLASS
  1
RASTERVARIABLES
  2
AcDbRasterVariables
  3
ISM
 90
        0
280
           0
281
           0
  0
CLASS
  1
IMAGEDEF
  2
AcDbRasterImageDef
  3
ISM
 90
        0
280
           0
281
           0
  0
CLASS
  1
IMAGEDEF_REACTOR
  2
AcDbRasterImageDefReactor
  3
ISM
 90
        1
280
           0
281
           0
  0
CLASS
  1
IDBUFFER
  2
AcDbIdBuffer
  3
"Acad"
 90
        0
280
           0
281
           0
  0
CLASS
  1
SPATIAL_FILTER
  2
AcDbSpatialFilter
  3
"Acad"
 90
        0
280
           0
281
           0
  0
CLASS
  1
XRECORD
  2
AcDbXrecord
  3
"<Built In>"
 90
        0
280
           0
281
           0
  0
CLASS
  1
SORTENTSTABLE
  2
AcDbSortentsTable
  3
"AutoCAD"
 90
        0
280
           0
281
           0
  0
CLASS
  1
LAYER_INDEX
  2
AcDbLayerIndex
  3
"Acad"
 90
        0
280
           0
281
           0
  0
CLASS
  1
SPATIAL_INDEX
  2
AcDbSpatialIndex
  3
"Acad"
 90
        0
280
           0
281
           0
  0
CLASS
  1
OBJECT_PTR
  2
CAseDLPNTableRecord
  3
"ASE-LPNTableRecord"
 90
        1
280
           0
281
           0
  0
CLASS
  1
LAYOUT
  2
AcDbLayout
  3
"AutoCAD 2000"
 90
        1
280
           0
281
           0
  0
CLASS
  1
PLOTSETTINGS
  2
AcDbPlotSettings
  3
"AutoCAD 2000"
 90
        1
280
           0
281
           0
  0
CLASS
  1
ACDBDICTIONARYWDFLT
  2
AcDbDictionaryWithDefault
  3
"AutoCAD 2000"
 90
        1
280
           0
281
           0
  0
CLASS
  1
ACDBPLACEHOLDER
  2
AcDbPlaceHolder
  3
"AutoCAD 2000"
 90
        1
280
           0
281
           0
  0
CLASS
  1
VBA_PROJECT
  2
AcDbVbaProject
  3
"acadvba"
 90
        1
280
           0
281
           0
  0
CLASS
  1
WIPEOUT
  2
AcDbWipeout
  3
WipeOut|AutoCAD Express Tool|expresstools@autodesk.com
 90
      127
280
           0
281
           1
  0
CLASS
  1
WIPEOUTVARIABLES
  2
AcDbWipeoutVariables
  3
WipeOut|AutoCAD Express Tool|expresstools@autodesk.com
 90
        0
280
           0
281
           0
  0
CLASS
  1
RTEXT
  2
RText
  3
RText|AutoCAD Express Tool|expresstools@autodesk.com
 90
        0
280
           0
281
           1
  0
CLASS
  1
ARCALIGNEDTEXT
  2
AcDbArcAlignedText
  3
ATEXT|AutoCAD Express Tool|expresstools@autodesk.com
 90
        0
280
           0
281
           1
  0
ENDSEC
  0
SECTION
  2
TABLES
  0
TABLE
  2
VPORT
  5
7
100
AcDbSymbolTable
 70
           1
  0
VPORT
  5
15
100
AcDbSymbolTableRecord
100
AcDbViewportTableRecord
  2
*ACTIVE
 70
           0
 10
0.0
 20
0.0
 11
1.0
 21
1.0
 12
6.591288
 22
4.579184
 13
0.0
 23
0.0
 14
1.0
 24
1.0
 15
0.0
 25
0.0
 16
0.0
 26
0.0
 36
1.0
 17
0.0
 27
0.0
 37
0.0
 40
9.158369
 41
0.688564
 42
50.0
 43
0.0
 44
0.0
 50
0.0
 51
0.0
 71
           0
 72
         100
 73
           1
 74
           1
 75
           0
 76
           0
 77
           0
 78
           0
  0
ENDTAB
  0
TABLE
  2
LTYPE
  5
4
100
AcDbSymbolTable
 70
          10
  0
LTYPE
  5
11
100
AcDbSymbolTableRecord
100
AcDbLinetypeTableRecord
  2
BYBLOCK
 70
          64
  3

 72
          65
 73
           0
 40
0.0
  0
LTYPE
  5
12
100
AcDbSymbolTableRecord
100
AcDbLinetypeTableRecord
  2
BYLAYER
 70
          64
  3

 72
          65
 73
           0
 40
0.0
  0
LTYPE
  5
13
100
AcDbSymbolTableRecord
100
AcDbLinetypeTableRecord
  2
CONTINUOUS
 70
          64
  3
Solid line
 72
          65
 73
           0
 40
0.0
  0
LTYPE
  5
1D
100
AcDbSymbolTableRecord
100
AcDbLinetypeTableRecord
  2
DASHED
 70
          64
  3
Dashed
 72
          65
 73
           2
 40
15.0
 49
12.0
 74
           0
 49
-3.0
 74
           0
  0
LTYPE
  5
1E
100
AcDbSymbolTableRecord
100
AcDbLinetypeTableRecord
  2
DOTTED
 70
          64
  3
Dotted
 72
          65
 73
           2
 40
3.5
 49
0.5
 74
           0
 49
-3.0
 74
           0
  0
LTYPE
  5
1F
100
AcDbSymbolTableRecord
100
AcDbLinetypeTableRecord
  2
DOT_CENTER
 70
          64
  3
Dot_Center
 72
          65
 73
           4
 40
2.0
 49
1.25
 74
           0
 49
-0.25
 74
           0
 49
0.25
 74
           0
 49
-0.25
 74
           0
  0
LTYPE
  5
20
100
AcDbSymbolTableRecord
100
AcDbLinetypeTableRecord
  2
LONG_DASHED
 70
          64
  3
Long_Dashed
 72
          65
 73
           2
 40
2.0
 49
1.5
 74
           0
 49
-0.5
 74
           0
  0
LTYPE
  5
21
100
AcDbSymbolTableRecord
100
AcDbLinetypeTableRecord
  2
DASH_CENTER
 70
          64
  3
Dash_Center
 72
          65
 73
           4
 40
36.0
 49
24.0
 74
           0
 49
-3.0
 74
           0
 49
6.0
 74
           0
 49
-3.0
 74
           0
  0
LTYPE
  5
22
100
AcDbSymbolTableRecord
100
AcDbLinetypeTableRecord
  2
PHANTOM
 70
          64
  3
Phantom
 72
          65
 73
           6
 40
2.5
 49
1.25
 74
           0
 49
-0.25
 74
           0
 49
0.25
 74
           0
 49
-0.25
 74
           0
 49
0.25
 74
           0
 49
-0.25
 74
           0
  0
LTYPE
  5
23
100
AcDbSymbolTableRecord
100
AcDbLinetypeTableRecord
  2
CENTER_DASH_DASH
 70
          64
  3
Center_Dash_Dash
 72
          65
 73
           6
 40
22.0
 49
12.0
 74
           0
 49
-3.0
 74
           0
 49
0.5
 74
           0
 49
-3.0
 74
           0
 49
0.5
 74
           0
 49
-3.0
 74
           0
  0
ENDTAB
  0
TABLE
  2
LAYER
  5
2
100
AcDbSymbolTable
 70
           4
  0
LAYER
  5
14
100
AcDbSymbolTableRecord
100
AcDbLayerTableRecord
  2
0
 70
           0
 62
           7
  6
CONTINUOUS
  0
LAYER
  5
24
100
AcDbSymbolTableRecord
100
AcDbLayerTableRecord
  2
MITTELLINIEN
 70
           0
 62
           7
  6
CONTINUOUS
  0
LAYER
  5
25
100
AcDbSymbolTableRecord
100
AcDbLayerTableRecord
  2
1
 70
           0
 62
           7
  6
CONTINUOUS
  0
LAYER
  5
26
100
AcDbSymbolTableRecord
100
AcDbLayerTableRecord
  2
WANNE
 70
           0
 62
           7
  6
CONTINUOUS
  0
ENDTAB
  0
TABLE
  2
STYLE
  5
3
100
AcDbSymbolTable
 70
           2
  0
STYLE
  5
17
100
AcDbSymbolTableRecord
100
AcDbTextStyleTableRecord
  2
STANDARD
 70
           0
 40
0.0
 41
1.0
 50
0.0
 71
           0
 42
0.0
  3
txt
  4

  0
STYLE
  5
156
100
AcDbSymbolTableRecord
100
AcDbTextStyleTableRecord
  2
CONVERTER_1
 70
           0
 40
0.0
 41
0.71262
 50
0.0
 71
           0
 42
0.0
  3
txt.shx
  4

  0
ENDTAB
  0
TABLE
  2
VIEW
  5
5
100
AcDbSymbolTable
 70
           0
  0
ENDTAB
  0
TABLE
  2
UCS
  5
6
100
AcDbSymbolTable
 70
           0
  0
ENDTAB
  0
TABLE
  2
APPID
  5
8
100
AcDbSymbolTable
 70
           1
  0
APPID
  5
16
100
AcDbSymbolTableRecord
100
AcDbRegAppTableRecord
  2
ACAD
 70
           0
  0
ENDTAB
  0
TABLE
  2
DIMSTYLE
  5
9
100
AcDbSymbolTable
 70
           1
  0
DIMSTYLE
105
18
100
AcDbSymbolTableRecord
100
AcDbDimStyleTableRecord
  2
STANDARD
 70
           0
  3

  4

  5

  6

  7

 40
1.0
 41
0.18
 42
0.0625
 43
0.38
 44
0.18
 45
0.0
 46
0.0
 47
0.0
 48
0.0
 71
           0
 72
           0
 73
           1
 74
           1
 75
           0
 76
           0
 77
           0
 78
           0
140
0.18
141
0.09
142
0.0
143
25.4
144
1.0
145
0.0
146
1.0
147
0.09
170
           0
171
           2
172
           0
173
           0
174
           0
175
           0
176
           0
177
           0
178
           0
270
           2
271
           4
272
           4
273
           2
274
           2
275
           0
280
           0
281
           0
282
           0
283
           1
284
           0
285
           0
286
           0
287
           0
288
           0
340
17
  0
ENDTAB
  0
TABLE
  2
BLOCK_RECORD
  5
1
100
AcDbSymbolTable
 70
           2
  0
BLOCK_RECORD
  5
A
100
AcDbSymbolTableRecord
100
AcDbBlockTableRecord
  2
*MODEL_SPACE
  0
BLOCK_RECORD
  5
B
100
AcDbSymbolTableRecord
100
AcDbBlockTableRecord
  2
*PAPER_SPACE
  0
BLOCK_RECORD
  5
27
100
AcDbSymbolTableRecord
100
AcDbBlockTableRecord
  2
DLX
  0
BLOCK_RECORD
  5
29
100
AcDbSymbolTableRecord
100
AcDbBlockTableRecord
  2
WANNE_PICCOLO_STEP_IN_REC1
  0
ENDTAB
  0
ENDSEC
  0
SECTION
  2
BLOCKS
  0
BLOCK
  5
D
100
AcDbEntity
  8
0
100
AcDbBlockBegin
  2
*MODEL_SPACE
 70
           0
 10
0.0
 20
0.0
 30
0.0
  3
*MODEL_SPACE
  1

  0
ENDBLK
  5
E
100
AcDbEntity
  8
0
100
AcDbBlockEnd
  0
BLOCK
  5
F
100
AcDbEntity
 67
           1
  8
0
100
AcDbBlockBegin
  2
*PAPER_SPACE
 70
           0
 10
0.0
 20
0.0
 30
0.0
  3
*PAPER_SPACE
  1

  0
ENDBLK
  5
10
100
AcDbEntity
 67
           1
  8
0
100
AcDbBlockEnd
  0
BLOCK
  5
28
100
AcDbEntity
  8
0
100
AcDbBlockBegin
  2
DLX
 70
           0
 10
0.0
 20
0.0
 30
0.0
  3
DLX
  1

  0
CIRCLE
  5
E2
100
AcDbEntity
  8
1
  6
CONTINUOUS
 62
           3
100
AcDbCircle
 10
1476.860428059028
 20
765.853918297996
 40
5.972862778755
  0
CIRCLE
  5
E1
100
AcDbEntity
  8
1
  6
CONTINUOUS
 62
           3
100
AcDbCircle
 10
1476.860428059028
 20
765.853918297996
 40
5.530127989697
  0
ARC
  5
E0
100
AcDbEntity
  8
1
  6
CONTINUOUS
 62
           3
100
AcDbCircle
 10
1477.067246890407
 20
767.279050340622
 40
2.009798008862
100
AcDbArc
 50
-55.929988464572
 51
86.297888718232
  0
ARC
  5
DF
100
AcDbEntity
  8
1
  6
CONTINUOUS
 62
           3
100
AcDbCircle
 10
1476.988929064394
 20
767.239156349792
 40
1.257687287768
100
AcDbArc
 50
-74.800419047062
 51
80.93139523879
  0
ARC
  5
DE
100
AcDbEntity
  8
1
  6
CONTINUOUS
 62
           3
100
AcDbCircle
 10
1476.913746426198
 20
764.028169809063
 40
1.155889798232
100
AcDbArc
 50
0.985058170485
 51
82.918254632932
  0
ARC
  5
DD
100
AcDbEntity
  8
1
  6
CONTINUOUS
 62
           3
100
AcDbCircle
 10
1477.639139612688
 20
764.337364101467
 40
1.391870091328
100
AcDbArc
 50
-1.298612665717
 51
66.544866494083
  0
LINE
  5
DC
100
AcDbEntity
  8
1
  6
CONTINUOUS
 62
           3
100
AcDbLine
 10
1369.452776290409
 20
761.955026230023
 11
1369.157373203029
 21
762.953578291604
  0
LINE
  5
DB
100
AcDbEntity
  8
1
  6
CONTINUOUS
 62
           3
100
AcDbLine
 10
1369.889455971976
 20
763.737335277573
 11
1369.157373203029
 21
762.953578291604
  0
LINE
  5
DA
100
AcDbEntity
  8
1
  6
CONTINUOUS
 62
           3
100
AcDbLine
 10
1404.920479940646
 20
733.212839203768
 11
1408.304887431527
 21
747.02630556432
  0
LINE
  5
D9
100
AcDbEntity
  8
1
  6
CONTINUOUS
 62
           3
100
AcDbLine
 10
1400.732325785406
 20
733.212839203768
 11
1404.116733276423
 21
747.02630556432
  0
LINE
  5
D8
100
AcDbEntity
  8
1
  6
CONTINUOUS
 62
           3
100
AcDbLine
 10
1400.732325785406
 20
733.212839203768
 11
1404.920479940646
 21
733.212839203768
  0
LINE
  5
D7
100
AcDbEntity
  8
1
  6
CONTINUOUS
 62
           3
100
AcDbLine
 10
1399.648351726237
 20
728.788596779582
 11
1403.836505881426
 21
728.788596779582
  0
LINE
  5
D6
100
AcDbEntity
  8
1
  6
CONTINUOUS
 62
           3
100
AcDbLine
 10
1400.452098390531
 20
714.975130419241
 11
1406.734329623428
 21
714.975130419241
  0
LINE
  5
D5
100
AcDbEntity
  8
1
  6
CONTINUOUS
 62
           3
100
AcDbLine
 10
1404.116733276423
 20
747.02630556432
 11
1397.834502043557
 21
747.02630556432
  0
LINE
  5
D4
100
AcDbEntity
  8
1
  6
CONTINUOUS
 62
           3
100
AcDbLine
 10
1435.52788944038
 20
747.02630556432
 11
1427.675100399362
 21
714.975130419241
  0
LINE
  5
D3
100
AcDbEntity
  8
1
  6
CONTINUOUS
 62
           3
100
AcDbLine
 10
1428.161684148383
 20
742.60206314008
 11
1422.476843225659
 21
719.399372843423
  0
LINE
  5
D2
100
AcDbEntity
  8
1
  6
CONTINUOUS
 62
           3
100
AcDbLine
 10
1423.973529993134
 20
742.60206314008
 11
1428.161684148383
 21
742.60206314008
  0
LINE
  5
D1
100
AcDbEntity
  8
1
  6
CONTINUOUS
 62
           3
100
AcDbLine
 10
1435.52788944038
 20
747.02630556432
 11
1418.775272819551
 21
747.02630556432
  0
LINE
  5
D0
100
AcDbEntity
  8
1
  6
CONTINUOUS
 62
           3
100
AcDbLine
 10
1418.288689070559
 20
719.399372843423
 11
1423.973529993134
 21
742.60206314008
  0
LINE
  5
CF
100
AcDbEntity
  8
1
  6
CONTINUOUS
 62
           3
100
AcDbLine
 10
1418.775272819551
 20
747.02630556432
 11
1410.922483778553
 21
714.975130419241
  0
LINE
  5
CE
100
AcDbEntity
  8
1
  6
CONTINUOUS
 62
           3
100
AcDbLine
 10
1422.476843225659
 20
719.399372843423
 11
1418.288689070559
 21
719.399372843423
  0
LINE
  5
CD
100
AcDbEntity
  8
1
  6
CONTINUOUS
 62
           3
100
AcDbLine
 10
1410.922483778553
 20
714.975130419241
 11
1427.675100399362
 21
714.975130419241
  0
LINE
  5
CC
100
AcDbEntity
  8
1
  6
CONTINUOUS
 62
           3
100
AcDbLine
 10
1414.587118664442
 20
747.02630556432
 11
1408.304887431527
 21
747.02630556432
  0
LINE
  5
CB
100
AcDbEntity
  8
1
  6
CONTINUOUS
 62
           3
100
AcDbLine
 10
1397.834502043557
 20
747.02630556432
 11
1389.981713002564
 21
714.975130419241
  0
LINE
  5
CA
100
AcDbEntity
  8
1
  6
CONTINUOUS
 62
           3
100
AcDbLine
 10
1396.263944235352
 20
714.975130419241
 11
1399.648351726237
 21
728.788596779582
  0
LINE
  5
C9
100
AcDbEntity
  8
1
  6
CONTINUOUS
 62
           3
100
AcDbLine
 10
1400.452098390531
 20
714.975130419241
 11
1403.836505881426
 21
728.788596779582
  0
LINE
  5
C8
100
AcDbEntity
  8
1
  6
CONTINUOUS
 62
           3
100
AcDbLine
 10
1406.734329623428
 20
714.975130419241
 11
1414.587118664442
 21
747.02630556432
  0
LINE
  5
C7
100
AcDbEntity
  8
1
  6
CONTINUOUS
 62
           3
100
AcDbLine
 10
1389.981713002564
 20
714.975130419241
 11
1396.263944235352
 21
714.975130419241
  0
LINE
  5
C6
100
AcDbEntity
  8
1
  6
CONTINUOUS
 62
           3
100
AcDbLine
 10
1384.654181507607
 20
735.965699503654
 11
1390.936412740414
 21
735.965699503654
  0
LINE
  5
C5
100
AcDbEntity
  8
1
  6
CONTINUOUS
 62
           3
100
AcDbLine
 10
1386.280142596401
 20
742.60206314008
 11
1384.654181507607
 21
735.965699503654
  0
LINE
  5
C4
100
AcDbEntity
  8
1
  6
CONTINUOUS
 62
           3
100
AcDbLine
 10
1382.091988441209
 20
742.60206314008
 11
1386.280142596401
 21
742.60206314008
  0
LINE
  5
C3
100
AcDbEntity
  8
1
  6
CONTINUOUS
 62
           3
100
AcDbLine
 10
1376.407147518579
 20
719.399372843423
 11
1382.091988441209
 21
742.60206314008
  0
LINE
  5
C2
100
AcDbEntity
  8
1
  6
CONTINUOUS
 62
           3
100
AcDbLine
 10
1380.595301673782
 20
719.399372843423
 11
1376.407147518579
 21
719.399372843423
  0
LINE
  5
C1
100
AcDbEntity
  8
1
  6
CONTINUOUS
 62
           3
100
AcDbLine
 10
1382.22126276257
 20
726.035736479849
 11
1380.595301673782
 21
719.399372843423
  0
LINE
  5
C0
100
AcDbEntity
  8
1
  6
CONTINUOUS
 62
           3
100
AcDbLine
 10
1388.503493995358
 20
726.035736479849
 11
1382.22126276257
 21
726.035736479849
  0
LINE
  5
BF
100
AcDbEntity
  8
1
  6
CONTINUOUS
 62
           3
100
AcDbLine
 10
1385.793558847383
 20
714.975130419241
 11
1388.503493995358
 21
726.035736479849
  0
LINE
  5
BE
100
AcDbEntity
  8
1
  6
CONTINUOUS
 62
           3
100
AcDbLine
 10
1369.04094222663
 20
714.975130419241
 11
1385.793558847383
 21
714.975130419241
  0
LINE
  5
BD
100
AcDbEntity
  8
1
  6
CONTINUOUS
 62
           3
100
AcDbLine
 10
1376.893731267623
 20
747.02630556432
 11
1369.04094222663
 21
714.975130419241
  0
LINE
  5
BC
100
AcDbEntity
  8
1
  6
CONTINUOUS
 62
           3
100
AcDbLine
 10
1393.646347888344
 20
747.02630556432
 11
1376.893731267623
 21
747.02630556432
  0
LINE
  5
BB
100
AcDbEntity
  8
1
  6
CONTINUOUS
 62
           3
100
AcDbLine
 10
1390.936412740414
 20
735.965699503654
 11
1393.646347888344
 21
747.02630556432
  0
LINE
  5
BA
100
AcDbEntity
  8
1
  6
CONTINUOUS
 62
           3
100
AcDbLine
 10
1371.621603053247
 20
742.60206314008
 11
1372.705577112406
 21
747.02630556432
  0
LINE
  5
B9
100
AcDbEntity
  8
1
  6
CONTINUOUS
 62
           3
100
AcDbLine
 10
1361.151217665267
 20
742.60206314008
 11
1371.621603053247
 21
742.60206314008
  0
LINE
  5
B8
100
AcDbEntity
  8
1
  6
CONTINUOUS
 62
           3
100
AcDbLine
 10
1358.718298920254
 20
732.672100116194
 11
1361.151217665267
 21
742.60206314008
  0
LINE
  5
B7
100
AcDbEntity
  8
1
  6
CONTINUOUS
 62
           3
100
AcDbLine
 10
1369.188684308318
 20
732.672100116194
 11
1358.718298920254
 21
732.672100116194
  0
LINE
  5
B6
100
AcDbEntity
  8
1
  6
CONTINUOUS
 62
           3
100
AcDbLine
 10
1364.852788071394
 20
714.975130419241
 11
1369.188684308318
 21
732.672100116194
  0
LINE
  5
B5
100
AcDbEntity
  8
1
  6
CONTINUOUS
 62
           3
100
AcDbLine
 10
1348.100171450572
 20
714.975130419241
 11
1364.852788071394
 21
714.975130419241
  0
LINE
  5
B4
100
AcDbEntity
  8
1
  6
CONTINUOUS
 62
           3
100
AcDbLine
 10
1349.184145509879
 20
719.399372843423
 11
1348.100171450572
 21
714.975130419241
  0
LINE
  5
B3
100
AcDbEntity
  8
1
  6
CONTINUOUS
 62
           3
100
AcDbLine
 10
1359.65453089779
 20
719.399372843423
 11
1349.184145509879
 21
719.399372843423
  0
LINE
  5
B2
100
AcDbEntity
  8
1
  6
CONTINUOUS
 62
           3
100
AcDbLine
 10
1361.822479016208
 20
728.247857692038
 11
1359.65453089779
 21
719.399372843423
  0
LINE
  5
B1
100
AcDbEntity
  8
1
  6
CONTINUOUS
 62
           3
100
AcDbLine
 10
1351.352093628242
 20
728.247857692038
 11
1361.822479016208
 21
728.247857692038
  0
LINE
  5
B0
100
AcDbEntity
  8
1
  6
CONTINUOUS
 62
           3
100
AcDbLine
 10
1355.952960491634
 20
747.02630556432
 11
1351.352093628242
 21
728.247857692038
  0
LINE
  5
AF
100
AcDbEntity
  8
1
  6
CONTINUOUS
 62
           3
100
AcDbLine
 10
1372.705577112406
 20
747.02630556432
 11
1355.952960491634
 21
747.02630556432
  0
LINE
  5
AE
100
AcDbEntity
  8
1
  6
CONTINUOUS
 62
           3
100
AcDbLine
 10
1351.764806336471
 20
747.02630556432
 11
1343.912017295456
 21
714.975130419241
  0
LINE
  5
AD
100
AcDbEntity
  8
1
  6
CONTINUOUS
 62
           3
100
AcDbLine
 10
1345.482575103664
 20
747.02630556432
 11
1351.764806336471
 21
747.02630556432
  0
LINE
  5
AC
100
AcDbEntity
  8
1
  6
CONTINUOUS
 62
           3
100
AcDbLine
 10
1343.912017295456
 20
714.975130419241
 11
1326.112362135866
 21
714.975130419241
  0
LINE
  5
AB
100
AcDbEntity
  8
1
  6
CONTINUOUS
 62
           3
100
AcDbLine
 10
1338.713760121859
 20
719.399372843423
 11
1345.482575103664
 21
747.02630556432
  0
LINE
  5
AA
100
AcDbEntity
  8
1
  6
CONTINUOUS
 62
           3
100
AcDbLine
 10
1333.478567427874
 20
719.399372843423
 11
1338.713760121859
 21
719.399372843423
  0
LINE
  5
A9
100
AcDbEntity
  8
1
  6
CONTINUOUS
 62
           3
100
AcDbLine
 10
1340.247382409669
 20
747.02630556432
 11
1333.478567427874
 21
719.399372843423
  0
LINE
  5
A8
100
AcDbEntity
  8
1
  6
CONTINUOUS
 62
           3
100
AcDbLine
 10
1333.965151176859
 20
747.02630556432
 11
1340.247382409669
 21
747.02630556432
  0
LINE
  5
A7
100
AcDbEntity
  8
1
  6
CONTINUOUS
 62
           3
100
AcDbLine
 10
1326.112362135866
 20
714.975130419241
 11
1333.965151176859
 21
747.02630556432
  0
LINE
  5
A6
100
AcDbEntity
  8
1
  6
CONTINUOUS
 62
           3
100
AcDbLine
 10
1321.92420798074
 20
714.975130419241
 11
1304.124552821091
 21
714.975130419241
  0
LINE
  5
A5
100
AcDbEntity
  8
1
  6
CONTINUOUS
 62
           3
100
AcDbLine
 10
1332.486932169659
 20
758.086911624903
 11
1321.92420798074
 21
714.975130419241
  0
LINE
  5
A4
100
AcDbEntity
  8
1
  6
CONTINUOUS
 62
           3
100
AcDbLine
 10
1308.513605092367
 20
758.086911624903
 11
1332.486932169659
 21
758.086911624903
  0
LINE
  5
A3
100
AcDbEntity
  8
1
  6
CONTINUOUS
 62
           3
100
AcDbLine
 10
1307.158637518382
 20
752.556608594646
 11
1308.513605092367
 21
758.086911624903
  0
LINE
  5
A2
100
AcDbEntity
  8
1
  6
CONTINUOUS
 62
           3
100
AcDbLine
 10
1324.849733362915
 20
752.556608594646
 11
1307.158637518382
 21
752.556608594646
  0
LINE
  5
A1
100
AcDbEntity
  8
1
  6
CONTINUOUS
 62
           3
100
AcDbLine
 10
1316.725950807033
 20
719.399372843423
 11
1324.849733362915
 21
752.556608594646
  0
LINE
  5
A0
100
AcDbEntity
  8
1
  6
CONTINUOUS
 62
           3
100
AcDbLine
 10
1311.490758113154
 20
719.399372843423
 11
1316.725950807033
 21
719.399372843423
  0
LINE
  5
9F
100
AcDbEntity
  8
1
  6
CONTINUOUS
 62
           3
100
AcDbLine
 10
1318.259573094844
 20
747.02630556432
 11
1311.490758113154
 21
719.399372843423
  0
LINE
  5
9E
100
AcDbEntity
  8
1
  6
CONTINUOUS
 62
           3
100
AcDbLine
 10
1311.977341862146
 20
747.02630556432
 11
1318.259573094844
 21
747.02630556432
  0
LINE
  5
9D
100
AcDbEntity
  8
1
  6
CONTINUOUS
 62
           3
100
AcDbLine
 10
1304.124552821091
 20
714.975130419241
 11
1311.977341862146
 21
747.02630556432
  0
LINE
  5
9C
100
AcDbEntity
  8
1
  6
CONTINUOUS
 62
           3
100
AcDbLine
 10
1439.244234054606
 20
721.169069813151
 11
1448.289394560698
 21
758.086911624903
  0
LINE
  5
9B
100
AcDbEntity
  8
1
  6
CONTINUOUS
 62
           3
100
AcDbLine
 10
1448.289394560698
 20
758.086911624903
 11
1442.42597874343
 21
758.086911624903
  0
LINE
  5
9A
100
AcDbEntity
  8
1
  6
CONTINUOUS
 62
           3
100
AcDbLine
 10
1442.42597874343
 20
758.086911624903
 11
1431.863254554488
 21
714.975130419241
  0
LINE
  5
99
100
AcDbEntity
  8
1
  6
CONTINUOUS
 62
           3
100
AcDbLine
 10
1449.767613568059
 20
747.02630556432
 11
1444.08277264537
 21
723.823615267718
  0
LINE
  5
98
100
AcDbEntity
  8
1
  6
CONTINUOUS
 62
           3
100
AcDbLine
 10
1444.08277264537
 20
723.823615267718
 11
1459.788350727291
 21
723.823615267718
  0
LINE
  5
97
100
AcDbEntity
  8
1
  6
CONTINUOUS
 62
           3
100
AcDbLine
 10
1459.788350727291
 20
723.823615267718
 11
1465.4731916499
 21
747.02630556432
  0
LINE
  5
96
100
AcDbEntity
  8
1
  6
CONTINUOUS
 62
           3
100
AcDbLine
 10
1465.4731916499
 20
747.02630556432
 11
1460.237998955976
 21
747.02630556432
  0
LINE
  5
95
100
AcDbEntity
  8
1
  6
CONTINUOUS
 62
           3
100
AcDbLine
 10
1460.237998955976
 20
747.02630556432
 11
1455.637132092581
 21
728.247857692038
  0
LINE
  5
94
100
AcDbEntity
  8
1
  6
CONTINUOUS
 62
           3
100
AcDbLine
 10
1455.637132092581
 20
728.247857692038
 11
1450.401939398629
 21
728.247857692038
  0
LINE
  5
93
100
AcDbEntity
  8
1
  6
CONTINUOUS
 62
           3
100
AcDbLine
 10
1450.401939398629
 20
728.247857692038
 11
1455.002806261981
 21
747.02630556432
  0
LINE
  5
92
100
AcDbEntity
  8
1
  6
CONTINUOUS
 62
           3
100
AcDbLine
 10
1455.002806261981
 20
747.02630556432
 11
1449.767613568059
 21
747.02630556432
  0
LINE
  5
91
100
AcDbEntity
  8
1
  6
CONTINUOUS
 62
           3
100
AcDbLine
 10
1472.031530406041
 20
747.02630556432
 11
1467.986084143026
 21
747.02630556432
  0
LINE
  5
90
100
AcDbEntity
  8
1
  6
CONTINUOUS
 62
           3
100
AcDbLine
 10
1467.986084143026
 20
747.02630556432
 11
1472.108379665222
 21
736.390431637902
  0
LINE
  5
8F
100
AcDbEntity
  8
1
  6
CONTINUOUS
 62
           3
100
AcDbLine
 10
1472.108379665222
 20
736.390431637902
 11
1462.301243220433
 21
723.823615267718
  0
LINE
  5
8E
100
AcDbEntity
  8
1
  6
CONTINUOUS
 62
           3
100
AcDbLine
 10
1462.301243220433
 20
723.823615267718
 11
1466.346689483429
 21
723.823615267718
  0
LINE
  5
8D
100
AcDbEntity
  8
1
  6
CONTINUOUS
 62
           3
100
AcDbLine
 10
1466.346689483429
 20
723.823615267718
 11
1473.450822063531
 21
732.926815789743
  0
LINE
  5
8C
100
AcDbEntity
  8
1
  6
CONTINUOUS
 62
           3
100
AcDbLine
 10
1473.450822063531
 20
732.926815789743
 11
1476.979077758215
 21
723.823615267718
  0
LINE
  5
8B
100
AcDbEntity
  8
1
  6
CONTINUOUS
 62
           3
100
AcDbLine
 10
1476.979077758215
 20
723.823615267718
 11
1481.024524021264
 21
723.823615267718
  0
LINE
  5
8A
100
AcDbEntity
  8
1
  6
CONTINUOUS
 62
           3
100
AcDbLine
 10
1481.024524021264
 20
723.823615267718
 11
1476.153825928259
 21
736.390431637844
  0
LINE
  5
89
100
AcDbEntity
  8
1
  6
CONTINUOUS
 62
           3
100
AcDbLine
 10
1476.153825928259
 20
736.390431637844
 11
1484.454055973342
 21
747.02630556432
  0
LINE
  5
88
100
AcDbEntity
  8
1
  6
CONTINUOUS
 62
           3
100
AcDbLine
 10
1484.454055973342
 20
747.02630556432
 11
1480.408609710284
 21
747.02630556432
  0
LINE
  5
87
100
AcDbEntity
  8
1
  6
CONTINUOUS
 62
           3
100
AcDbLine
 10
1480.408609710284
 20
747.02630556432
 11
1474.811383529998
 21
739.854047486065
  0
LINE
  5
86
100
AcDbEntity
  8
1
  6
CONTINUOUS
 62
           3
100
AcDbLine
 10
1474.811383529998
 20
739.854047486065
 11
1472.031530406041
 21
747.02630556432
  0
LINE
  5
85
100
AcDbEntity
  8
1
  6
CONTINUOUS
 62
           3
100
AcDbLine
 10
1482.053383606779
 20
721.169069813151
 11
1484.454055973298
 21
714.975130419241
  0
LINE
  5
84
100
AcDbEntity
  8
1
  6
CONTINUOUS
 62
           3
100
AcDbLine
 10
1482.053383606779
 20
721.169069813151
 11
1439.244234054606
 21
721.169069813151
  0
LINE
  5
83
100
AcDbEntity
  8
1
  6
CONTINUOUS
 62
           3
100
AcDbLine
 10
1484.454055973298
 20
714.975130419241
 11
1431.863254554488
 21
714.975130419241
  0
LINE
  5
82
100
AcDbEntity
  8
1
  6
CONTINUOUS
 62
           3
100
AcDbLine
 10
1340.863240480058
 20
758.086911624903
 11
1344.11516265754
 21
771.359638897561
  0
LINE
  5
81
100
AcDbEntity
  8
1
  6
CONTINUOUS
 62
           3
100
AcDbLine
 10
1344.11516265754
 20
771.359638897561
 11
1356.679625123257
 21
771.359638897561
  0
LINE
  5
80
100
AcDbEntity
  8
1
  6
CONTINUOUS
 62
           3
100
AcDbLine
 10
1356.679625123257
 20
771.359638897561
 11
1353.427702945583
 21
758.086911624903
  0
LINE
  5
7F
100
AcDbEntity
  8
1
  6
CONTINUOUS
 62
           3
100
AcDbLine
 10
1353.427702945583
 20
758.086911624903
 11
1340.863240480058
 21
758.086911624903
  0
LINE
  5
7E
100
AcDbEntity
  8
1
  6
CONTINUOUS
 62
           3
100
AcDbLine
 10
1351.875612897579
 20
760.299032837034
 11
1343.499304587224
 21
760.299032837034
  0
LINE
  5
7D
100
AcDbEntity
  8
1
  6
CONTINUOUS
 62
           3
100
AcDbLine
 10
1354.043561016055
 20
769.14751768551
 11
1351.875612897579
 21
760.299032837034
  0
LINE
  5
7C
100
AcDbEntity
  8
1
  6
CONTINUOUS
 62
           3
100
AcDbLine
 10
1345.667252705566
 20
769.14751768551
 11
1354.043561016055
 21
769.14751768551
  0
LINE
  5
7B
100
AcDbEntity
  8
1
  6
CONTINUOUS
 62
           3
100
AcDbLine
 10
1343.499304587224
 20
760.299032837034
 11
1345.667252705566
 21
769.14751768551
  0
LINE
  5
7A
100
AcDbEntity
  8
1
  6
CONTINUOUS
 62
           3
100
AcDbLine
 10
1359.19251761625
 20
771.359638897561
 11
1355.940595438713
 21
758.086911624903
  0
LINE
  5
79
100
AcDbEntity
  8
1
  6
CONTINUOUS
 62
           3
100
AcDbLine
 10
1359.19251761625
 20
771.359638897561
 11
1371.756980081829
 21
771.359638897561
  0
LINE
  5
78
100
AcDbEntity
  8
1
  6
CONTINUOUS
 62
           3
100
AcDbLine
 10
1371.756980081829
 20
771.359638897561
 11
1369.889455971976
 21
763.737335277573
  0
LINE
  5
77
100
AcDbEntity
  8
1
  6
CONTINUOUS
 62
           3
100
AcDbLine
 10
1368.505057904297
 20
758.086911624903
 11
1366.410980826657
 21
758.086911624903
  0
LINE
  5
76
100
AcDbEntity
  8
1
  6
CONTINUOUS
 62
           3
100
AcDbLine
 10
1366.410980826657
 20
758.086911624903
 11
1367.49495488603
 21
762.511154049085
  0
LINE
  5
75
100
AcDbEntity
  8
1
  6
CONTINUOUS
 62
           3
100
AcDbLine
 10
1367.49495488603
 20
762.511154049085
 11
1359.1186465755
 21
762.511154049085
  0
LINE
  5
74
100
AcDbEntity
  8
1
  6
CONTINUOUS
 62
           3
100
AcDbLine
 10
1359.660633605092
 20
764.723275261274
 11
1368.036941915473
 21
764.723275261274
  0
LINE
  5
73
100
AcDbEntity
  8
1
  6
CONTINUOUS
 62
           3
100
AcDbLine
 10
1368.036941915473
 20
764.723275261274
 11
1369.120915974794
 21
769.14751768551
  0
LINE
  5
72
100
AcDbEntity
  8
1
  6
CONTINUOUS
 62
           3
100
AcDbLine
 10
1369.120915974794
 20
769.14751768551
 11
1360.744607664276
 21
769.14751768551
  0
LINE
  5
71
100
AcDbEntity
  8
1
  6
CONTINUOUS
 62
           3
100
AcDbLine
 10
1360.744607664276
 20
769.14751768551
 11
1359.660633605092
 21
764.723275261274
  0
LINE
  5
70
100
AcDbEntity
  8
1
  6
CONTINUOUS
 62
           3
100
AcDbLine
 10
1369.452776290409
 20
761.955026230023
 11
1368.505057904297
 21
758.086911624903
  0
LINE
  5
6F
100
AcDbEntity
  8
1
  6
CONTINUOUS
 62
           3
100
AcDbLine
 10
1355.940595438713
 20
758.086911624903
 11
1358.034672516389
 21
758.086911624903
  0
LINE
  5
6E
100
AcDbEntity
  8
1
  6
CONTINUOUS
 62
           3
100
AcDbLine
 10
1358.034672516389
 20
758.086911624903
 11
1359.1186465755
 21
762.511154049085
  0
LINE
  5
6D
100
AcDbEntity
  8
1
  6
CONTINUOUS
 62
           3
100
AcDbLine
 10
1376.363949652556
 20
771.359638897561
 11
1374.269872574993
 21
771.359638897561
  0
LINE
  5
6C
100
AcDbEntity
  8
1
  6
CONTINUOUS
 62
           3
100
AcDbLine
 10
1374.269872574993
 20
771.359638897561
 11
1371.017950397427
 21
758.086911624903
  0
LINE
  5
6B
100
AcDbEntity
  8
1
  6
CONTINUOUS
 62
           3
100
AcDbLine
 10
1371.017950397427
 20
758.086911624903
 11
1373.112027475147
 21
758.086911624903
  0
LINE
  5
6A
100
AcDbEntity
  8
1
  6
CONTINUOUS
 62
           3
100
AcDbLine
 10
1373.112027475147
 20
758.086911624903
 11
1376.363949652556
 21
771.359638897561
  0
LINE
  5
69
100
AcDbEntity
  8
1
  6
CONTINUOUS
 62
           3
100
AcDbLine
 10
1375.624919968132
 20
758.086911624903
 11
1378.876842145676
 21
771.359638897561
  0
LINE
  5
68
100
AcDbEntity
  8
1
  6
CONTINUOUS
 62
           3
100
AcDbLine
 10
1378.876842145676
 20
771.359638897561
 11
1391.441304611266
 21
771.359638897561
  0
LINE
  5
67
100
AcDbEntity
  8
1
  6
CONTINUOUS
 62
           3
100
AcDbLine
 10
1391.441304611266
 20
771.359638897561
 11
1390.30313184914
 21
766.714184352132
  0
LINE
  5
66
100
AcDbEntity
  8
1
  6
CONTINUOUS
 62
           3
100
AcDbLine
 10
1388.189382433744
 20
758.086911624903
 11
1375.624919968132
 21
758.086911624903
  0
LINE
  5
65
100
AcDbEntity
  8
1
  6
CONTINUOUS
 62
           3
100
AcDbLine
 10
1386.637292385696
 20
760.299032837034
 11
1378.260984075367
 21
760.299032837034
  0
LINE
  5
64
100
AcDbEntity
  8
1
  6
CONTINUOUS
 62
           3
100
AcDbLine
 10
1388.805240503991
 20
769.14751768551
 11
1388.209054771614
 21
766.714184352132
  0
LINE
  5
63
100
AcDbEntity
  8
1
  6
CONTINUOUS
 62
           3
100
AcDbLine
 10
1380.428932193694
 20
769.14751768551
 11
1388.805240503991
 21
769.14751768551
  0
LINE
  5
62
100
AcDbEntity
  8
1
  6
CONTINUOUS
 62
           3
100
AcDbLine
 10
1378.260984075367
 20
760.299032837034
 11
1380.428932193694
 21
769.14751768551
  0
LINE
  5
61
100
AcDbEntity
  8
1
  6
CONTINUOUS
 62
           3
100
AcDbLine
 10
1389.815343522516
 20
764.723275261274
 11
1383.533112289711
 21
764.723275261274
  0
LINE
  5
60
100
AcDbEntity
  8
1
  6
CONTINUOUS
 62
           3
100
AcDbLine
 10
1389.815343522516
 20
764.723275261274
 11
1388.189382433744
 21
758.086911624903
  0
LINE
  5
5F
100
AcDbEntity
  8
1
  6
CONTINUOUS
 62
           3
100
AcDbLine
 10
1383.533112289711
 20
764.723275261274
 11
1382.991125260064
 21
762.511154049085
  0
LINE
  5
5E
100
AcDbEntity
  8
1
  6
CONTINUOUS
 62
           3
100
AcDbLine
 10
1382.991125260064
 20
762.511154049085
 11
1387.179279415464
 21
762.511154049085
  0
LINE
  5
5D
100
AcDbEntity
  8
1
  6
CONTINUOUS
 62
           3
100
AcDbLine
 10
1387.179279415464
 20
762.511154049085
 11
1386.637292385696
 21
760.299032837034
  0
LINE
  5
5C
100
AcDbEntity
  8
1
  6
CONTINUOUS
 62
           3
100
AcDbLine
 10
1388.209054771614
 20
766.714184352132
 11
1390.30313184914
 21
766.714184352132
  0
LINE
  5
5B
100
AcDbEntity
  8
1
  6
CONTINUOUS
 62
           3
100
AcDbLine
 10
1390.70227492686
 20
758.086911624903
 11
1392.796352004421
 21
758.086911624903
  0
LINE
  5
5A
100
AcDbEntity
  8
1
  6
CONTINUOUS
 62
           3
100
AcDbLine
 10
1392.796352004421
 20
758.086911624903
 11
1396.04827418199
 21
771.359638897561
  0
LINE
  5
59
100
AcDbEntity
  8
1
  6
CONTINUOUS
 62
           3
100
AcDbLine
 10
1393.954197104426
 20
771.359638897561
 11
1390.70227492686
 21
758.086911624903
  0
LINE
  5
58
100
AcDbEntity
  8
1
  6
CONTINUOUS
 62
           3
100
AcDbLine
 10
1396.04827418199
 20
771.359638897561
 11
1393.954197104426
 21
771.359638897561
  0
LINE
  5
57
100
AcDbEntity
  8
1
  6
CONTINUOUS
 62
           3
100
AcDbLine
 10
1395.30924449759
 20
758.086911624903
 11
1398.561166675106
 21
771.359638897561
  0
LINE
  5
56
100
AcDbEntity
  8
1
  6
CONTINUOUS
 62
           3
100
AcDbLine
 10
1398.561166675106
 20
771.359638897561
 11
1401.702282291446
 21
771.359638897561
  0
LINE
  5
55
100
AcDbEntity
  8
1
  6
CONTINUOUS
 62
           3
100
AcDbLine
 10
1401.702282291446
 20
771.359638897561
 11
1406.186120157722
 21
759.746002533987
  0
LINE
  5
54
100
AcDbEntity
  8
1
  6
CONTINUOUS
 62
           3
100
AcDbLine
 10
1406.186120157722
 20
759.746002533987
 11
1409.031552063074
 21
771.359638897561
  0
LINE
  5
53
100
AcDbEntity
  8
1
  6
CONTINUOUS
 62
           3
100
AcDbLine
 10
1409.031552063074
 20
771.359638897561
 11
1411.125629140688
 21
771.359638897561
  0
LINE
  5
52
100
AcDbEntity
  8
1
  6
CONTINUOUS
 62
           3
100
AcDbLine
 10
1411.125629140688
 20
771.359638897561
 11
1407.873706963068
 21
758.086911624903
  0
LINE
  5
51
100
AcDbEntity
  8
1
  6
CONTINUOUS
 62
           3
100
AcDbLine
 10
1407.873706963068
 20
758.086911624903
 11
1404.6310284743
 21
758.086911624903
  0
LINE
  5
50
100
AcDbEntity
  8
1
  6
CONTINUOUS
 62
           3
100
AcDbLine
 10
1404.6310284743
 20
758.086911624903
 11
1400.84987213859
 21
767.880525048776
  0
LINE
  5
4F
100
AcDbEntity
  8
1
  6
CONTINUOUS
 62
           3
100
AcDbLine
 10
1400.84987213859
 20
767.880525048776
 11
1400.209323872079
 21
769.539615957839
  0
LINE
  5
4E
100
AcDbEntity
  8
1
  6
CONTINUOUS
 62
           3
100
AcDbLine
 10
1400.209323872079
 20
769.539615957839
 11
1397.403321575151
 21
758.086911624903
  0
LINE
  5
4D
100
AcDbEntity
  8
1
  6
CONTINUOUS
 62
           3
100
AcDbLine
 10
1397.403321575151
 20
758.086911624903
 11
1395.30924449759
 21
758.086911624903
  0
LINE
  5
4C
100
AcDbEntity
  8
1
  6
CONTINUOUS
 62
           3
100
AcDbLine
 10
1410.386599456184
 20
758.086911624903
 11
1417.898029735081
 21
771.359638897561
  0
LINE
  5
4B
100
AcDbEntity
  8
1
  6
CONTINUOUS
 62
           3
100
AcDbLine
 10
1417.898029735081
 20
771.359638897561
 11
1421.943475998056
 21
771.359638897561
  0
LINE
  5
4A
100
AcDbEntity
  8
1
  6
CONTINUOUS
 62
           3
100
AcDbLine
 10
1421.943475998056
 20
771.359638897561
 11
1422.951061921818
 21
758.086911624903
  0
LINE
  5
49
100
AcDbEntity
  8
1
  6
CONTINUOUS
 62
           3
100
AcDbLine
 10
1422.951061921818
 20
758.086911624903
 11
1420.921379758749
 21
758.086911624903
  0
LINE
  5
48
100
AcDbEntity
  8
1
  6
CONTINUOUS
 62
           3
100
AcDbLine
 10
1420.921379758749
 20
758.086911624903
 11
1420.753448771483
 21
760.299032837034
  0
LINE
  5
47
100
AcDbEntity
  8
1
  6
CONTINUOUS
 62
           3
100
AcDbLine
 10
1420.753448771483
 20
760.299032837034
 11
1414.017301491118
 21
760.299032837034
  0
LINE
  5
46
100
AcDbEntity
  8
1
  6
CONTINUOUS
 62
           3
100
AcDbLine
 10
1414.017301491118
 20
760.299032837034
 11
1412.765396444756
 21
758.086911624903
  0
LINE
  5
45
100
AcDbEntity
  8
1
  6
CONTINUOUS
 62
           3
100
AcDbLine
 10
1412.765396444756
 20
758.086911624903
 11
1410.386599456184
 21
758.086911624903
  0
LINE
  5
44
100
AcDbEntity
  8
1
  6
CONTINUOUS
 62
           3
100
AcDbLine
 10
1415.26920653765
 20
762.511154049085
 11
1420.585517784161
 21
762.511154049085
  0
LINE
  5
43
100
AcDbEntity
  8
1
  6
CONTINUOUS
 62
           3
100
AcDbLine
 10
1420.585517784161
 20
762.511154049085
 11
1420.081724822305
 21
769.14751768551
  0
LINE
  5
42
100
AcDbEntity
  8
1
  6
CONTINUOUS
 62
           3
100
AcDbLine
 10
1420.081724822305
 20
769.14751768551
 11
1419.024921677016
 21
769.14751768551
  0
LINE
  5
41
100
AcDbEntity
  8
1
  6
CONTINUOUS
 62
           3
100
AcDbLine
 10
1415.26920653765
 20
762.511154049085
 11
1419.024921677016
 21
769.14751768551
  0
LINE
  5
40
100
AcDbEntity
  8
1
  6
CONTINUOUS
 62
           3
100
AcDbLine
 10
1428.715876592507
 20
771.359638897561
 11
1425.463954414939
 21
758.086911624903
  0
LINE
  5
3F
100
AcDbEntity
  8
1
  6
CONTINUOUS
 62
           3
100
AcDbLine
 10
1425.463954414939
 20
758.086911624903
 11
1438.028416880518
 21
758.086911624903
  0
LINE
  5
3E
100
AcDbEntity
  8
1
  6
CONTINUOUS
 62
           3
100
AcDbLine
 10
1438.028416880518
 20
758.086911624903
 11
1438.570403910179
 21
760.299032837034
  0
LINE
  5
3D
100
AcDbEntity
  8
1
  6
CONTINUOUS
 62
           3
100
AcDbLine
 10
1438.570403910179
 20
760.299032837034
 11
1428.100018522159
 21
760.299032837034
  0
LINE
  5
3C
100
AcDbEntity
  8
1
  6
CONTINUOUS
 62
           3
100
AcDbLine
 10
1428.100018522159
 20
760.299032837034
 11
1430.809953670121
 21
771.359638897561
  0
LINE
  5
3B
100
AcDbEntity
  8
1
  6
CONTINUOUS
 62
           3
100
AcDbLine
 10
1430.809953670121
 20
771.359638897561
 11
1428.715876592507
 21
771.359638897561
  0
LINE
  5
3A
100
AcDbEntity
  8
1
  6
CONTINUOUS
 62
           3
100
AcDbLine
 10
1475.331188956791
 20
765.175241633083
 11
1475.331188956791
 21
762.426186207523
  0
LINE
  5
39
100
AcDbEntity
  8
1
  6
CONTINUOUS
 62
           3
100
AcDbLine
 10
1474.458741257675
 20
762.426186207523
 11
1474.458741257675
 21
769.284654382697
  0
LINE
  5
38
100
AcDbEntity
  8
1
  6
CONTINUOUS
 62
           3
100
AcDbLine
 10
1474.458741257675
 20
769.284654382697
 11
1476.900661116915
 21
769.284654382697
  0
LINE
  5
37
100
AcDbEntity
  8
1
  6
CONTINUOUS
 62
           3
100
AcDbLine
 10
1476.900661116915
 20
769.284654382697
 11
1477.197017699268
 21
769.284654382697
  0
LINE
  5
36
100
AcDbEntity
  8
1
  6
CONTINUOUS
 62
           3
100
AcDbLine
 10
1479.030652213834
 20
764.305819973867
 11
1479.030652213834
 21
762.426186207523
  0
LINE
  5
35
100
AcDbEntity
  8
1
  6
CONTINUOUS
 62
           3
100
AcDbLine
 10
1479.030652213834
 20
762.426186207523
 11
1478.069465398329
 21
762.426186207523
  0
LINE
  5
34
100
AcDbEntity
  8
1
  6
CONTINUOUS
 62
           3
100
AcDbLine
 10
1478.069465398329
 20
762.426186207523
 11
1478.069465398329
 21
764.048041475141
  0
LINE
  5
33
100
AcDbEntity
  8
1
  6
CONTINUOUS
 62
           3
100
AcDbLine
 10
1477.056250658409
 20
765.175241633083
 11
1475.331188956791
 21
765.175241633083
  0
LINE
  5
32
100
AcDbEntity
  8
1
  6
CONTINUOUS
 62
           3
100
AcDbLine
 10
1475.331188956791
 20
762.426186207523
 11
1474.458741257675
 21
762.426186207523
  0
LINE
  5
31
100
AcDbEntity
  8
1
  6
CONTINUOUS
 62
           3
100
AcDbLine
 10
1475.331188956791
 20
766.025464960517
 11
1477.318672184733
 21
766.025464960517
  0
LINE
  5
30
100
AcDbEntity
  8
1
  6
CONTINUOUS
 62
           3
100
AcDbLine
 10
1477.187161948877
 20
768.481122950519
 11
1475.331188956791
 21
768.481122950519
  0
LINE
  5
2F
100
AcDbEntity
  8
1
  6
CONTINUOUS
 62
           3
100
AcDbLine
 10
1475.331188956791
 20
768.481122950519
 11
1475.331188956791
 21
766.025464960517
  0
ENDBLK
  5
E3
100
AcDbEntity
  8
0
100
AcDbBlockEnd
  0
BLOCK
  5
2A
100
AcDbEntity
  8
0
100
AcDbBlockBegin
  2
WANNE_PICCOLO_STEP_IN_REC1
 70
           0
 10
0.0
 20
0.0
 30
0.0
  3
WANNE_PICCOLO_STEP_IN_REC1
  1

  0
ARC
  5
153
100
AcDbEntity
  8
1
  6
CONTINUOUS
 62
           7
100
AcDbCircle
 10
1472.964202946415
 20
233.596390778506
 40
85.0
100
AcDbArc
 50
-98.04967306579
 51
0.0
  0
ARC
  5
152
100
AcDbEntity
  8
1
  6
CONTINUOUS
 62
           7
100
AcDbCircle
 10
1472.964202946415
 20
754.975130419242
 40
85.0
100
AcDbArc
 50
0.0
 51
90.0
  0
ARC
  5
151
100
AcDbEntity
  8
1
  6
CONTINUOUS
 62
           7
100
AcDbCircle
 10
319.263003350212
 20
391.70885688813
 40
80.0
100
AcDbArc
 50
180.0
 51
-104.265237675213
  0
ARC
  5
150
100
AcDbEntity
  8
1
  6
CONTINUOUS
 62
           7
100
AcDbCircle
 10
294.263003350212
 20
784.975130419242
 40
55.0
100
AcDbArc
 50
90.0
 51
180.0
  0
ARC
  5
14F
100
AcDbEntity
  8
1
  6
CONTINUOUS
 62
           7
100
AcDbCircle
 10
1560.0
 20
840.421777939881
 40
45.0
100
AcDbArc
 50
0.0
 51
90.0
  0
ARC
  5
14E
100
AcDbEntity
  8
1
  6
CONTINUOUS
 62
           7
100
AcDbCircle
 10
95.0
 20
840.421777939881
 40
45.0
100
AcDbArc
 50
90.0
 51
180.0
  0
ARC
  5
14D
100
AcDbEntity
  8
1
  6
CONTINUOUS
 62
           7
100
AcDbCircle
 10
100.0
 20
352.523916159857
 40
50.0
100
AcDbArc
 50
180.0
 51
-98.049673065791
  0
ARC
  5
14C
100
AcDbEntity
  8
1
  6
CONTINUOUS
 62
           7
100
AcDbCircle
 10
1555.0
 20
146.750504592966
 40
50.0
100
AcDbArc
 50
-98.049673065791
 51
0.0
  0
SPLINE
  5
14B
100
AcDbEntity
  8
1
  6
CONTINUOUS
 62
           7
100
AcDbSpline
210
0.0
220
0.0
230
1.0
 70
           0
 71
           3
 72
          41
 73
          38
 74
          77
 42
0.00000000001
 43
0.00000000001
 44
0.00000000001
 40
-1.9332773527494425
 40
-0.0519149600598183
 40
1.8294474326298031
 40
3.8160231382409919
 40
6.0890057211307713
 40
8.7583165725683472
 40
11.856343216495588
 40
15.358060651053371
 40
19.202594105612455
 40
23.306173214998786
 40
27.570576436275488
 40
31.889464432284576
 40
36.153867653561093
 40
40.257446762947936
 40
44.101980217506949
 40
47.603697652064398
 40
50.701724295991355
 40
53.371035147428152
 40
55.644017730318062
 40
57.630593435929789
 40
59.511955828620387
 40
61.498531534232249
 40
63.771514117121342
 40
66.440824968558132
 40
69.53885161248509
 40
73.040569047042993
 40
76.885102501602589
 40
80.988681610989914
 40
85.253084832266168
 40
89.571972828273672
 40
93.836376049549912
 40
97.939955158937352
 40
101.78448861349699
 40
105.28620604805391
 40
108.38423269198111
 40
111.05354354341986
 40
113.32652612630912
 40
115.31310183191945
 40
117.19446422460911
 40
119.07582661729873
 40
120.95718900998835
 10
991.98502563762304
 20
195.82513841254541
 30
0.0
 10
992.66101788857623
 20
197.58086018129981
 30
0.0
 10
994.08943045964497
 20
199.10900246029971
 30
0.0
 10
996.17751949054309
 20
200.39852359651971
 30
0.0
 10
998.8676180662892
 20
201.43938661159561
 30
0.0
 10
1002.088682590919
 20
202.20846989727491
 30
0.0
 10
1005.749745948523
 20
202.68407761407781
 30
0.0
 10
1009.743478432846
 20
202.85148920373169
 30
0.0
 10
1013.950849373574
 20
202.70505459829721
 30
0.0
 10
1018.2455663149919
 20
202.2487653093892
 30
0.0
 10
1022.498385119724
 20
201.49621914058281
 30
0.0
 10
1026.5813595846771
 20
200.47019143866851
 30
0.0
 10
1030.3720432904991
 20
199.20186859368459
 30
0.0
 10
1033.757640458432
 20
197.72968673496189
 30
0.0
 10
1036.6391126695289
 20
196.09755203806441
 30
0.0
 10
1038.9350766635439
 20
194.35153499875261
 30
0.0
 10
1040.5836867168609
 20
192.53355110063561
 30
0.0
 10
1041.532320768315
 20
190.66923494330581
 30
0.0
 10
1041.6949340478679
 20
188.79491336632401
 30
0.0
 10
1041.0189417969141
 20
187.03919159756771
 30
0.0
 10
1039.590529225844
 20
185.51104931857
 30
0.0
 10
1037.5024401949479
 20
184.22152818234801
 30
0.0
 10
1034.812341619202
 20
183.1806651672739
 30
0.0
 10
1031.591277094572
 20
182.4115818815944
 30
0.0
 10
1027.930213736968
 20
181.93597416479159
 30
0.0
 10
1023.9364812526439
 20
181.76856257513779
 30
0.0
 10
1019.729110311915
 20
181.91499718057031
 30
0.0
 10
1015.434393370499
 20
182.37128646948011
 30
0.0
 10
1011.181574565768
 20
183.12383263828471
 30
0.0
 10
1007.098600100815
 20
184.14986034020259
 30
0.0
 10
1003.307916394992
 20
185.41818318518489
 30
0.0
 10
999.92231922705832
 20
186.89036504390771
 30
0.0
 10
997.0408470159623
 20
188.52249974080311
 30
0.0
 10
994.74488302194732
 20
190.26851678011869
 30
0.0
 10
993.096272968628
 20
192.08650067823581
 30
0.0
 10
992.14763891717621
 20
193.9508168355635
 30
0.0
 10
991.98502563762304
 20
195.82513841254541
 30
0.0
 10
992.66101788857623
 20
197.58086018129981
 30
0.0
 11
992.31382779690568
 21
196.67912025605324
 31
0.0
 11
992.74076637343001
 21
197.53359921009468
 31
0.0
 11
993.32720191966109
 21
198.29355622172585
 31
0.0
 11
994.13895366699512
 21
199.053405017399
 31
0.0
 11
995.04975182902979
 21
199.70205892727074
 31
0.0
 11
996.20684379313127
 21
200.34484371992372
 31
0.0
 11
997.42258436240934
 21
200.88026875938476
 31
0.0
 11
998.88436459022489
 21
201.38986218275704
 31
0.0
 11
1000.3796378659119
 21
201.80040674845227
 31
0.0
 11
1002.0976986884399
 21
202.16313076932977
 31
0.0
 11
1003.8337917060098
 21
202.43517653431695
 31
0.0
 11
1005.7537034339216
 21
202.64209675600037
 31
0.0
 11
1007.681530132631
 21
202.76505526152897
 31
0.0
 11
1009.7438050514512
 21
202.81192818302952
 31
0.0
 11
1011.806733207482
 21
202.77967906312585
 31
0.0
 11
1013.9482522142924
 21
202.66703660593123
 31
0.0
 11
1016.08457690254
 21
202.47835816400465
 31
0.0
 11
1018.2402958029293
 21
202.21149812801499
 31
0.0
 11
1020.3854736791939
 21
201.87010372927702
 31
0.0
 11
1022.4903378949205
 21
201.45897192387048
 31
0.0
 11
1024.579107661039
 21
200.97334568503913
 31
0.0
 11
1026.5700753583258
 21
200.43227248200574
 31
0.0
 11
1028.5384746029099
 21
199.81536136564671
 31
0.0
 11
1030.3565995617002
 21
199.16263155281285
 31
0.0
 11
1032.1438370628928
 21
198.43142765823552
 31
0.0
 11
1033.7364052439264
 21
197.68862589958042
 31
0.0
 11
1035.2865029959485
 21
196.86370247016225
 31
0.0
 11
1036.6092895986303
 21
196.05461371534582
 31
0.0
 11
1037.8724300595159
 21
195.15964831509228
 31
0.0
 11
1038.8920167643137
 21
194.30809205971752
 31
0.0
 11
1039.8254836706515
 21
193.36964992627264
 31
0.0
 11
1040.5206883188664
 21
192.49386702859888
 31
0.0
 11
1041.0898961710927
 21
191.53871598685166
 31
0.0
 11
1041.4425941924644
 21
190.64594198682005
 31
0.0
 11
1041.6158390621345
 21
189.706582073817
 31
0.0
 11
1041.5929597616139
 21
188.80933508232005
 31
0.0
 11
1041.366131888585
 21
187.94093152281516
 31
0.0
 11
1040.9391933120603
 21
187.08645256877327
 31
0.0
 11
1040.3527577658283
 21
186.32649555714247
 31
0.0
 11
1039.541006018494
 21
185.56664676147014
 31
0.0
 11
1038.6302078564602
 21
184.91799285159806
 31
0.0
 11
1037.4731158923596
 21
184.27520805894449
 31
0.0
 11
1036.2573753230818
 21
183.73978301948384
 31
0.0
 11
1034.7955950952662
 21
183.23018959611221
 31
0.0
 11
1033.3003218195795
 21
182.81964503041718
 31
0.0
 11
1031.5822609970512
 21
182.45692100953963
 31
0.0
 11
1029.8461679794812
 21
182.18487524455242
 31
0.0
 11
1027.9262562515692
 21
181.977955022869
 31
0.0
 11
1025.9984295528598
 21
181.85499651734048
 31
0.0
 11
1023.9361546340386
 21
181.80812359583967
 31
0.0
 11
1021.8732264780072
 21
181.84037271574269
 31
0.0
 11
1019.7317074711966
 21
181.95301517293677
 31
0.0
 11
1017.5953827829496
 21
182.14169361486381
 31
0.0
 11
1015.4396638825614
 21
182.40855365085386
 31
0.0
 11
1013.2944860062979
 21
182.74994804959135
 31
0.0
 11
1011.1896217905719
 21
183.16107985499772
 31
0.0
 11
1009.1008520244534
 21
183.64670609383018
 31
0.0
 11
1007.1098843271661
 21
184.1877792968647
 31
0.0
 11
1005.1414850825817
 21
184.80469041322357
 31
0.0
 11
1003.3233601237907
 21
185.45742022605688
 31
0.0
 11
1001.5361226225975
 21
186.18862412063413
 31
0.0
 11
999.94355444156429
 21
186.93142587928892
 31
0.0
 11
998.39345668954252
 21
187.75634930870615
 31
0.0
 11
997.07067008686079
 21
188.56543806352232
 31
0.0
 11
995.8075296259758
 21
189.46040346377697
 31
0.0
 11
994.7879429211772
 21
190.31195971915338
 31
0.0
 11
993.85447601483793
 21
191.25040185259917
 31
0.0
 11
993.15927136662276
 21
192.12618475027239
 31
0.0
 11
992.59006351439734
 21
193.08133579201882
 31
0.0
 11
992.23736549302646
 21
193.97410979204955
 31
0.0
 11
992.06412062335653
 21
194.91346970505231
 31
0.0
 11
992.08929841542556
 21
195.8166864567664
 31
0.0
 11
992.32302176309963
 21
196.7029992969226
 31
0.0
 11
992.49201982583793
 21
197.14192973911119
 31
0.0
 11
992.32302176309963
 21
196.7029992969226
 31
0.0
 11
992.15172520881276
 21
196.25809909451664
 31
0.0
 11
992.31382779690568
 21
196.67912025605324
 31
0.0
  0
CIRCLE
  5
14A
100
AcDbEntity
  8
WANNE
  6
CONTINUOUS
 62
           7
100
AcDbCircle
 10
1444.346577396271
 20
269.610889930863
 40
26.0
  0
CIRCLE
  5
149
100
AcDbEntity
  8
WANNE
  6
CONTINUOUS
 62
           7
100
AcDbCircle
 10
1444.346577396266
 20
269.610889930863
 40
45.0
  0
ARC
  5
148
100
AcDbEntity
  8
1
  6
CONTINUOUS
 62
           7
100
AcDbCircle
 10
375.963911965319
 20
210.465681998305
 40
101.127480250421
100
AcDbArc
 50
77.056982255034
 51
100.691500094408
  0
ARC
  5
147
100
AcDbEntity
  8
1
  6
CONTINUOUS
 62
           7
100
AcDbCircle
 10
312.764239929084
 20
477.838900481869
 40
172.472372500372
100
AcDbArc
 50
-88.520487239656
 51
-81.607171284302
  0
ARC
  5
146
100
AcDbEntity
  8
1
  6
CONTINUOUS
 62
           7
100
AcDbCircle
 10
387.363448185169
 20
239.690385780074
 40
87.840604895509
100
AcDbArc
 50
80.605371713368
 51
87.288369072766
  0
ARC
  5
145
100
AcDbEntity
  8
1
  6
CONTINUOUS
 62
           7
100
AcDbCircle
 10
383.74261659453
 20
198.713963590989
 40
128.953364884603
100
AcDbArc
 50
86.542693836322
 51
105.17076185643
  0
ARC
  5
144
100
AcDbEntity
  8
1
  6
CONTINUOUS
 62
           7
100
AcDbCircle
 10
551.514422243687
 20
-579.379977523439
 40
924.776816058087
100
AcDbArc
 50
102.586329625646
 51
104.340906180989
  0
ARC
  5
143
100
AcDbEntity
  8
1
  6
CONTINUOUS
 62
           7
100
AcDbCircle
 10
307.973583596494
 20
387.28801472632
 40
72.175871123671
100
AcDbArc
 50
-87.363498107885
 51
-78.424977279833
  0
ARC
  5
142
100
AcDbEntity
  8
1
  6
CONTINUOUS
 62
           7
100
AcDbCircle
 10
316.294383154459
 20
264.160581546368
 40
41.273766990487
100
AcDbArc
 50
88.718585107252
 51
110.348834786815
  0
ARC
  5
141
100
AcDbEntity
  8
1
  6
CONTINUOUS
 62
           7
100
AcDbCircle
 10
304.287923164101
 20
293.795766378082
 40
9.361493053783
100
AcDbArc
 50
104.512259233316
 51
149.687929133133
  0
ARC
  5
140
100
AcDbEntity
  8
1
  6
CONTINUOUS
 62
           7
100
AcDbCircle
 10
308.094437016971
 20
306.56859751665
 40
9.194472150818
100
AcDbArc
 50
-7.150997504656
 51
69.638174752708
  0
ARC
  5
13F
100
AcDbEntity
  8
1
  6
CONTINUOUS
 62
           7
100
AcDbCircle
 10
303.652860315245
 20
279.100915656028
 40
21.606938581345
100
AcDbArc
 50
157.35279793904
 51
168.017551552182
  0
ARC
  5
13E
100
AcDbEntity
  8
1
  6
CONTINUOUS
 62
           7
100
AcDbCircle
 10
259.530180377896
 20
301.510510348196
 40
27.489154070684
100
AcDbArc
 50
-17.214637168546
 51
1.271340553424
  0
ARC
  5
13D
100
AcDbEntity
  8
1
  6
CONTINUOUS
 62
           7
100
AcDbCircle
 10
310.100040509954
 20
304.102430213159
 40
23.172392554487
100
AcDbArc
 50
165.45108413426
 51
-175.093308317398
  0
ARC
  5
13C
100
AcDbEntity
  8
1
  6
CONTINUOUS
 62
           7
100
AcDbCircle
 10
315.343393219413
 20
199.654795667504
 40
115.604704102205
100
AcDbArc
 50
92.007546323758
 51
101.32311256602
  0
ARC
  5
13B
100
AcDbEntity
  8
1
  6
CONTINUOUS
 62
           7
100
AcDbCircle
 10
294.27674732687
 20
304.826633183209
 40
8.343721909213
100
AcDbArc
 50
101.275197318439
 51
142.348237020963
  0
ARC
  5
13A
100
AcDbEntity
  8
1
  6
CONTINUOUS
 62
           7
100
AcDbCircle
 10
215.346142989998
 20
-835.685243834203
 40
1088.698781330245
100
AcDbArc
 50
80.830228816897
 51
85.267457884169
  0
ARC
  5
139
100
AcDbEntity
  8
1
  6
CONTINUOUS
 62
           7
100
AcDbCircle
 10
265.771991934643
 20
-487.920116055602
 40
736.441207488911
100
AcDbArc
 50
80.390137317248
 51
85.299933651541
  0
ARC
  5
138
100
AcDbEntity
  8
1
  6
CONTINUOUS
 62
           7
100
AcDbCircle
 10
324.058497900457
 20
230.910325631742
 40
15.273511176409
100
AcDbArc
 50
82.259120092969
 51
101.36393821742
  0
ARC
  5
137
100
AcDbEntity
  8
1
  6
CONTINUOUS
 62
           7
100
AcDbCircle
 10
303.136148821613
 20
227.410224808916
 40
21.985757875278
100
AcDbArc
 50
84.695386684739
 51
100.058113109244
  0
ARC
  5
136
100
AcDbEntity
  8
1
  6
CONTINUOUS
 62
           7
100
AcDbCircle
 10
281.690994069552
 20
275.591911645551
 40
8.03739185916
100
AcDbArc
 50
5.999559962779
 51
84.103353545072
  0
ARC
  5
135
100
AcDbEntity
  8
1
  6
CONTINUOUS
 62
           7
100
AcDbCircle
 10
286.416667258005
 20
300.245382141487
 40
9.994702671047
100
AcDbArc
 50
-7.658825177736
 51
81.910811286555
  0
ARC
  5
134
100
AcDbEntity
  8
1
  6
CONTINUOUS
 62
           7
100
AcDbCircle
 10
311.535275046167
 20
208.638852405326
 40
12.155045005568
100
AcDbArc
 50
-97.393038100087
 51
-8.862808318234
  0
ARC
  5
133
100
AcDbEntity
  8
1
  6
CONTINUOUS
 62
           7
100
AcDbCircle
 10
300.706687972262
 20
258.954687968255
 40
9.996580837714
100
AcDbArc
 50
171.889840339133
 51
-98.110154703251
  0
ARC
  5
132
100
AcDbEntity
  8
1
  6
CONTINUOUS
 62
           7
100
AcDbCircle
 10
319.920772756662
 20
237.967123998933
 40
7.997264780748
100
AcDbArc
 50
-8.110158807357
 51
81.88984596827
  0
ARC
  5
131
100
AcDbEntity
  8
1
  6
CONTINUOUS
 62
           7
100
AcDbCircle
 10
311.540841923518
 20
204.610698822383
 40
8.17788950371
100
AcDbArc
 50
-101.065696486805
 51
-0.320012814185
  0
ARC
  5
130
100
AcDbEntity
  8
1
  6
CONTINUOUS
 62
           7
100
AcDbCircle
 10
296.013420476805
 20
249.896818973884
 40
9.994730426716
100
AcDbArc
 50
174.7898441017
 51
-98.126507096531
  0
ARC
  5
12F
100
AcDbEntity
  8
1
  6
CONTINUOUS
 62
           7
100
AcDbCircle
 10
315.256046185899
 20
228.973728937997
 40
7.998531137365
100
AcDbArc
 50
-19.599173240482
 51
81.878783338101
  0
ARC
  5
12E
100
AcDbEntity
  8
1
  6
CONTINUOUS
 62
           7
100
AcDbCircle
 10
614.956273464823
 20
-892.200116579599
 40
1088.698781330245
100
AcDbArc
 50
78.633195984239
 51
83.070425051511
  0
ARC
  5
12D
100
AcDbEntity
  8
1
  6
CONTINUOUS
 62
           7
100
AcDbCircle
 10
662.944562127584
 20
-544.090256776872
 40
736.441207488911
100
AcDbArc
 50
78.600720216867
 51
83.510516551159
  0
ARC
  5
12C
100
AcDbEntity
  8
1
  6
CONTINUOUS
 62
           7
100
AcDbCircle
 10
806.278250813577
 20
162.712384956867
 40
15.273511176408
100
AcDbArc
 50
62.536715650983
 51
81.641533775438
  0
ARC
  5
12B
100
AcDbEntity
  8
1
  6
CONTINUOUS
 62
           7
100
AcDbCircle
 10
825.409483008338
 20
153.547705395795
 40
21.985757875278
100
AcDbArc
 50
63.842540759164
 51
79.205267183671
  0
ARC
  5
12A
100
AcDbEntity
  8
1
  6
CONTINUOUS
 62
           7
100
AcDbCircle
 10
781.492066744034
 20
77.764009243774
 40
173.989988284384
100
AcDbArc
 50
64.657060668899
 51
72.61541125249
  0
ARC
  5
129
100
AcDbEntity
  8
1
  6
CONTINUOUS
 62
           7
100
AcDbCircle
 10
851.568796936922
 20
222.83480758319
 40
12.944463081293
100
AcDbArc
 50
27.377090099426
 51
70.14191452476
  0
ARC
  5
128
100
AcDbEntity
  8
1
  6
CONTINUOUS
 62
           7
100
AcDbCircle
 10
733.484236864346
 20
95.920016917842
 40
153.953854492551
100
AcDbArc
 50
74.765424587437
 51
82.052355536025
  0
ARC
  5
127
100
AcDbEntity
  8
1
  6
CONTINUOUS
 62
           7
100
AcDbCircle
 10
719.883263849198
 20
58.181069822923
 40
214.873430260962
100
AcDbArc
 50
64.427529077649
 51
79.841145646015
  0
ARC
  5
126
100
AcDbEntity
  8
1
  6
CONTINUOUS
 62
           7
100
AcDbCircle
 10
894.807200411407
 20
430.308174276008
 40
196.327008302054
100
AcDbArc
 50
-114.743281399202
 51
-108.203044227787
  0
ARC
  5
125
100
AcDbEntity
  8
1
  6
CONTINUOUS
 62
           7
100
AcDbCircle
 10
853.162179207192
 20
425.517622346074
 40
195.847985935034
100
AcDbArc
 50
-107.010979764767
 51
-99.02472324592
  0
ARC
  5
124
100
AcDbEntity
  8
1
  6
CONTINUOUS
 62
           7
100
AcDbCircle
 10
864.848773939001
 20
206.962595761724
 40
6.884466745764
100
AcDbArc
 50
164.636950687223
 51
-132.517963316438
  0
ARC
  5
123
100
AcDbEntity
  8
1
  6
CONTINUOUS
 62
           7
100
AcDbCircle
 10
727.261904690523
 20
251.150211623951
 40
137.630547256523
100
AcDbArc
 50
-17.927136599726
 51
-9.351189845443
  0
ARC
  5
122
100
AcDbEntity
  8
1
  6
CONTINUOUS
 62
           7
100
AcDbCircle
 10
815.270122874261
 20
143.607530155003
 40
88.776670885887
100
AcDbArc
 50
74.201321071009
 51
85.366704348312
  0
ARC
  5
121
100
AcDbEntity
  8
1
  6
CONTINUOUS
 62
           7
100
AcDbCircle
 10
834.96804966887
 20
209.545128019467
 40
19.992109268823
100
AcDbArc
 50
32.738969665947
 51
77.073546956492
  0
ARC
  5
120
100
AcDbEntity
  8
1
  6
CONTINUOUS
 62
           7
100
AcDbCircle
 10
859.374568007845
 20
193.892997682997
 40
8.037391859159
100
AcDbArc
 50
84.133305164639
 51
157.901093905629
  0
ARC
  5
11F
100
AcDbEntity
  8
1
  6
CONTINUOUS
 62
           7
100
AcDbCircle
 10
835.492661463542
 20
230.851740506807
 40
13.110318505658
100
AcDbArc
 50
98.841826287434
 51
174.562432387965
  0
ARC
  5
11E
100
AcDbEntity
  8
1
  6
CONTINUOUS
 62
           7
100
AcDbCircle
 10
861.670723072027
 20
218.890062840716
 40
9.994702671046
100
AcDbArc
 50
81.98984258185
 51
171.559479046144
  0
ARC
  5
11D
100
AcDbEntity
  8
1
  6
CONTINUOUS
 62
           7
100
AcDbCircle
 10
812.134380228076
 20
137.841611373928
 40
12.155045005569
100
AcDbArc
 50
172.763462186643
 51
-98.706308031503
  0
ARC
  5
11C
100
AcDbEntity
  8
1
  6
CONTINUOUS
 62
           7
100
AcDbCircle
 10
836.491062029586
 20
183.181369401876
 40
9.996580837714
100
AcDbArc
 50
-97.989191428343
 51
-7.989186470726
  0
ARC
  5
11B
100
AcDbEntity
  8
1
  6
CONTINUOUS
 62
           7
100
AcDbCircle
 10
812.210580189801
 20
168.345025610484
 40
7.997264780747
100
AcDbArc
 50
82.010807900134
 51
172.010812675768
  0
ARC
  5
11A
100
AcDbEntity
  8
1
  6
CONTINUOUS
 62
           7
100
AcDbCircle
 10
811.012009823457
 20
133.972976349435
 40
8.177889503678
100
AcDbArc
 50
164.220666682594
 51
-95.033649644788
  0
ARC
  5
119
100
AcDbEntity
  8
1
  6
CONTINUOUS
 62
           7
100
AcDbCircle
 10
838.488489972768
 20
173.177268636944
 40
9.99473042673
100
AcDbArc
 50
-97.972839035062
 51
-10.889190233292
  0
ARC
  5
118
100
AcDbEntity
  8
1
  6
CONTINUOUS
 62
           7
100
AcDbCircle
 10
814.198465376741
 20
158.410784764522
 40
7.998531137391
100
AcDbArc
 50
82.021870530302
 51
-176.500172891111
  0
LINE
  5
117
100
AcDbEntity
  8
1
  6
CONTINUOUS
 62
           7
100
AcDbLine
 10
897.366861690649
 20
113.512411757083
 11
907.869229434401
 21
187.773439704284
  0
LINE
  5
116
100
AcDbEntity
  8
1
  6
CONTINUOUS
 62
           7
100
AcDbLine
 10
224.06687496936
 20
208.733879300438
 11
234.569242713111
 21
282.994907247639
  0
LINE
  5
115
100
AcDbEntity
  8
1
  6
CONTINUOUS
 62
           7
100
AcDbLine
 10
398.614637637377
 20
309.023846999123
 11
754.737711970328
 21
248.158660967005
  0
LINE
  5
114
100
AcDbEntity
  8
1
  6
CONTINUOUS
 62
           7
100
AcDbLine
 10
401.701974608887
 20
326.352825904993
 11
758.234672319877
 21
269.535524974344
  0
LINE
  5
113
100
AcDbEntity
  8
1
  6
CONTINUOUS
 62
           7
100
AcDbLine
 10
337.938170751731
 20
307.213601997606
 11
357.202656738652
 21
309.837622525393
  0
LINE
  5
112
100
AcDbEntity
  8
1
  6
CONTINUOUS
 62
           7
100
AcDbLine
 10
281.492750849017
 20
276.438614867843
 11
282.428508042497
 21
275.195459488233
  0
LINE
  5
111
100
AcDbEntity
  8
1
  6
CONTINUOUS
 62
           7
100
AcDbLine
 10
282.428508042497
 20
275.195459488233
 11
289.360323295946
 21
274.224571352853
  0
LINE
  5
110
100
AcDbEntity
  8
1
  6
CONTINUOUS
 62
           7
100
AcDbLine
 10
281.492750849017
 20
276.438614867843
 11
282.516710026674
 21
283.586776313343
  0
LINE
  5
10F
100
AcDbEntity
  8
1
  6
CONTINUOUS
 62
           7
100
AcDbLine
 10
285.787896968553
 20
293.375037960773
 11
283.711961263779
 21
287.420791849654
  0
LINE
  5
10E
100
AcDbEntity
  8
1
  6
CONTINUOUS
 62
           7
100
AcDbLine
 10
746.177768434592
 20
187.632289995865
 11
388.652743679757
 21
238.119076808983
  0
LINE
  5
10D
100
AcDbEntity
  8
1
  6
CONTINUOUS
 62
           7
100
AcDbLine
 10
388.841572593477
 20
239.100489405993
 11
746.408494510947
 21
188.842758862883
  0
LINE
  5
10C
100
AcDbEntity
  8
1
  6
CONTINUOUS
 62
           7
100
AcDbLine
 10
319.639839710045
 20
203.47751234668
 11
323.475212705198
 21
206.858769684195
  0
LINE
  5
10B
100
AcDbEntity
  8
1
  6
CONTINUOUS
 62
           7
100
AcDbLine
 10
290.807130771427
 20
260.34407476566
 11
286.120811410155
 21
251.321923235836
  0
LINE
  5
10A
100
AcDbEntity
  8
1
  6
CONTINUOUS
 62
           7
100
AcDbLine
 10
299.296403390447
 20
249.058086236184
 11
294.600573004305
 21
240.0024519743
  0
LINE
  5
109
100
AcDbEntity
  8
1
  6
CONTINUOUS
 62
           7
100
AcDbLine
 10
323.174647944199
 20
227.845789866388
 11
327.838054170975
 21
236.838895750765
  0
LINE
  5
108
100
AcDbEntity
  8
1
  6
CONTINUOUS
 62
           7
100
AcDbLine
 10
321.049000344921
 20
245.884405507284
 11
316.385981311905
 21
236.892046118234
  0
LINE
  5
107
100
AcDbEntity
  8
1
  6
CONTINUOUS
 62
           7
100
AcDbLine
 10
289.445545430627
 20
275.623149250039
 11
296.322209496712
 21
298.913348193041
  0
LINE
  5
106
100
AcDbEntity
  8
1
  6
CONTINUOUS
 62
           7
100
AcDbLine
 10
294.600573004305
 20
240.0024519743
 11
316.385981311905
 21
236.892046118234
  0
LINE
  5
105
100
AcDbEntity
  8
1
  6
CONTINUOUS
 62
           7
100
AcDbLine
 10
289.684362707234
 20
276.431986475437
 11
286.059985097926
 21
250.804431479966
  0
LINE
  5
104
100
AcDbEntity
  8
1
  6
CONTINUOUS
 62
           7
100
AcDbLine
 10
296.206246946068
 20
298.520600946923
 11
290.807130771427
 21
260.34407476566
  0
LINE
  5
103
100
AcDbEntity
  8
1
  6
CONTINUOUS
 62
           7
100
AcDbLine
 10
322.79116077097
 20
226.290717841252
 11
319.718603871579
 21
204.565023279613
  0
LINE
  5
102
100
AcDbEntity
  8
1
  6
CONTINUOUS
 62
           7
100
AcDbLine
 10
327.901534877109
 20
237.453626238413
 11
323.588821234363
 21
206.958926741495
  0
LINE
  5
101
100
AcDbEntity
  8
1
  6
CONTINUOUS
 62
           7
100
AcDbLine
 10
401.701974608887
 20
326.352825904993
 11
381.400145319115
 21
186.483017587177
  0
LINE
  5
100
100
AcDbEntity
  8
1
  6
CONTINUOUS
 62
           7
100
AcDbLine
 10
92.998421504165
 20
303.016564195056
 11
289.51358017555
 21
275.224402941159
  0
LINE
  5
FF
100
AcDbEntity
  8
1
  6
CONTINUOUS
 62
           7
100
AcDbLine
 10
773.938918243859
 20
244.463640367641
 11
795.865879722162
 21
238.238238376212
  0
LINE
  5
FE
100
AcDbEntity
  8
1
  6
CONTINUOUS
 62
           7
100
AcDbLine
 10
859.221470679486
 20
194.973902338333
 11
860.196104501827
 21
201.888292904984
  0
LINE
  5
FD
100
AcDbEntity
  8
1
  6
CONTINUOUS
 62
           7
100
AcDbLine
 10
800.169075732268
 20
139.442328125331
 11
802.916399160008
 21
135.130112780772
  0
LINE
  5
FC
100
AcDbEntity
  8
1
  6
CONTINUOUS
 62
           7
100
AcDbLine
 10
848.388320519986
 20
171.803226629083
 11
846.387663636606
 21
181.771083942364
  0
LINE
  5
FB
100
AcDbEntity
  8
1
  6
CONTINUOUS
 62
           7
100
AcDbLine
 10
837.102184377027
 20
163.279147951773
 11
835.101674354227
 21
173.281812324284
  0
LINE
  5
FA
100
AcDbEntity
  8
1
  6
CONTINUOUS
 62
           7
100
AcDbLine
 10
804.290934338606
 20
169.456535198853
 11
806.277631152116
 21
159.522938324874
  0
LINE
  5
F9
100
AcDbEntity
  8
1
  6
CONTINUOUS
 62
           7
100
AcDbLine
 10
815.308622248776
 20
166.331899084823
 11
813.322090438277
 21
176.264671369033
  0
LINE
  5
F8
100
AcDbEntity
  8
1
  6
CONTINUOUS
 62
           7
100
AcDbLine
 10
851.784275303016
 20
220.357111576523
 11
851.932794472436
 21
196.073375917883
  0
LINE
  5
F7
100
AcDbEntity
  8
1
  6
CONTINUOUS
 62
           7
100
AcDbLine
 10
815.308622248776
 20
166.331899084823
 11
837.102184377027
 21
163.279147951773
  0
LINE
  5
F6
100
AcDbEntity
  8
1
  6
CONTINUOUS
 62
           7
100
AcDbLine
 10
848.303258992511
 20
171.289162339138
 11
851.927636601814
 21
196.916717334609
  0
LINE
  5
F5
100
AcDbEntity
  8
1
  6
CONTINUOUS
 62
           7
100
AcDbLine
 10
846.387663636606
 20
181.771083942364
 11
851.786779811239
 21
219.947610123627
  0
LINE
  5
F4
100
AcDbEntity
  8
1
  6
CONTINUOUS
 62
           7
100
AcDbLine
 10
803.142294739474
 20
136.196815649226
 11
806.214851638862
 21
157.922510210867
  0
LINE
  5
F3
100
AcDbEntity
  8
1
  6
CONTINUOUS
 62
           7
100
AcDbLine
 10
800.087696587617
 20
139.570061319301
 11
804.400410230358
 21
170.06476081622
  0
LINE
  5
F2
100
AcDbEntity
  8
1
  6
CONTINUOUS
 62
           7
100
AcDbLine
 10
738.865553439058
 20
135.92846326
 11
757.782191958125
 21
269.68582693327
  0
LINE
  5
F1
100
AcDbEntity
  8
1
  6
CONTINUOUS
 62
           7
100
AcDbLine
 10
1605.0
 20
840.421777939881
 11
1605.0
 21
146.750504592966
  0
LINE
  5
F0
100
AcDbEntity
  8
1
  6
CONTINUOUS
 62
           7
100
AcDbLine
 10
50.0
 20
352.523916159857
 11
50.0
 21
840.421777939881
  0
LINE
  5
EF
100
AcDbEntity
  8
1
  6
CONTINUOUS
 62
           7
100
AcDbLine
 10
95.0
 20
885.421777939881
 11
1560.0
 21
885.421777939881
  0
LINE
  5
EE
100
AcDbEntity
  8
WANNE
  6
CONTINUOUS
 62
           7
100
AcDbLine
 10
0.0
 20
240.422542724202
 11
0.0
 21
940.421777939881
  0
LINE
  5
ED
100
AcDbEntity
  8
WANNE
  6
CONTINUOUS
 62
           7
100
AcDbLine
 10
0.0
 20
940.421777939881
 11
1700.0
 21
940.421777939881
  0
LINE
  5
EC
100
AcDbEntity
  8
WANNE
  6
CONTINUOUS
 62
           7
100
AcDbLine
 10
1700.0
 20
940.421777939881
 11
1700.0
 21
0.0
  0
LINE
  5
EB
100
AcDbEntity
  8
MITTELLINIEN
  6
DOT_CENTER
 62
           3
100
AcDbLine
 10
1444.346577396266
 20
203.932870930862
 11
1444.346577396266
 21
333.600844930861
  0
LINE
  5
EA
100
AcDbEntity
  8
MITTELLINIEN
  6
DOT_CENTER
 62
           3
100
AcDbLine
 10
1510.024596396278
 20
269.610889930863
 11
1380.356622396268
 21
269.610889930863
  0
LINE
  5
E9
100
AcDbEntity
  8
1
  6
CONTINUOUS
 62
           7
100
AcDbLine
 10
0.0
 20
240.422542724202
 11
1700.0
 21
0.0
  0
LINE
  5
E8
100
AcDbEntity
  8
1
  6
CONTINUOUS
 62
           7
100
AcDbLine
 10
851.756854070137
 20
195.709133800385
 11
1547.998421504165
 21
97.243152628165
  0
LINE
  5
E7
100
AcDbEntity
  8
1
  6
CONTINUOUS
 62
           7
100
AcDbLine
 10
294.263003350212
 20
839.975130419242
 11
1472.964202946415
 21
839.975130419242
  0
LINE
  5
E6
100
AcDbEntity
  8
1
  6
CONTINUOUS
 62
           7
100
AcDbLine
 10
239.263003350212
 20
391.70885688813
 11
239.263003350212
 21
784.975130419242
  0
LINE
  5
E5
100
AcDbEntity
  8
1
  6
CONTINUOUS
 62
           7
100
AcDbLine
 10
1557.964202946415
 20
233.596390778506
 11
1557.964202946415
 21
754.975130419242
  0
LINE
  5
E4
100
AcDbEntity
  8
1
  6
CONTINUOUS
 62
           7
100
AcDbLine
 10
855.965922244027
 20
235.009552487957
 11
1461.061519503496
 21
149.433892438345
  0
ENDBLK
  5
154
100
AcDbEntity
  8
0
100
AcDbBlockEnd
  0
ENDSEC
  0
SECTION
  2
ENTITIES
  0
MTEXT
  5
158
100
AcDbEntity
  8
1
 62
           3
100
AcDbMText
 10
1394.346577396266
 20
319.610889930865
 30
0.0
 40
35.0
 41
0.0
 71
           9
 72
           1
  1
ø 52
  7
CONVERTER_1
  0
MTEXT
  5
157
100
AcDbEntity
  8
1
 62
           2
100
AcDbMText
 10
1484.454055973298
 20
624.975130419242
 30
0.0
 40
35.0
 41
0.0
 71
           9
 72
           1
  1
Piccolo Step-in rechts
  7
CONVERTER_1
  0
INSERT
  5
2D
100
AcDbEntity
  8
0
100
AcDbBlockReference
  2
DLX
 10
0.0
 20
0.0
  0
INSERT
  5
2E
100
AcDbEntity
  8
0
100
AcDbBlockReference
  2
WANNE_PICCOLO_STEP_IN_REC1
 10
0.0
 20
0.0
  0
ENDSEC
  0
SECTION
  2
OBJECTS
  0
DICTIONARY
  5
19
100
AcDbDictionary
  3
ACAD_GROUP
350
1A
  3
ACAD_MLINESTYLE
350
1B
  0
DICTIONARY
  5
1A
102
{ACAD_REACTORS
330
19
102
}
100
AcDbDictionary
  0
DICTIONARY
  5
1B
102
{ACAD_REACTORS
330
19
102
}
100
AcDbDictionary
  3
STANDARD
350
1C
  0
MLINESTYLE
  5
1C
102
{ACAD_REACTORS
330
1B
102
}
100
AcDbMlineStyle
  2
STANDARD
 70
           0
  3

 62
           0
 51
90.0
 52
90.0
 71
           2
 49
0.5
 62
         256
  6
BYLAYER
 49
-0.5
 62
         256
  6
BYLAYER
  0
ENDSEC
  0
EOF
