  0
SECTION
  2
HEADER
  9
$ACADVER
  1
AC1009
  9
$INSBASE
 10
0
 20
0
  9
$EXTMIN
 10
0
 20
0
  9
$EXTMAX
 10
1800
 20
655
  9
$LIMMIN
 10
0
 20
0
  9
$LIMMAX
 10
1800
 20
655
  9
$VIEWCTR
 10
10
 20
10
  9
$VIEWSIZE
 40
10
  9
$SNAPMODE
 70
0
  9
$SNAPUNIT
 10
1
 20
1
  9
$SNAPBASE
 10
0
 20
0
  9
$SNAPANG
 50
0
  9
$SNAPSTYLE
 70
0
  9
$SNAPISOPAIR
 70
0
  9
$GRIDMODE
 70
0
  9
$GRIDUNIT
 10
0
 20
0
  9
$ORTHOMODE
 70
0
  9
$REGENMODE
 70
1
  9
$FILLMODE
 70
1
  9
$QTEXTMODE
 70
0
  9
$DRAGMODE
 70
2
  9
$LTSCALE
 40
1
  9
$OSMODE
 70
0
  9
$ATTMODE
 70
1
  9
$TEXTSIZE
 40
3.5
  9
$TRACEWID
 40
0.5
  9
$TEXTSTYLE
  7
STANDARD
  9
$CLAYER
  8
0
  9
$CELTYPE
  6
BYLAYER
  9
$CECOLOR
 62
256
  9
$DIMSCALE
 40
1
  9
$DIMASZ
 40
0.18
  9
$DIMEXO
 40
0.0625
  9
$DIMDLI
 40
0.38
  9
$DIMRND
 40
0
  9
$DIMDLE
 40
0
  9
$DIMEXE
 40
0.18
  9
$DIMTP
 40
0
  9
$DIMTM
 40
0
  9
$DIMTXT
 40
0.18
  9
$DIMCEN
 40
0.09
  9
$DIMTSZ
 40
0
  9
$DIMTOL
 70
0
  9
$DIMLIM
 70
0
  9
$DIMTIH
 70
1
  9
$DIMTOH
 70
1
  9
$DIMSE1
 70
0
  9
$DIMSE2
 70
0
  9
$DIMTAD
 70
0
  9
$DIMZIN
 70
0
  9
$DIMBLK
  1

  9
$DIMASO
 70
1
  9
$DIMSHO
 70
1
  9
$DIMPOST
  1

  9
$DIMAPOST
  1

  9
$DIMALT
 70
0
  9
$DIMALTD
 70
2
  9
$DIMALTF
 40
25.4
  9
$DIMLFAC
 40
1
  9
$DIMTOFL
 70
0
  9
$DIMTVP
 40
0
  9
$DIMTIX
 70
0
  9
$DIMSOXD
 70
0
  9
$DIMSAH
 70
0
  9
$DIMBLK1
  1

  9
$DIMBLK2
  1

  9
$DIMSTYLE
  2
*UNNAMED
  9
$DIMCLRD
 70
0
  9
$DIMCLRE
 70
0
  9
$DIMCLRT
 70
0
  9
$DIMTFAC
 40
1
  9
$DIMGAP
 40
0.09
  9
$LUNITS
 70
2
  9
$LUPREC
 70
4
  9
$AXISMODE
 70
0
  9
$AXISUNIT
 10
0
 20
0
  9
$SKETCHINC
 40
0.1
  9
$FILLETRAD
 40
2
  9
$AUNITS
 70
0
  9
$AUPREC
 70
0
  9
$MENU
  1
ACAD
  9
$ELEVATION
 40
0
  9
$THICKNESS
 40
0
  9
$VIEWDIR
 10
0
 20
0
 30
1
  9
$LIMCHECK
 70
0
  9
$BLIPMODE
 70
1
  9
$CHAMFERA
 40
0
  9
$CHAMFERB
 40
0
  9
$FASTZOOM
 70
1
  9
$SKPOLY
 70
0
  9
$ANGBASE
 50
0
  9
$ANGDIR
 70
0
  9
$PDMODE
 70
0
  9
$PDSIZE
 40
0
  9
$PLINEWID
 40
0
  9
$COORDS
 70
2
  0
ENDSEC
  0
SECTION
  2
TABLES
  0
TABLE
  2
DIMSTYLE
 70
0
  0
ENDTAB
  0
TABLE
  2
LTYPE
 70
9
  0
LTYPE
  2
CONTINUOUS
 70
64
  3
Solid line
 72
65
 73
0
 40
0
  0
LTYPE
  2
BORDER
 70
64
  3
__ __ . __ __ .
 72
65
 73
6
 40
82.89473684210527
 49
23.68421052631579
 49
-11.8421052631579
 49
23.68421052631579
 49
-11.8421052631579
 49
0
 49
-11.8421052631579
  0
LTYPE
  2
CENTER
 70
64
  3
____ _ ____ _
 72
65
 73
4
 40
94.73684210526317
 49
59.21052631578948
 49
-11.8421052631579
 49
11.8421052631579
 49
-11.8421052631579
  0
LTYPE
  2
DASHDOT
 70
64
  3
__ . __ . __ .
 72
65
 73
4
 40
47.36842105263158
 49
23.68421052631579
 49
-11.8421052631579
 49
0
 49
-11.8421052631579
  0
LTYPE
  2
DASHED
 70
64
  3
__ __ __ __ __
 72
65
 73
2
 40
35.52631578947369
 49
23.68421052631579
 49
-11.8421052631579
  0
LTYPE
  2
DIVIDE
 70
64
  3
__ . . __ . . 
 72
65
 73
6
 40
59.21052631578948
 49
23.68421052631579
 49
-11.8421052631579
 49
0
 49
-11.8421052631579
 49
0
 49
-11.8421052631579
  0
LTYPE
  2
DOT
 70
64
  3
..............
 72
65
 73
4
 40
23.68421052631579
 49
0
 49
-11.8421052631579
 49
0
 49
-11.8421052631579
  0
LTYPE
  2
HIDDEN
 70
64
  3
_ _ _ _ _ _ _
 72
65
 73
2
 40
17.76315789473684
 49
11.8421052631579
 49
-5.921052631578948
  0
LTYPE
  2
PHANTOM
 70
64
  3
_____ _ _ _____ _ _ 
 72
65
 73
6
 40
118.421052631579
 49
59.21052631578948
 49
-11.8421052631579
 49
11.8421052631579
 49
-11.8421052631579
 49
11.8421052631579
 49
-11.8421052631579
  0
ENDTAB
  0
TABLE
  2
LAYER
 70
5
  0
LAYER
  2
MITTELLINIEN
 70
0
 62
7
  6
CONTINUOUS
  0
LAYER
  2
1
 70
0
 62
7
  6
CONTINUOUS
  0
LAYER
  2
WANNE
 70
0
 62
7
  6
CONTINUOUS
  0
LAYER
  2
0
 70
0
 62
7
  6
CONTINUOUS
  0
ENDTAB
  0
TABLE
  2
STYLE
 70
4
  0
STYLE
  2
STANDARD
 70
0
 40
0
 41
1
 50
0
 71
0
 42
3.5
  3
txt
  4

  0
STYLE
  2
SIMPLEX
 70
0
 40
0
 41
1
 50
0
 71
0
 42
3.5
  3
simplex
  4

  0
STYLE
  2
COMPLEX
 70
0
 40
0
 41
1
 50
0
 71
0
 42
3.5
  3
complex
  4

  0
STYLE
  2
ITALIC
 70
0
 40
0
 41
1
 50
0
 71
0
 42
3.5
  3
italic
  4

  0
ENDTAB
  0
TABLE
  2
VIEW
 70
0
  0
ENDTAB
  0
ENDSEC
  0
SECTION
  2
BLOCKS
  0
BLOCK
  8
0
  2
DLX
 70
0
 10
359.9999999999998
 20
355
 30
0
  0
LINE
  8
1
 62
3
 10
425.3282234693177
 20
401.979895810782
 30
0
 11
425.032820381937
 21
402.9784478723632
 31
0
  0
LINE
  8
1
 62
3
 10
425.7649031508843
 20
403.7622048583319
 30
0
 11
425.032820381937
 21
402.9784478723632
 31
0
  0
LINE
  8
1
 62
3
 10
460.7959271195537
 20
373.2377087845271
 30
0
 11
464.1803346104347
 21
387.051175145079
 31
0
  0
LINE
  8
1
 62
3
 10
456.6077729643147
 20
373.2377087845271
 30
0
 11
459.9921804553308
 21
387.051175145079
 31
0
  0
LINE
  8
1
 62
3
 10
456.6077729643147
 20
373.2377087845271
 30
0
 11
460.7959271195537
 21
373.2377087845271
 31
0
  0
LINE
  8
1
 62
3
 10
455.5237989051457
 20
368.813466360341
 30
0
 11
459.7119530603336
 21
368.813466360341
 31
0
  0
LINE
  8
1
 62
3
 10
456.3275455694386
 20
355
 30
0
 11
462.6097768023357
 21
355
 31
0
  0
LINE
  8
1
 62
3
 10
459.9921804553308
 20
387.051175145079
 30
0
 11
453.7099492224656
 21
387.051175145079
 31
0
  0
LINE
  8
1
 62
3
 10
491.4033366192887
 20
387.051175145079
 30
0
 11
483.5505475782697
 21
355
 31
0
  0
LINE
  8
1
 62
3
 10
484.0371313272917
 20
382.626932720839
 30
0
 11
478.3522904045676
 21
359.424242424182
 31
0
  0
LINE
  8
1
 62
3
 10
479.8489771720417
 20
382.626932720839
 30
0
 11
484.0371313272917
 21
382.626932720839
 31
0
  0
LINE
  8
1
 62
3
 10
491.4033366192887
 20
387.051175145079
 30
0
 11
474.6507199984587
 21
387.051175145079
 31
0
  0
LINE
  8
1
 62
3
 10
474.1641362494668
 20
359.424242424182
 30
0
 11
479.8489771720417
 21
382.626932720839
 31
0
  0
LINE
  8
1
 62
3
 10
474.6507199984587
 20
387.051175145079
 30
0
 11
466.7979309574616
 21
355
 31
0
  0
LINE
  8
1
 62
3
 10
478.3522904045676
 20
359.424242424182
 30
0
 11
474.1641362494668
 21
359.424242424182
 31
0
  0
LINE
  8
1
 62
3
 10
466.7979309574616
 20
355
 30
0
 11
483.5505475782697
 21
355
 31
0
  0
LINE
  8
1
 62
3
 10
470.4625658433506
 20
387.051175145079
 30
0
 11
464.1803346104347
 21
387.051175145079
 31
0
  0
LINE
  8
1
 62
3
 10
453.7099492224656
 20
387.051175145079
 30
0
 11
445.8571601814726
 21
355
 31
0
  0
LINE
  8
1
 62
3
 10
452.1393914142607
 20
355
 30
0
 11
455.5237989051457
 21
368.813466360341
 31
0
  0
LINE
  8
1
 62
3
 10
456.3275455694386
 20
355
 30
0
 11
459.7119530603336
 21
368.813466360341
 31
0
  0
LINE
  8
1
 62
3
 10
462.6097768023357
 20
355
 30
0
 11
470.4625658433506
 21
387.051175145079
 31
0
  0
LINE
  8
1
 62
3
 10
445.8571601814726
 20
355
 30
0
 11
452.1393914142607
 21
355
 31
0
  0
LINE
  8
1
 62
3
 10
440.5296286865157
 20
375.990569084413
 30
0
 11
446.8118599193217
 21
375.990569084413
 31
0
  0
LINE
  8
1
 62
3
 10
442.1555897753096
 20
382.626932720839
 30
0
 11
440.5296286865157
 21
375.990569084413
 31
0
  0
LINE
  8
1
 62
3
 10
437.9674356201176
 20
382.626932720839
 30
0
 11
442.1555897753096
 21
382.626932720839
 31
0
  0
LINE
  8
1
 62
3
 10
432.2825946974879
 20
359.424242424182
 30
0
 11
437.9674356201176
 21
382.626932720839
 31
0
  0
LINE
  8
1
 62
3
 10
436.4707488526907
 20
359.424242424182
 30
0
 11
432.2825946974879
 21
359.424242424182
 31
0
  0
LINE
  8
1
 62
3
 10
438.0967099414777
 20
366.0606060606083
 30
0
 11
436.4707488526907
 21
359.424242424182
 31
0
  0
LINE
  8
1
 62
3
 10
444.3789411742657
 20
366.0606060606083
 30
0
 11
438.0967099414777
 21
366.0606060606083
 31
0
  0
LINE
  8
1
 62
3
 10
441.6690060262918
 20
355
 30
0
 11
444.3789411742657
 21
366.0606060606083
 31
0
  0
LINE
  8
1
 62
3
 10
424.916389405538
 20
355
 30
0
 11
441.6690060262918
 21
355
 31
0
  0
LINE
  8
1
 62
3
 10
432.7691784465312
 20
387.051175145079
 30
0
 11
424.916389405538
 21
355
 31
0
  0
LINE
  8
1
 62
3
 10
449.5217950672517
 20
387.051175145079
 30
0
 11
432.7691784465312
 21
387.051175145079
 31
0
  0
LINE
  8
1
 62
3
 10
446.8118599193217
 20
375.990569084413
 30
0
 11
449.5217950672517
 21
387.051175145079
 31
0
  0
LINE
  8
1
 62
3
 10
427.4970502321555
 20
382.626932720839
 30
0
 11
428.5810242913137
 21
387.051175145079
 31
0
  0
LINE
  8
1
 62
3
 10
417.0266648441755
 20
382.626932720839
 30
0
 11
427.4970502321555
 21
382.626932720839
 31
0
  0
LINE
  8
1
 62
3
 10
414.5937460991624
 20
372.6969696969529
 30
0
 11
417.0266648441755
 21
382.626932720839
 31
0
  0
LINE
  8
1
 62
3
 10
425.0641314872262
 20
372.6969696969529
 30
0
 11
414.5937460991624
 21
372.6969696969529
 31
0
  0
LINE
  8
1
 62
3
 10
420.7282352503023
 20
355
 30
0
 11
425.0641314872262
 21
372.6969696969529
 31
0
  0
LINE
  8
1
 62
3
 10
403.9756186294796
 20
355
 30
0
 11
420.7282352503023
 21
355
 31
0
  0
LINE
  8
1
 62
3
 10
405.059592688787
 20
359.424242424182
 30
0
 11
403.9756186294796
 21
355
 31
0
  0
LINE
  8
1
 62
3
 10
415.5299780766979
 20
359.424242424182
 30
0
 11
405.059592688787
 21
359.424242424182
 31
0
  0
LINE
  8
1
 62
3
 10
417.6979261951162
 20
368.2727272727971
 30
0
 11
415.5299780766979
 21
359.424242424182
 31
0
  0
LINE
  8
1
 62
3
 10
407.2275408071507
 20
368.2727272727971
 30
0
 11
417.6979261951162
 21
368.2727272727971
 31
0
  0
LINE
  8
1
 62
3
 10
411.828407670542
 20
387.051175145079
 30
0
 11
407.2275408071507
 21
368.2727272727971
 31
0
  0
LINE
  8
1
 62
3
 10
428.5810242913137
 20
387.051175145079
 30
0
 11
411.828407670542
 21
387.051175145079
 31
0
  0
LINE
  8
1
 62
3
 10
407.6402535153791
 20
387.051175145079
 30
0
 11
399.787464474364
 21
355
 31
0
  0
LINE
  8
1
 62
3
 10
401.3580222825729
 20
387.051175145079
 30
0
 11
407.6402535153791
 21
387.051175145079
 31
0
  0
LINE
  8
1
 62
3
 10
399.787464474364
 20
355
 30
0
 11
381.9878093147743
 21
355
 31
0
  0
LINE
  8
1
 62
3
 10
394.5892073007669
 20
359.424242424182
 30
0
 11
401.3580222825729
 21
387.051175145079
 31
0
  0
LINE
  8
1
 62
3
 10
389.3540146067824
 20
359.424242424182
 30
0
 11
394.5892073007669
 21
359.424242424182
 31
0
  0
LINE
  8
1
 62
3
 10
396.1228295885774
 20
387.051175145079
 30
0
 11
389.3540146067824
 21
359.424242424182
 31
0
  0
LINE
  8
1
 62
3
 10
389.8405983557675
 20
387.051175145079
 30
0
 11
396.1228295885774
 21
387.051175145079
 31
0
  0
LINE
  8
1
 62
3
 10
381.9878093147743
 20
355
 30
0
 11
389.8405983557675
 21
387.051175145079
 31
0
  0
LINE
  8
1
 62
3
 10
377.7996551596477
 20
355
 30
0
 11
359.9999999999998
 21
355
 31
0
  0
LINE
  8
1
 62
3
 10
388.3623793485674
 20
398.1117812056621
 30
0
 11
377.7996551596477
 21
355
 31
0
  0
LINE
  8
1
 62
3
 10
364.3890522712752
 20
398.1117812056621
 30
0
 11
388.3623793485674
 21
398.1117812056621
 31
0
  0
LINE
  8
1
 62
3
 10
363.0340846972902
 20
392.581478175405
 30
0
 11
364.3890522712752
 21
398.1117812056621
 31
0
  0
LINE
  8
1
 62
3
 10
380.7251805418234
 20
392.581478175405
 30
0
 11
363.0340846972902
 21
392.581478175405
 31
0
  0
LINE
  8
1
 62
3
 10
372.6013979859415
 20
359.424242424182
 30
0
 11
380.7251805418234
 21
392.581478175405
 31
0
  0
LINE
  8
1
 62
3
 10
367.3662052920624
 20
359.424242424182
 30
0
 11
372.6013979859415
 21
359.424242424182
 31
0
  0
LINE
  8
1
 62
3
 10
374.1350202737519
 20
387.051175145079
 30
0
 11
367.3662052920624
 21
359.424242424182
 31
0
  0
LINE
  8
1
 62
3
 10
367.8527890410549
 20
387.051175145079
 30
0
 11
374.1350202737519
 21
387.051175145079
 31
0
  0
LINE
  8
1
 62
3
 10
359.9999999999998
 20
355
 30
0
 11
367.8527890410549
 21
387.051175145079
 31
0
  0
LINE
  8
1
 62
3
 10
495.1196812335147
 20
361.1939393939099
 30
0
 11
504.1648417396057
 21
398.1117812056621
 31
0
  0
LINE
  8
1
 62
3
 10
504.1648417396057
 20
398.1117812056621
 30
0
 11
498.3014259223378
 21
398.1117812056621
 31
0
  0
LINE
  8
1
 62
3
 10
498.3014259223378
 20
398.1117812056621
 30
0
 11
487.7387017333967
 21
355
 31
0
  0
LINE
  8
1
 62
3
 10
505.6430607469667
 20
387.051175145079
 30
0
 11
499.9582198242788
 21
363.848484848477
 31
0
  0
LINE
  8
1
 62
3
 10
499.9582198242788
 20
363.848484848477
 30
0
 11
515.6637979061998
 21
363.848484848477
 31
0
  0
LINE
  8
1
 62
3
 10
515.6637979061998
 20
363.848484848477
 30
0
 11
521.3486388288077
 21
387.051175145079
 31
0
  0
LINE
  8
1
 62
3
 10
521.3486388288077
 20
387.051175145079
 30
0
 11
516.1134461348847
 21
387.051175145079
 31
0
  0
LINE
  8
1
 62
3
 10
516.1134461348847
 20
387.051175145079
 30
0
 11
511.5125792714896
 21
368.2727272727971
 31
0
  0
LINE
  8
1
 62
3
 10
511.5125792714896
 20
368.2727272727971
 30
0
 11
506.2773865775378
 21
368.2727272727971
 31
0
  0
LINE
  8
1
 62
3
 10
506.2773865775378
 20
368.2727272727971
 30
0
 11
510.8782534408888
 21
387.051175145079
 31
0
  0
LINE
  8
1
 62
3
 10
510.8782534408888
 20
387.051175145079
 30
0
 11
505.6430607469667
 21
387.051175145079
 31
0
  0
LINE
  8
1
 62
3
 10
527.9069775849487
 20
387.051175145079
 30
0
 11
523.8615313219336
 21
387.051175145079
 31
0
  0
LINE
  8
1
 62
3
 10
523.8615313219336
 20
387.051175145079
 30
0
 11
527.9838268441306
 21
376.4153012186609
 31
0
  0
LINE
  8
1
 62
3
 10
527.9838268441306
 20
376.4153012186609
 30
0
 11
518.1766903993407
 21
363.848484848477
 31
0
  0
LINE
  8
1
 62
3
 10
518.1766903993407
 20
363.848484848477
 30
0
 11
522.2221366623378
 21
363.848484848477
 31
0
  0
LINE
  8
1
 62
3
 10
522.2221366623378
 20
363.848484848477
 30
0
 11
529.3262692424396
 21
372.951685370502
 31
0
  0
LINE
  8
1
 62
3
 10
529.3262692424396
 20
372.951685370502
 30
0
 11
532.8545249371236
 21
363.848484848477
 31
0
  0
LINE
  8
1
 62
3
 10
532.8545249371236
 20
363.848484848477
 30
0
 11
536.8999712001717
 21
363.848484848477
 31
0
  0
LINE
  8
1
 62
3
 10
536.8999712001717
 20
363.848484848477
 30
0
 11
532.0292731071677
 21
376.415301218603
 31
0
  0
LINE
  8
1
 62
3
 10
532.0292731071677
 20
376.415301218603
 30
0
 11
540.3295031522498
 21
387.051175145079
 31
0
  0
LINE
  8
1
 62
3
 10
540.3295031522498
 20
387.051175145079
 30
0
 11
536.2840568891918
 21
387.051175145079
 31
0
  0
LINE
  8
1
 62
3
 10
536.2840568891918
 20
387.051175145079
 30
0
 11
530.6868307089058
 21
379.878917066824
 31
0
  0
LINE
  8
1
 62
3
 10
530.6868307089058
 20
379.878917066824
 30
0
 11
527.9069775849487
 21
387.051175145079
 31
0
  0
LINE
  8
1
 62
3
 10
537.9288307856878
 20
361.1939393939099
 30
0
 11
540.3295031522066
 21
355
 31
0
  0
LINE
  8
1
 62
3
 10
537.9288307856878
 20
361.1939393939099
 30
0
 11
495.1196812335147
 21
361.1939393939099
 31
0
  0
LINE
  8
1
 62
3
 10
540.3295031522066
 20
355
 30
0
 11
487.7387017333967
 21
355
 31
0
  0
LINE
  8
1
 62
3
 10
396.738687658966
 20
398.1117812056621
 30
0
 11
399.9906098364479
 21
411.3845084783202
 31
0
  0
LINE
  8
1
 62
3
 10
399.9906098364479
 20
411.3845084783202
 30
0
 11
412.5550723021659
 21
411.3845084783202
 31
0
  0
LINE
  8
1
 62
3
 10
412.5550723021659
 20
411.3845084783202
 30
0
 11
409.3031501244911
 21
398.1117812056621
 31
0
  0
LINE
  8
1
 62
3
 10
409.3031501244911
 20
398.1117812056621
 30
0
 11
396.738687658966
 21
398.1117812056621
 31
0
  0
LINE
  8
1
 62
3
 10
407.751060076487
 20
400.3239024177931
 30
0
 11
399.374751766132
 21
400.3239024177931
 31
0
  0
LINE
  8
1
 62
3
 10
409.9190081949635
 20
409.172387266269
 30
0
 11
407.751060076487
 21
400.3239024177931
 31
0
  0
LINE
  8
1
 62
3
 10
401.5426998844739
 20
409.172387266269
 30
0
 11
409.9190081949635
 21
409.172387266269
 31
0
  0
LINE
  8
1
 62
3
 10
399.374751766132
 20
400.3239024177931
 30
0
 11
401.5426998844739
 21
409.172387266269
 31
0
  0
LINE
  8
1
 62
3
 10
415.0679647951581
 20
411.3845084783202
 30
0
 11
411.8160426176216
 21
398.1117812056621
 31
0
  0
LINE
  8
1
 62
3
 10
415.0679647951581
 20
411.3845084783202
 30
0
 11
427.6324272607378
 21
411.3845084783202
 31
0
  0
LINE
  8
1
 62
3
 10
427.6324272607378
 20
411.3845084783202
 30
0
 11
425.7649031508843
 21
403.7622048583319
 31
0
  0
LINE
  8
1
 62
3
 10
424.380505083205
 20
398.1117812056621
 30
0
 11
422.2864280055653
 21
398.1117812056621
 31
0
  0
LINE
  8
1
 62
3
 10
422.2864280055653
 20
398.1117812056621
 30
0
 11
423.3704020649382
 21
402.5360236298441
 31
0
  0
LINE
  8
1
 62
3
 10
423.3704020649382
 20
402.5360236298441
 30
0
 11
414.9940937544086
 21
402.5360236298441
 31
0
  0
LINE
  8
1
 62
3
 10
415.5360807840004
 20
404.7481448420331
 30
0
 11
423.9123890943808
 21
404.7481448420331
 31
0
  0
LINE
  8
1
 62
3
 10
423.9123890943808
 20
404.7481448420331
 30
0
 11
424.9963631537028
 21
409.172387266269
 31
0
  0
LINE
  8
1
 62
3
 10
424.9963631537028
 20
409.172387266269
 30
0
 11
416.6200548431841
 21
409.172387266269
 31
0
  0
LINE
  8
1
 62
3
 10
416.6200548431841
 20
409.172387266269
 30
0
 11
415.5360807840004
 21
404.7481448420331
 31
0
  0
LINE
  8
1
 62
3
 10
425.3282234693177
 20
401.979895810782
 30
0
 11
424.380505083205
 21
398.1117812056621
 31
0
  0
LINE
  8
1
 62
3
 10
411.8160426176216
 20
398.1117812056621
 30
0
 11
413.9101196952977
 21
398.1117812056621
 31
0
  0
LINE
  8
1
 62
3
 10
413.9101196952977
 20
398.1117812056621
 30
0
 11
414.9940937544086
 21
402.5360236298441
 31
0
  0
LINE
  8
1
 62
3
 10
432.2393968314643
 20
411.3845084783202
 30
0
 11
430.1453197539011
 21
411.3845084783202
 31
0
  0
LINE
  8
1
 62
3
 10
430.1453197539011
 20
411.3845084783202
 30
0
 11
426.8933975763355
 21
398.1117812056621
 31
0
  0
LINE
  8
1
 62
3
 10
426.8933975763355
 20
398.1117812056621
 30
0
 11
428.9874746540552
 21
398.1117812056621
 31
0
  0
LINE
  8
1
 62
3
 10
428.9874746540552
 20
398.1117812056621
 30
0
 11
432.2393968314643
 21
411.3845084783202
 31
0
  0
LINE
  8
1
 62
3
 10
431.5003671470402
 20
398.1117812056621
 30
0
 11
434.7522893245839
 21
411.3845084783202
 31
0
  0
LINE
  8
1
 62
3
 10
434.7522893245839
 20
411.3845084783202
 30
0
 11
447.3167517901748
 21
411.3845084783202
 31
0
  0
LINE
  8
1
 62
3
 10
447.3167517901748
 20
411.3845084783202
 30
0
 11
446.1785790280477
 21
406.739053932891
 31
0
  0
LINE
  8
1
 62
3
 10
444.0648296126526
 20
398.1117812056621
 30
0
 11
431.5003671470402
 21
398.1117812056621
 31
0
  0
LINE
  8
1
 62
3
 10
442.5127395646047
 20
400.3239024177931
 30
0
 11
434.1364312542753
 21
400.3239024177931
 31
0
  0
LINE
  8
1
 62
3
 10
444.6806876828996
 20
409.172387266269
 30
0
 11
444.0845019505216
 21
406.739053932891
 31
0
  0
LINE
  8
1
 62
3
 10
436.3043793726029
 20
409.172387266269
 30
0
 11
444.6806876828996
 21
409.172387266269
 31
0
  0
LINE
  8
1
 62
3
 10
434.1364312542753
 20
400.3239024177931
 30
0
 11
436.3043793726029
 21
409.172387266269
 31
0
  0
LINE
  8
1
 62
3
 10
445.6907907014247
 20
404.7481448420331
 30
0
 11
439.4085594686187
 21
404.7481448420331
 31
0
  0
LINE
  8
1
 62
3
 10
445.6907907014247
 20
404.7481448420331
 30
0
 11
444.0648296126526
 21
398.1117812056621
 31
0
  0
LINE
  8
1
 62
3
 10
439.4085594686187
 20
404.7481448420331
 30
0
 11
438.8665724389716
 21
402.5360236298441
 31
0
  0
LINE
  8
1
 62
3
 10
438.8665724389716
 20
402.5360236298441
 30
0
 11
443.0547265943717
 21
402.5360236298441
 31
0
  0
LINE
  8
1
 62
3
 10
443.0547265943717
 20
402.5360236298441
 30
0
 11
442.5127395646047
 21
400.3239024177931
 31
0
  0
LINE
  8
1
 62
3
 10
444.0845019505216
 20
406.739053932891
 30
0
 11
446.1785790280477
 21
406.739053932891
 31
0
  0
LINE
  8
1
 62
3
 10
446.5777221057687
 20
398.1117812056621
 30
0
 11
448.6717991833287
 21
398.1117812056621
 31
0
  0
LINE
  8
1
 62
3
 10
448.6717991833287
 20
398.1117812056621
 30
0
 11
451.9237213608978
 21
411.3845084783202
 31
0
  0
LINE
  8
1
 62
3
 10
449.8296442833337
 20
411.3845084783202
 30
0
 11
446.5777221057687
 21
398.1117812056621
 31
0
  0
LINE
  8
1
 62
3
 10
451.9237213608978
 20
411.3845084783202
 30
0
 11
449.8296442833337
 21
411.3845084783202
 31
0
  0
LINE
  8
1
 62
3
 10
451.1846916764987
 20
398.1117812056621
 30
0
 11
454.4366138540137
 21
411.3845084783202
 31
0
  0
LINE
  8
1
 62
3
 10
454.4366138540137
 20
411.3845084783202
 30
0
 11
457.5777294703546
 21
411.3845084783202
 31
0
  0
LINE
  8
1
 62
3
 10
457.5777294703546
 20
411.3845084783202
 30
0
 11
462.0615673366297
 21
399.770872114746
 31
0
  0
LINE
  8
1
 62
3
 10
462.0615673366297
 20
399.770872114746
 30
0
 11
464.9069992419827
 21
411.3845084783202
 31
0
  0
LINE
  8
1
 62
3
 10
464.9069992419827
 20
411.3845084783202
 30
0
 11
467.0010763195967
 21
411.3845084783202
 31
0
  0
LINE
  8
1
 62
3
 10
467.0010763195967
 20
411.3845084783202
 30
0
 11
463.7491541419767
 21
398.1117812056621
 31
0
  0
LINE
  8
1
 62
3
 10
463.7491541419767
 20
398.1117812056621
 30
0
 11
460.5064756532076
 21
398.1117812056621
 31
0
  0
LINE
  8
1
 62
3
 10
460.5064756532076
 20
398.1117812056621
 30
0
 11
456.7253193174977
 21
407.9053946295351
 31
0
  0
LINE
  8
1
 62
3
 10
456.7253193174977
 20
407.9053946295351
 30
0
 11
456.0847710509877
 21
409.5644855385979
 31
0
  0
LINE
  8
1
 62
3
 10
456.0847710509877
 20
409.5644855385979
 30
0
 11
453.2787687540587
 21
398.1117812056621
 31
0
  0
LINE
  8
1
 62
3
 10
453.2787687540587
 20
398.1117812056621
 30
0
 11
451.1846916764987
 21
398.1117812056621
 31
0
  0
LINE
  8
1
 62
3
 10
466.2620466350927
 20
398.1117812056621
 30
0
 11
473.7734769139897
 21
411.3845084783202
 31
0
  0
LINE
  8
1
 62
3
 10
473.7734769139897
 20
411.3845084783202
 30
0
 11
477.8189231769647
 21
411.3845084783202
 31
0
  0
LINE
  8
1
 62
3
 10
477.8189231769647
 20
411.3845084783202
 30
0
 11
478.8265091007268
 21
398.1117812056621
 31
0
  0
LINE
  8
1
 62
3
 10
478.8265091007268
 20
398.1117812056621
 30
0
 11
476.7968269376577
 21
398.1117812056621
 31
0
  0
LINE
  8
1
 62
3
 10
476.7968269376577
 20
398.1117812056621
 30
0
 11
476.6288959503906
 21
400.3239024177931
 31
0
  0
LINE
  8
1
 62
3
 10
476.6288959503906
 20
400.3239024177931
 30
0
 11
469.8927486700268
 21
400.3239024177931
 31
0
  0
LINE
  8
1
 62
3
 10
469.8927486700268
 20
400.3239024177931
 30
0
 11
468.6408436236636
 21
398.1117812056621
 31
0
  0
LINE
  8
1
 62
3
 10
468.6408436236636
 20
398.1117812056621
 30
0
 11
466.2620466350927
 21
398.1117812056621
 31
0
  0
LINE
  8
1
 62
3
 10
471.1446537165577
 20
402.5360236298441
 30
0
 11
476.4609649630686
 21
402.5360236298441
 31
0
  0
LINE
  8
1
 62
3
 10
476.4609649630686
 20
402.5360236298441
 30
0
 11
475.9571720012136
 21
409.172387266269
 31
0
  0
LINE
  8
1
 62
3
 10
475.9571720012136
 20
409.172387266269
 30
0
 11
474.9003688559237
 21
409.172387266269
 31
0
  0
LINE
  8
1
 62
3
 10
471.1446537165577
 20
402.5360236298441
 30
0
 11
474.9003688559237
 21
409.172387266269
 31
0
  0
LINE
  8
1
 62
3
 10
484.5913237714158
 20
411.3845084783202
 30
0
 11
481.3394015938468
 21
398.1117812056621
 31
0
  0
LINE
  8
1
 62
3
 10
481.3394015938468
 20
398.1117812056621
 30
0
 11
493.9038640594256
 21
398.1117812056621
 31
0
  0
LINE
  8
1
 62
3
 10
493.9038640594256
 20
398.1117812056621
 30
0
 11
494.4458510890868
 21
400.3239024177931
 31
0
  0
LINE
  8
1
 62
3
 10
494.4458510890868
 20
400.3239024177931
 30
0
 11
483.9754657010667
 21
400.3239024177931
 31
0
  0
LINE
  8
1
 62
3
 10
483.9754657010667
 20
400.3239024177931
 30
0
 11
486.6854008490298
 21
411.3845084783202
 31
0
  0
LINE
  8
1
 62
3
 10
486.6854008490298
 20
411.3845084783202
 30
0
 11
484.5913237714158
 21
411.3845084783202
 31
0
  0
LINE
  8
1
 62
3
 10
531.2066361356988
 20
405.2001112138419
 30
0
 11
531.2066361356988
 21
402.451055788282
 31
0
  0
LINE
  8
1
 62
3
 10
530.3341884365836
 20
402.451055788282
 30
0
 11
530.3341884365836
 21
409.3095239634563
 31
0
  0
LINE
  8
1
 62
3
 10
530.3341884365836
 20
409.3095239634563
 30
0
 11
532.7761082958236
 21
409.3095239634563
 31
0
  0
LINE
  8
1
 62
3
 10
532.7761082958236
 20
409.3095239634563
 30
0
 11
533.0724648781757
 21
409.3095239634563
 31
0
  0
LINE
  8
1
 62
3
 10
534.9060993927417
 20
404.3306895546259
 30
0
 11
534.9060993927417
 21
402.451055788282
 31
0
  0
LINE
  8
1
 62
3
 10
534.9060993927417
 20
402.451055788282
 30
0
 11
533.9449125772367
 21
402.451055788282
 31
0
  0
LINE
  8
1
 62
3
 10
533.9449125772367
 20
402.451055788282
 30
0
 11
533.9449125772367
 21
404.0729110559
 31
0
  0
LINE
  8
1
 62
3
 10
532.9316978373167
 20
405.2001112138419
 30
0
 11
531.2066361356988
 21
405.2001112138419
 31
0
  0
LINE
  8
1
 62
3
 10
531.2066361356988
 20
402.451055788282
 30
0
 11
530.3341884365836
 21
402.451055788282
 31
0
  0
LINE
  8
1
 62
3
 10
531.2066361356988
 20
406.050334541276
 30
0
 11
533.1941193636408
 21
406.050334541276
 31
0
  0
LINE
  8
1
 62
3
 10
533.0626091277848
 20
408.505992531278
 30
0
 11
531.2066361356988
 21
408.505992531278
 31
0
  0
LINE
  8
1
 62
3
 10
531.2066361356988
 20
408.505992531278
 30
0
 11
531.2066361356988
 21
406.050334541276
 31
0
  0
ARC
  8
1
 62
3
 10
532.9426940693156
 20
407.3039199213811
 30
0
 40
2.009798008861834
 50
304.0700115354259
 51
86.29788871825893
  0
ARC
  8
1
 62
3
 10
532.8643762433017
 20
407.264025930551
 30
0
 40
1.257687287767188
 50
285.1995809529435
 51
80.93139523878851
  0
ARC
  8
1
 62
3
 10
532.7891936051058
 20
404.0530393898221
 30
0
 40
1.155889798231653
 50
0.9850581704823435
 51
82.91825463293205
  0
ARC
  8
1
 62
3
 10
533.5145867915958
 20
404.3622336822259
 30
0
 40
1.39187009132817
 50
358.7013873342734
 51
66.54486649404458
  0
CIRCLE
  8
1
 62
3
 10
532.7358752379366
 20
405.878787878755
 30
0
 40
5.972862778753957
  0
CIRCLE
  8
1
 62
3
 10
532.7358752379366
 20
405.878787878755
 30
0
 40
5.530127989695984
  0
ENDBLK
  8
0
  0
BLOCK
  8
0
  2
WANNENF_SSE
 70
0
 10
470
 20
0
 30
0
  0
LINE
  8
1
 62
2
 10
1290.000000000001
 20
25
 30
0
 11
1330.000000000001
 21
25
 31
0
  0
LINE
  8
1
 62
2
 10
1295.000000000001
 20
55
 30
0
 11
1325.000000000001
 21
55
 31
0
  0
LINE
  8
1
 62
2
 10
1300.000000000001
 20
85
 30
0
 11
1320.000000000001
 21
85
 31
0
  0
LINE
  8
1
 62
2
 10
1290.538080823755
 20
193.4298963165848
 30
0
 11
1330.524695330925
 21
194.4646234569254
 31
0
  0
LINE
  8
1
 62
2
 10
1330.395354438383
 20
199.4629502703219
 30
0
 11
1335.393681251778
 21
199.5922911628641
 31
0
  0
LINE
  8
1
 62
2
 10
1295.407066744609
 20
198.5575640225234
 30
0
 11
1325.397027624985
 21
199.3336093777798
 31
0
  0
LINE
  8
1
 62
2
 10
1285.410413117816
 20
198.2988822374391
 30
0
 11
1290.408739931212
 21
198.4282231299812
 31
0
  0
LINE
  8
1
 62
2
 10
1335.134999466693
 20
209.588944789657
 30
0
 11
1350.129979906883
 21
209.9769674672843
 31
0
  0
LINE
  8
1
 62
2
 10
1270.156750892541
 20
207.907513186603
 30
0
 11
1285.15173133273
 21
208.2955358642312
 31
0
  0
LINE
  8
1
 62
2
 10
1325.267686732443
 20
204.3319361911754
 30
0
 11
1330.26601354584
 21
204.4612770837175
 31
0
  0
LINE
  8
1
 62
2
 10
1290.27939903867
 20
203.4265499433768
 30
0
 11
1295.277725852066
 21
203.5558908359199
 31
0
  0
LINE
  8
1
 62
2
 10
1330.000000000001
 20
25
 30
0
 11
1330
 21
0
 31
0
  0
LINE
  8
1
 62
2
 10
1290.000000000001
 20
25
 30
0
 11
1290.000000000001
 21
0
 31
0
  0
LINE
  8
1
 62
2
 10
1295.000000000001
 20
55
 30
0
 11
1295
 21
25
 31
0
  0
LINE
  8
1
 62
2
 10
1325.000000000001
 20
55
 30
0
 11
1325
 21
25
 31
0
  0
LINE
  8
1
 62
2
 10
1320.000000000001
 20
85
 30
0
 11
1325.000000000001
 21
55
 31
0
  0
LINE
  8
1
 62
2
 10
1300.000000000001
 20
85
 30
0
 11
1295.000000000001
 21
55
 31
0
  0
LINE
  8
1
 62
2
 10
1315.000000000001
 20
194.0628934329557
 30
0
 11
1315
 21
85
 31
0
  0
LINE
  8
1
 62
2
 10
1305.000000000001
 20
193.8041250543138
 30
0
 11
1305
 21
85
 31
0
  0
LINE
  8
1
 62
2
 10
1350.000639014339
 20
214.9752942806808
 30
0
 11
1350.129979906883
 21
209.9769674672843
 31
0
  0
LINE
  8
1
 62
2
 10
1330.007331760754
 20
214.4579307105105
 30
0
 11
1350.000639014339
 21
214.9752942806808
 31
0
  0
LINE
  8
1
 62
2
 10
1330.26601354584
 20
204.4612770837175
 30
0
 11
1330.007331760754
 21
214.4579307105105
 31
0
  0
LINE
  8
1
 62
2
 10
1335.393681251778
 20
199.5922911628641
 30
0
 11
1335.134999466693
 21
209.588944789657
 31
0
  0
LINE
  8
1
 62
2
 10
1325.397027624985
 20
199.3336093777798
 30
0
 11
1325.267686732443
 21
204.3319361911754
 31
0
  0
LINE
  8
1
 62
2
 10
1330.524695330925
 20
194.4646234569254
 30
0
 11
1330.395354438383
 21
199.4629502703219
 31
0
  0
LINE
  8
1
 62
2
 10
1295.277725852066
 20
203.5558908359199
 30
0
 11
1295.407066744609
 21
198.5575640225234
 31
0
  0
LINE
  8
1
 62
2
 10
1290.020717253584
 20
213.4232035701698
 30
0
 11
1290.27939903867
 21
203.4265499433768
 31
0
  0
LINE
  8
1
 62
2
 10
1270.027409999999
 20
212.9058399999994
 30
0
 11
1290.020717253584
 21
213.4232035701698
 31
0
  0
LINE
  8
1
 62
2
 10
1270.027409999999
 20
212.9058399999994
 30
0
 11
1270.156750892541
 21
207.907513186603
 31
0
  0
LINE
  8
1
 62
2
 10
1285.410413117816
 20
198.2988822374391
 30
0
 11
1285.15173133273
 21
208.2955358642312
 31
0
  0
LINE
  8
1
 62
2
 10
1290.538080823755
 20
193.4298963165848
 30
0
 11
1290.408739931212
 21
198.4282231299812
 31
0
  0
LINE
  8
1
 62
2
 10
470
 20
25
 30
0
 11
510
 21
25
 31
0
  0
LINE
  8
1
 62
2
 10
475
 20
55
 30
0
 11
505
 21
55
 31
0
  0
LINE
  8
1
 62
2
 10
480
 20
85
 30
0
 11
500
 21
85
 31
0
  0
LINE
  8
1
 62
2
 10
469.4753046690757
 20
194.4646234569254
 30
0
 11
509.4619191762461
 21
193.4298963165848
 31
0
  0
LINE
  8
1
 62
2
 10
464.6063187482223
 20
199.5922911628641
 30
0
 11
469.6046455616179
 21
199.4629502703219
 31
0
  0
LINE
  8
1
 62
2
 10
474.6029723750153
 20
199.3336093777798
 30
0
 11
504.592933255392
 21
198.5575640225234
 31
0
  0
LINE
  8
1
 62
2
 10
509.591260068789
 20
198.4282231299812
 30
0
 11
514.589586882184
 21
198.2988822374391
 31
0
  0
LINE
  8
1
 62
2
 10
449.870020093118
 20
209.9769674672843
 30
0
 11
464.865000533307
 21
209.588944789657
 31
0
  0
LINE
  8
1
 62
2
 10
514.848268667271
 20
208.2955358642312
 30
0
 11
529.8432491074591
 21
207.907513186603
 31
0
  0
LINE
  8
1
 62
2
 10
469.7339864541609
 20
204.4612770837175
 30
0
 11
474.7323132675574
 21
204.3319361911754
 31
0
  0
LINE
  8
1
 62
2
 10
504.722274147935
 20
203.5558908359199
 30
0
 11
509.720600961331
 21
203.4265499433768
 31
0
  0
LINE
  8
1
 62
2
 10
470
 20
0
 30
0
 11
470
 21
25
 31
0
  0
LINE
  8
1
 62
2
 10
510
 20
0
 30
0
 11
510
 21
25
 31
0
  0
LINE
  8
1
 62
2
 10
505
 20
25
 30
0
 11
505
 21
55
 31
0
  0
LINE
  8
1
 62
2
 10
475
 20
25
 30
0
 11
475
 21
55
 31
0
  0
LINE
  8
1
 62
2
 10
475
 20
55
 30
0
 11
480
 21
85
 31
0
  0
LINE
  8
1
 62
2
 10
505
 20
55
 30
0
 11
500
 21
85
 31
0
  0
LINE
  8
1
 62
2
 10
485
 20
85
 30
0
 11
485
 21
194.0628934329557
 31
0
  0
LINE
  8
1
 62
2
 10
495
 20
85
 30
0
 11
495
 21
193.8041250543138
 31
0
  0
LINE
  8
1
 62
2
 10
449.870020093118
 20
209.9769674672843
 30
0
 11
449.999360985661
 21
214.9752942806808
 31
0
  0
LINE
  8
1
 62
2
 10
449.999360985661
 20
214.9752942806808
 30
0
 11
469.9926682392461
 21
214.4579307105105
 31
0
  0
LINE
  8
1
 62
2
 10
469.9926682392461
 20
214.4579307105105
 30
0
 11
469.7339864541609
 21
204.4612770837175
 31
0
  0
LINE
  8
1
 62
2
 10
464.865000533307
 20
209.588944789657
 30
0
 11
464.6063187482223
 21
199.5922911628641
 31
0
  0
LINE
  8
1
 62
2
 10
474.7323132675574
 20
204.3319361911754
 30
0
 11
474.6029723750153
 21
199.3336093777798
 31
0
  0
LINE
  8
1
 62
2
 10
469.6046455616179
 20
199.4629502703219
 30
0
 11
469.4753046690757
 21
194.4646234569254
 31
0
  0
LINE
  8
1
 62
2
 10
504.592933255392
 20
198.5575640225234
 30
0
 11
504.722274147935
 21
203.5558908359199
 31
0
  0
LINE
  8
1
 62
2
 10
509.720600961331
 20
203.4265499433768
 30
0
 11
509.979282746416
 21
213.4232035701698
 31
0
  0
LINE
  8
1
 62
2
 10
509.979282746416
 20
213.4232035701698
 30
0
 11
529.972590000001
 21
212.9058399999994
 31
0
  0
LINE
  8
1
 62
2
 10
529.8432491074591
 20
207.907513186603
 30
0
 11
529.972590000001
 21
212.9058399999994
 31
0
  0
LINE
  8
1
 62
2
 10
514.848268667271
 20
208.2955358642312
 30
0
 11
514.589586882184
 21
198.2988822374391
 31
0
  0
LINE
  8
1
 62
2
 10
509.591260068789
 20
198.4282231299812
 30
0
 11
509.4619191762461
 21
193.4298963165848
 31
0
  0
ENDBLK
  8
0
  0
BLOCK
  8
0
  2
WANNE_PORTOFINO_113
 70
0
 10
651.3288259999999
 20
44.24209900000005
 30
0
  0
LINE
  8
1
 62
7
 10
1403.98705
 20
218.1973699999981
 30
0
 11
1434.68589243479
 21
239.0012416499999
 31
0
  0
LINE
  8
1
 62
7
 10
980.740669999999
 20
205.9008900000008
 30
0
 11
962.714849799984
 21
225.4288702166846
 31
0
  0
LINE
  8
1
 62
7
 10
980.740669999999
 20
205.9008900000008
 30
0
 11
1403.98705
 21
218.1973699999981
 31
0
  0
LINE
  8
1
 62
7
 10
947.801146301804
 20
225
 30
0
 11
1434.68589243479
 21
239.0012416499999
 31
0
  0
LINE
  8
1
 62
7
 10
365.3141075652103
 20
239.0012416499999
 30
0
 11
396.0129500000002
 21
218.1973699999981
 31
0
  0
LINE
  8
1
 62
7
 10
837.285150200016
 20
225.4288702166846
 30
0
 11
819.259330000001
 21
205.9008900000008
 31
0
  0
LINE
  8
1
 62
7
 10
396.0129500000002
 20
218.1973699999981
 30
0
 11
819.259330000001
 21
205.9008900000008
 31
0
  0
LINE
  8
1
 62
7
 10
365.3141075652103
 20
239.0012416499999
 30
0
 11
852.198853698196
 21
225
 31
0
  0
LINE
  8
1
 62
7
 10
852.198853698196
 20
225
 30
0
 11
947.801146301804
 21
225
 31
0
  0
LINE
  8
1
 62
3
  6
DASHDOT
 10
900
 20
250
 30
0
 11
900
 21
180
 31
0
  0
LINE
  8
1
 62
7
 10
855
 20
225
 30
0
 11
874
 21
205
 31
0
  0
LINE
  8
1
 62
7
 10
874
 20
205
 30
0
 11
926
 21
205
 31
0
  0
LINE
  8
1
 62
7
 10
926
 20
205
 30
0
 11
945
 21
225
 31
0
  0
LINE
  8
1
 62
7
 10
0
 20
620
 30
0
 11
0
 21
655
 31
0
  0
LINE
  8
1
 62
7
 10
1800
 20
620
 30
0
 11
1800
 21
655
 31
0
  0
LINE
  8
1
 62
7
 10
0
 20
620
 30
0
 11
1800
 21
620
 31
0
  0
LINE
  8
1
 62
7
 10
0
 20
655
 30
0
 11
1800
 21
655
 31
0
  0
LINE
  8
MITTELLINIEN
 62
3
  6
DASHDOT
 10
963.989954999998
 20
575
 30
0
 11
834.3219809999871
 21
575
 31
0
  0
LINE
  8
MITTELLINIEN
 62
3
  6
DASHDOT
 10
900
 20
638.9899549999991
 30
0
 11
900
 21
509.3219809999989
 31
0
  0
ARC
  8
1
 62
7
 10
824.6128799998289
 20
950.2791200000929
 30
0
 40
950.0000000001935
 50
331.1601610000003
 51
339.6556069999984
  0
ARC
  8
1
 62
7
 10
1218.800142109021
 20
733.2157489603151
 30
0
 40
499.9998837154394
 50
320.9130926637579
 51
331.1601639106091
  0
ARC
  8
1
 62
7
 10
2344.274856975706
 20
-181.0060048206851
 30
0
 40
949.9983055560745
 50
140.913082292826
 51
150.3161959749947
  0
ARC
  8
1
 62
7
 10
1432.066248805138
 20
338.9668748760564
 30
0
 40
99.99995179515251
 50
271.501117686318
 51
330.3162109474575
  0
ARC
  8
1
 62
7
 10
975.3871200001711
 20
950.2791200000929
 30
0
 40
950.0000000001928
 50
200.3443930000016
 51
208.8398389999997
  0
ARC
  8
1
 62
7
 10
581.1998578909791
 20
733.2157489603151
 30
0
 40
499.9998837154395
 50
208.8398360893909
 51
219.0869073362421
  0
ARC
  8
1
 62
7
 10
-544.274856975706
 20
-181.0060048206851
 30
0
 40
949.9983055560747
 50
29.68380402500526
 51
39.08691770717397
  0
ARC
  8
1
 62
7
 10
367.9337511948623
 20
338.9668748760564
 30
0
 40
99.99995179515246
 50
209.6837890525424
 51
268.498882313682
  0
CIRCLE
  8
WANNE
 62
7
 10
899.9999999999941
 20
575
 30
0
 40
26
  0
INSERT
  8
0
  2
WANNENF_SSE
 10
470
 20
0
 30
0
  0
ENDBLK
  8
0
  0
ENDSEC
  0
SECTION
  2
ENTITIES
  0
TEXT
  8
1
 62
2
 10
359.9999999999998
 20
280
 30
0
 40
35
  1
PORTOFINO 113
 41
0.5993999999999999
  0
TEXT
  8
1
 62
3
 10
858.042
 20
120
 30
0
 40
35
  1
Ö 52
 41
0.5993999999999999
 72
1
 73
3
 11
900
 21
155
 31
0
  0
TEXT
  8
1
 62
3
 10
949.9999999999998
 20
490.0000000000005
 30
0
 40
35
  1
Ö 52
 41
0.5993999999999999
 73
3
 11
949.9999999999998
 21
525.0000000000005
 31
0
  0
INSERT
  8
0
  2
DLX
 10
359.9999999999998
 20
355
 30
0
  0
INSERT
  8
0
  2
WANNE_PORTOFINO_113
 10
651.3288259999999
 20
44.24209900000005
 30
0
  0
ENDSEC
  0
EOF
