  0
SECTION
  2
HEADER
  9
$ACADVER
  1
AC1009
  9
$INSBASE
 10
0
 20
0
  9
$EXTMIN
 10
0
 20
0
  9
$EXTMAX
 10
1900
 20
900
  9
$LIMMIN
 10
0
 20
0
  9
$LIMMAX
 10
1900
 20
900
  9
$VIEWCTR
 10
10
 20
10
  9
$VIEWSIZE
 40
10
  9
$SNAPMODE
 70
0
  9
$SNAPUNIT
 10
1
 20
1
  9
$SNAPBASE
 10
0
 20
0
  9
$SNAPANG
 50
0
  9
$SNAPSTYLE
 70
0
  9
$SNAPISOPAIR
 70
0
  9
$GRIDMODE
 70
0
  9
$GRIDUNIT
 10
0
 20
0
  9
$ORTHOMODE
 70
0
  9
$REGENMODE
 70
1
  9
$FILLMODE
 70
1
  9
$QTEXTMODE
 70
0
  9
$DRAGMODE
 70
2
  9
$LTSCALE
 40
1
  9
$OSMODE
 70
0
  9
$ATTMODE
 70
1
  9
$TEXTSIZE
 40
3.5
  9
$TRACEWID
 40
0.5
  9
$TEXTSTYLE
  7
STANDARD
  9
$CLAYER
  8
0
  9
$CELTYPE
  6
BYLAYER
  9
$CECOLOR
 62
256
  9
$DIMSCALE
 40
1
  9
$DIMASZ
 40
0.18
  9
$DIMEXO
 40
0.0625
  9
$DIMDLI
 40
0.38
  9
$DIMRND
 40
0
  9
$DIMDLE
 40
0
  9
$DIMEXE
 40
0.18
  9
$DIMTP
 40
0
  9
$DIMTM
 40
0
  9
$DIMTXT
 40
0.18
  9
$DIMCEN
 40
0.09
  9
$DIMTSZ
 40
0
  9
$DIMTOL
 70
0
  9
$DIMLIM
 70
0
  9
$DIMTIH
 70
1
  9
$DIMTOH
 70
1
  9
$DIMSE1
 70
0
  9
$DIMSE2
 70
0
  9
$DIMTAD
 70
0
  9
$DIMZIN
 70
0
  9
$DIMBLK
  1

  9
$DIMASO
 70
1
  9
$DIMSHO
 70
1
  9
$DIMPOST
  1

  9
$DIMAPOST
  1

  9
$DIMALT
 70
0
  9
$DIMALTD
 70
2
  9
$DIMALTF
 40
25.4
  9
$DIMLFAC
 40
1
  9
$DIMTOFL
 70
0
  9
$DIMTVP
 40
0
  9
$DIMTIX
 70
0
  9
$DIMSOXD
 70
0
  9
$DIMSAH
 70
0
  9
$DIMBLK1
  1

  9
$DIMBLK2
  1

  9
$DIMSTYLE
  2
*UNNAMED
  9
$DIMCLRD
 70
0
  9
$DIMCLRE
 70
0
  9
$DIMCLRT
 70
0
  9
$DIMTFAC
 40
1
  9
$DIMGAP
 40
0.09
  9
$LUNITS
 70
2
  9
$LUPREC
 70
4
  9
$AXISMODE
 70
0
  9
$AXISUNIT
 10
0
 20
0
  9
$SKETCHINC
 40
0.1
  9
$FILLETRAD
 40
2
  9
$AUNITS
 70
0
  9
$AUPREC
 70
0
  9
$MENU
  1
ACAD
  9
$ELEVATION
 40
0
  9
$THICKNESS
 40
0
  9
$VIEWDIR
 10
0
 20
0
 30
1
  9
$LIMCHECK
 70
0
  9
$BLIPMODE
 70
1
  9
$CHAMFERA
 40
0
  9
$CHAMFERB
 40
0
  9
$FASTZOOM
 70
1
  9
$SKPOLY
 70
0
  9
$ANGBASE
 50
0
  9
$ANGDIR
 70
0
  9
$PDMODE
 70
0
  9
$PDSIZE
 40
0
  9
$PLINEWID
 40
0
  9
$COORDS
 70
2
  0
ENDSEC
  0
SECTION
  2
TABLES
  0
TABLE
  2
DIMSTYLE
 70
0
  0
ENDTAB
  0
TABLE
  2
LTYPE
 70
9
  0
LTYPE
  2
CONTINUOUS
 70
64
  3
Solid line
 72
65
 73
0
 40
0
  0
LTYPE
  2
BORDER
 70
64
  3
__ __ . __ __ .
 72
65
 73
6
 40
87.5
 49
25
 49
-12.5
 49
25
 49
-12.5
 49
0
 49
-12.5
  0
LTYPE
  2
CENTER
 70
64
  3
____ _ ____ _
 72
65
 73
4
 40
100
 49
62.5
 49
-12.5
 49
12.5
 49
-12.5
  0
LTYPE
  2
DASHDOT
 70
64
  3
__ . __ . __ .
 72
65
 73
4
 40
50
 49
25
 49
-12.5
 49
0
 49
-12.5
  0
LTYPE
  2
DASHED
 70
64
  3
__ __ __ __ __
 72
65
 73
2
 40
37.5
 49
25
 49
-12.5
  0
LTYPE
  2
DIVIDE
 70
64
  3
__ . . __ . . 
 72
65
 73
6
 40
62.5
 49
25
 49
-12.5
 49
0
 49
-12.5
 49
0
 49
-12.5
  0
LTYPE
  2
DOT
 70
64
  3
..............
 72
65
 73
4
 40
25
 49
0
 49
-12.5
 49
0
 49
-12.5
  0
LTYPE
  2
HIDDEN
 70
64
  3
_ _ _ _ _ _ _
 72
65
 73
2
 40
18.75
 49
12.5
 49
-6.25
  0
LTYPE
  2
PHANTOM
 70
64
  3
_____ _ _ _____ _ _ 
 72
65
 73
6
 40
125
 49
62.5
 49
-12.5
 49
12.5
 49
-12.5
 49
12.5
 49
-12.5
  0
ENDTAB
  0
TABLE
  2
LAYER
 70
7
  0
LAYER
  2
MITTELLINIEN
 70
0
 62
7
  6
CONTINUOUS
  0
LAYER
  2
HILFSLINIEN
 70
0
 62
7
  6
CONTINUOUS
  0
LAYER
  2
0
 70
0
 62
7
  6
CONTINUOUS
  0
LAYER
  2
1
 70
0
 62
7
  6
CONTINUOUS
  0
LAYER
  2
GEOMETRIE
 70
0
 62
7
  6
CONTINUOUS
  0
LAYER
  2
WANNE
 70
0
 62
7
  6
CONTINUOUS
  0
ENDTAB
  0
TABLE
  2
STYLE
 70
4
  0
STYLE
  2
STANDARD
 70
0
 40
0
 41
1
 50
0
 71
0
 42
3.5
  3
txt
  4

  0
STYLE
  2
SIMPLEX
 70
0
 40
0
 41
1
 50
0
 71
0
 42
3.5
  3
simplex
  4

  0
STYLE
  2
COMPLEX
 70
0
 40
0
 41
1
 50
0
 71
0
 42
3.5
  3
complex
  4

  0
STYLE
  2
ITALIC
 70
0
 40
0
 41
1
 50
0
 71
0
 42
3.5
  3
italic
  4

  0
ENDTAB
  0
TABLE
  2
VIEW
 70
0
  0
ENDTAB
  0
ENDSEC
  0
SECTION
  2
BLOCKS
  0
BLOCK
  8
0
  2
DLX
 70
0
 10
0
 20
0
 30
0
  0
LINE
  8
1
 62
3
 10
571.0863392165611
 20
553.5059925312783
 30
0
 11
571.0863392165611
 21
551.0503345412762
 31
0
  0
LINE
  8
1
 62
3
 10
572.9423122086471
 20
553.5059925312783
 30
0
 11
571.0863392165611
 21
553.5059925312783
 31
0
  0
LINE
  8
1
 62
3
 10
571.0863392165611
 20
551.0503345412762
 30
0
 11
573.0738224445031
 21
551.0503345412762
 31
0
  0
LINE
  8
1
 62
3
 10
571.0863392165611
 20
547.4510557882825
 30
0
 11
570.213891517446
 21
547.4510557882825
 31
0
  0
LINE
  8
1
 62
3
 10
572.8114009181791
 20
550.2001112138421
 30
0
 11
571.0863392165611
 21
550.2001112138421
 31
0
  0
LINE
  8
1
 62
3
 10
573.824615658099
 20
547.4510557882825
 30
0
 11
573.824615658099
 21
549.0729110559003
 31
0
  0
LINE
  8
1
 62
3
 10
574.785802473604
 20
547.4510557882825
 30
0
 11
573.824615658099
 21
547.4510557882825
 31
0
  0
LINE
  8
1
 62
3
 10
574.785802473604
 20
549.3306895546261
 30
0
 11
574.785802473604
 21
547.4510557882825
 31
0
  0
LINE
  8
1
 62
3
 10
572.655811376686
 20
554.3095239634564
 30
0
 11
572.952167959038
 21
554.3095239634564
 31
0
  0
LINE
  8
1
 62
3
 10
570.213891517446
 20
554.3095239634564
 30
0
 11
572.655811376686
 21
554.3095239634564
 31
0
  0
LINE
  8
1
 62
3
 10
570.213891517446
 20
547.4510557882825
 30
0
 11
570.213891517446
 21
554.3095239634564
 31
0
  0
LINE
  8
1
 62
3
 10
571.0863392165611
 20
550.2001112138421
 30
0
 11
571.0863392165611
 21
547.4510557882825
 31
0
  0
LINE
  8
1
 62
3
 10
526.5651039298921
 20
556.3845084783203
 30
0
 11
524.4710268522781
 21
556.3845084783203
 31
0
  0
LINE
  8
1
 62
3
 10
523.855168781929
 20
545.3239024177933
 30
0
 11
526.5651039298921
 21
556.3845084783203
 31
0
  0
LINE
  8
1
 62
3
 10
534.3255541699491
 20
545.3239024177933
 30
0
 11
523.855168781929
 21
545.3239024177933
 31
0
  0
LINE
  8
1
 62
3
 10
533.7835671402879
 20
543.1117812056623
 30
0
 11
534.3255541699491
 21
545.3239024177933
 31
0
  0
LINE
  8
1
 62
3
 10
521.2191046747091
 20
543.1117812056623
 30
0
 11
533.7835671402879
 21
543.1117812056623
 31
0
  0
LINE
  8
1
 62
3
 10
524.4710268522781
 20
556.3845084783203
 30
0
 11
521.2191046747091
 21
543.1117812056623
 31
0
  0
LINE
  8
1
 62
3
 10
511.0243567974201
 20
547.5360236298443
 30
0
 11
514.780071936786
 21
554.1723872662692
 31
0
  0
LINE
  8
1
 62
3
 10
515.836875082076
 20
554.1723872662692
 30
0
 11
514.780071936786
 21
554.1723872662692
 31
0
  0
LINE
  8
1
 62
3
 10
516.3406680439309
 20
547.5360236298443
 30
0
 11
515.836875082076
 21
554.1723872662692
 31
0
  0
LINE
  8
1
 62
3
 10
511.0243567974201
 20
547.5360236298443
 30
0
 11
516.3406680439309
 21
547.5360236298443
 31
0
  0
LINE
  8
1
 62
3
 10
508.5205467045259
 20
543.1117812056623
 30
0
 11
506.141749715955
 21
543.1117812056623
 31
0
  0
LINE
  8
1
 62
3
 10
509.7724517508891
 20
545.3239024177933
 30
0
 11
508.5205467045259
 21
543.1117812056623
 31
0
  0
LINE
  8
1
 62
3
 10
516.508599031253
 20
545.3239024177933
 30
0
 11
509.7724517508891
 21
545.3239024177933
 31
0
  0
LINE
  8
1
 62
3
 10
516.67653001852
 20
543.1117812056623
 30
0
 11
516.508599031253
 21
545.3239024177933
 31
0
  0
LINE
  8
1
 62
3
 10
518.7062121815891
 20
543.1117812056623
 30
0
 11
516.67653001852
 21
543.1117812056623
 31
0
  0
LINE
  8
1
 62
3
 10
517.6986262578271
 20
556.3845084783203
 30
0
 11
518.7062121815891
 21
543.1117812056623
 31
0
  0
LINE
  8
1
 62
3
 10
513.6531799948521
 20
556.3845084783203
 30
0
 11
517.6986262578271
 21
556.3845084783203
 31
0
  0
LINE
  8
1
 62
3
 10
506.141749715955
 20
543.1117812056623
 30
0
 11
513.6531799948521
 21
556.3845084783203
 31
0
  0
LINE
  8
1
 62
3
 10
493.1584718349211
 20
543.1117812056623
 30
0
 11
491.064394757361
 21
543.1117812056623
 31
0
  0
LINE
  8
1
 62
3
 10
495.96447413185
 20
554.5644855385981
 30
0
 11
493.1584718349211
 21
543.1117812056623
 31
0
  0
LINE
  8
1
 62
3
 10
496.60502239836
 20
552.9053946295353
 30
0
 11
495.96447413185
 21
554.5644855385981
 31
0
  0
LINE
  8
1
 62
3
 10
500.38617873407
 20
543.1117812056623
 30
0
 11
496.60502239836
 21
552.9053946295353
 31
0
  0
LINE
  8
1
 62
3
 10
503.6288572228391
 20
543.1117812056623
 30
0
 11
500.38617873407
 21
543.1117812056623
 31
0
  0
LINE
  8
1
 62
3
 10
506.880779400459
 20
556.3845084783203
 30
0
 11
503.6288572228391
 21
543.1117812056623
 31
0
  0
LINE
  8
1
 62
3
 10
504.786702322845
 20
556.3845084783203
 30
0
 11
506.880779400459
 21
556.3845084783203
 31
0
  0
LINE
  8
1
 62
3
 10
501.941270417492
 20
544.7708721147462
 30
0
 11
504.786702322845
 21
556.3845084783203
 31
0
  0
LINE
  8
1
 62
3
 10
497.4574325512169
 20
556.3845084783203
 30
0
 11
501.941270417492
 21
544.7708721147462
 31
0
  0
LINE
  8
1
 62
3
 10
494.3163169348761
 20
556.3845084783203
 30
0
 11
497.4574325512169
 21
556.3845084783203
 31
0
  0
LINE
  8
1
 62
3
 10
491.064394757361
 20
543.1117812056623
 30
0
 11
494.3163169348761
 21
556.3845084783203
 31
0
  0
LINE
  8
1
 62
3
 10
491.8034244417599
 20
556.3845084783203
 30
0
 11
489.709347364196
 21
556.3845084783203
 31
0
  0
LINE
  8
1
 62
3
 10
489.709347364196
 20
556.3845084783203
 30
0
 11
486.4574251866311
 21
543.1117812056623
 31
0
  0
LINE
  8
1
 62
3
 10
488.551502264191
 20
543.1117812056623
 30
0
 11
491.8034244417599
 21
556.3845084783203
 31
0
  0
LINE
  8
1
 62
3
 10
486.4574251866311
 20
543.1117812056623
 30
0
 11
488.551502264191
 21
543.1117812056623
 31
0
  0
LINE
  8
1
 62
3
 10
483.9642050313839
 20
551.7390539328912
 30
0
 11
486.0582821089099
 21
551.7390539328912
 31
0
  0
LINE
  8
1
 62
3
 10
482.934429675234
 20
547.5360236298443
 30
0
 11
482.3924426454671
 21
545.3239024177933
 31
0
  0
LINE
  8
1
 62
3
 10
478.7462755198339
 20
547.5360236298443
 30
0
 11
482.934429675234
 21
547.5360236298443
 31
0
  0
LINE
  8
1
 62
3
 10
479.288262549481
 20
549.7481448420333
 30
0
 11
478.7462755198339
 21
547.5360236298443
 31
0
  0
LINE
  8
1
 62
3
 10
485.570493782287
 20
549.7481448420333
 30
0
 11
483.9445326935149
 21
543.1117812056623
 31
0
  0
LINE
  8
1
 62
3
 10
485.570493782287
 20
549.7481448420333
 30
0
 11
479.288262549481
 21
549.7481448420333
 31
0
  0
LINE
  8
1
 62
3
 10
474.0161343351381
 20
545.3239024177933
 30
0
 11
476.184082453465
 21
554.1723872662692
 31
0
  0
LINE
  8
1
 62
3
 10
476.184082453465
 20
554.1723872662692
 30
0
 11
484.5603907637619
 21
554.1723872662692
 31
0
  0
LINE
  8
1
 62
3
 10
484.5603907637619
 20
554.1723872662692
 30
0
 11
483.9642050313839
 21
551.7390539328912
 31
0
  0
LINE
  8
1
 62
3
 10
482.3924426454671
 20
545.3239024177933
 30
0
 11
474.0161343351381
 21
545.3239024177933
 31
0
  0
LINE
  8
1
 62
3
 10
483.9445326935149
 20
543.1117812056623
 30
0
 11
471.3800702279029
 21
543.1117812056623
 31
0
  0
LINE
  8
1
 62
3
 10
487.1964548710371
 20
556.3845084783203
 30
0
 11
486.0582821089099
 21
551.7390539328912
 31
0
  0
LINE
  8
1
 62
3
 10
474.631992405446
 20
556.3845084783203
 30
0
 11
487.1964548710371
 21
556.3845084783203
 31
0
  0
LINE
  8
1
 62
3
 10
471.3800702279029
 20
543.1117812056623
 30
0
 11
474.631992405446
 21
556.3845084783203
 31
0
  0
LINE
  8
1
 62
3
 10
468.867177734918
 20
543.1117812056623
 30
0
 11
472.1190999123271
 21
556.3845084783203
 31
0
  0
LINE
  8
1
 62
3
 10
466.773100657198
 20
543.1117812056623
 30
0
 11
468.867177734918
 21
543.1117812056623
 31
0
  0
LINE
  8
1
 62
3
 10
470.0250228347629
 20
556.3845084783203
 30
0
 11
466.773100657198
 21
543.1117812056623
 31
0
  0
LINE
  8
1
 62
3
 10
472.1190999123271
 20
556.3845084783203
 30
0
 11
470.0250228347629
 21
556.3845084783203
 31
0
  0
LINE
  8
1
 62
3
 10
453.78982277616
 20
543.1117812056623
 30
0
 11
454.8737968352709
 21
547.5360236298443
 31
0
  0
LINE
  8
1
 62
3
 10
451.695745698484
 20
543.1117812056623
 30
0
 11
453.78982277616
 21
543.1117812056623
 31
0
  0
LINE
  8
1
 62
3
 10
465.20792655018
 20
546.9798958107822
 30
0
 11
464.2602081640671
 21
543.1117812056623
 31
0
  0
LINE
  8
1
 62
3
 10
456.499757924046
 20
554.1723872662692
 30
0
 11
455.415783864863
 21
549.7481448420333
 31
0
  0
LINE
  8
1
 62
3
 10
464.8760662345651
 20
554.1723872662692
 30
0
 11
456.499757924046
 21
554.1723872662692
 31
0
  0
LINE
  8
1
 62
3
 10
463.7920921752429
 20
549.7481448420333
 30
0
 11
464.8760662345651
 21
554.1723872662692
 31
0
  0
LINE
  8
1
 62
3
 10
455.415783864863
 20
549.7481448420333
 30
0
 11
463.7920921752429
 21
549.7481448420333
 31
0
  0
LINE
  8
1
 62
3
 10
463.2501051458009
 20
547.5360236298443
 30
0
 11
454.8737968352709
 21
547.5360236298443
 31
0
  0
LINE
  8
1
 62
3
 10
462.1661310864281
 20
543.1117812056623
 30
0
 11
463.2501051458009
 21
547.5360236298443
 31
0
  0
LINE
  8
1
 62
3
 10
464.2602081640671
 20
543.1117812056623
 30
0
 11
462.1661310864281
 21
543.1117812056623
 31
0
  0
LINE
  8
1
 62
3
 10
467.5121303415999
 20
556.3845084783203
 30
0
 11
465.6446062317471
 21
548.7622048583321
 31
0
  0
LINE
  8
1
 62
3
 10
454.94766787602
 20
556.3845084783203
 30
0
 11
467.5121303415999
 21
556.3845084783203
 31
0
  0
LINE
  8
1
 62
3
 10
454.94766787602
 20
556.3845084783203
 30
0
 11
451.695745698484
 21
543.1117812056623
 31
0
  0
LINE
  8
1
 62
3
 10
439.254454846995
 20
545.3239024177933
 30
0
 11
441.422402965336
 21
554.1723872662692
 31
0
  0
LINE
  8
1
 62
3
 10
441.422402965336
 20
554.1723872662692
 30
0
 11
449.798711275826
 21
554.1723872662692
 31
0
  0
LINE
  8
1
 62
3
 10
449.798711275826
 20
554.1723872662692
 30
0
 11
447.6307631573491
 21
545.3239024177933
 31
0
  0
LINE
  8
1
 62
3
 10
447.6307631573491
 20
545.3239024177933
 30
0
 11
439.254454846995
 21
545.3239024177933
 31
0
  0
LINE
  8
1
 62
3
 10
449.1828532053539
 20
543.1117812056623
 30
0
 11
436.6183907398281
 21
543.1117812056623
 31
0
  0
LINE
  8
1
 62
3
 10
452.434775383028
 20
556.3845084783203
 30
0
 11
449.1828532053539
 21
543.1117812056623
 31
0
  0
LINE
  8
1
 62
3
 10
439.87031291731
 20
556.3845084783203
 30
0
 11
452.434775383028
 21
556.3845084783203
 31
0
  0
LINE
  8
1
 62
3
 10
436.6183907398281
 20
543.1117812056623
 30
0
 11
439.87031291731
 21
556.3845084783203
 31
0
  0
LINE
  8
1
 62
3
 10
580.2092062330689
 20
500.0000000000002
 30
0
 11
527.6184048142591
 21
500.0000000000002
 31
0
  0
LINE
  8
1
 62
3
 10
577.8085338665501
 20
506.1939393939101
 30
0
 11
534.999384314377
 21
506.1939393939101
 31
0
  0
LINE
  8
1
 62
3
 10
577.8085338665501
 20
506.1939393939101
 30
0
 11
580.2092062330689
 21
500.0000000000002
 31
0
  0
LINE
  8
1
 62
3
 10
570.5665337897681
 20
524.8789170668242
 30
0
 11
567.786680665811
 21
532.0511751450792
 31
0
  0
LINE
  8
1
 62
3
 10
576.1637599700541
 20
532.0511751450792
 30
0
 11
570.5665337897681
 21
524.8789170668242
 31
0
  0
LINE
  8
1
 62
3
 10
580.2092062331119
 20
532.0511751450792
 30
0
 11
576.1637599700541
 21
532.0511751450792
 31
0
  0
LINE
  8
1
 62
3
 10
571.90897618803
 20
521.4153012186032
 30
0
 11
580.2092062331119
 21
532.0511751450792
 31
0
  0
LINE
  8
1
 62
3
 10
576.779674281034
 20
508.8484848484773
 30
0
 11
571.90897618803
 21
521.4153012186032
 31
0
  0
LINE
  8
1
 62
3
 10
572.734228017986
 20
508.8484848484773
 30
0
 11
576.779674281034
 21
508.8484848484773
 31
0
  0
LINE
  8
1
 62
3
 10
569.2059723233019
 20
517.9516853705022
 30
0
 11
572.734228017986
 21
508.8484848484773
 31
0
  0
LINE
  8
1
 62
3
 10
562.1018397432001
 20
508.8484848484773
 30
0
 11
569.2059723233019
 21
517.9516853705022
 31
0
  0
LINE
  8
1
 62
3
 10
558.056393480203
 20
508.8484848484773
 30
0
 11
562.1018397432001
 21
508.8484848484773
 31
0
  0
LINE
  8
1
 62
3
 10
567.8635299249929
 20
521.4153012186612
 30
0
 11
558.056393480203
 21
508.8484848484773
 31
0
  0
LINE
  8
1
 62
3
 10
563.741234402796
 20
532.0511751450792
 30
0
 11
567.8635299249929
 21
521.4153012186612
 31
0
  0
LINE
  8
1
 62
3
 10
567.786680665811
 20
532.0511751450792
 30
0
 11
563.741234402796
 21
532.0511751450792
 31
0
  0
LINE
  8
1
 62
3
 10
550.7579565217511
 20
532.0511751450792
 30
0
 11
545.5227638278291
 21
532.0511751450792
 31
0
  0
LINE
  8
1
 62
3
 10
546.1570896584001
 20
513.2727272727973
 30
0
 11
550.7579565217511
 21
532.0511751450792
 31
0
  0
LINE
  8
1
 62
3
 10
551.3922823523519
 20
513.2727272727973
 30
0
 11
546.1570896584001
 21
513.2727272727973
 31
0
  0
LINE
  8
1
 62
3
 10
555.9931492157471
 20
532.0511751450792
 30
0
 11
551.3922823523519
 21
513.2727272727973
 31
0
  0
LINE
  8
1
 62
3
 10
561.22834190967
 20
532.0511751450792
 30
0
 11
555.9931492157471
 21
532.0511751450792
 31
0
  0
LINE
  8
1
 62
3
 10
555.5435009870621
 20
508.8484848484773
 30
0
 11
561.22834190967
 21
532.0511751450792
 31
0
  0
LINE
  8
1
 62
3
 10
539.8379229051411
 20
508.8484848484773
 30
0
 11
555.5435009870621
 21
508.8484848484773
 31
0
  0
LINE
  8
1
 62
3
 10
545.5227638278291
 20
532.0511751450792
 30
0
 11
539.8379229051411
 21
508.8484848484773
 31
0
  0
LINE
  8
1
 62
3
 10
538.1811290032001
 20
543.1117812056623
 30
0
 11
527.6184048142591
 21
500.0000000000002
 31
0
  0
LINE
  8
1
 62
3
 10
544.044544820468
 20
543.1117812056623
 30
0
 11
538.1811290032001
 21
543.1117812056623
 31
0
  0
LINE
  8
1
 62
3
 10
534.999384314377
 20
506.1939393939101
 30
0
 11
544.044544820468
 21
543.1117812056623
 31
0
  0
LINE
  8
1
 62
3
 10
399.8797030808621
 20
500.0000000000002
 30
0
 11
407.732492121917
 21
532.0511751450792
 31
0
  0
LINE
  8
1
 62
3
 10
407.732492121917
 20
532.0511751450792
 30
0
 11
414.0147233546149
 21
532.0511751450792
 31
0
  0
LINE
  8
1
 62
3
 10
414.0147233546149
 20
532.0511751450792
 30
0
 11
407.245908372925
 21
504.4242424241822
 31
0
  0
LINE
  8
1
 62
3
 10
407.245908372925
 20
504.4242424241822
 30
0
 11
412.4811010668041
 21
504.4242424241822
 31
0
  0
LINE
  8
1
 62
3
 10
412.4811010668041
 20
504.4242424241822
 30
0
 11
420.604883622686
 21
537.5814781754052
 31
0
  0
LINE
  8
1
 62
3
 10
420.604883622686
 20
537.5814781754052
 30
0
 11
402.9137877781529
 21
537.5814781754052
 31
0
  0
LINE
  8
1
 62
3
 10
402.9137877781529
 20
537.5814781754052
 30
0
 11
404.268755352138
 21
543.1117812056623
 31
0
  0
LINE
  8
1
 62
3
 10
404.268755352138
 20
543.1117812056623
 30
0
 11
428.24208242943
 21
543.1117812056623
 31
0
  0
LINE
  8
1
 62
3
 10
428.24208242943
 20
543.1117812056623
 30
0
 11
417.6793582405101
 21
500.0000000000002
 31
0
  0
LINE
  8
1
 62
3
 10
417.6793582405101
 20
500.0000000000002
 30
0
 11
399.8797030808621
 21
500.0000000000002
 31
0
  0
LINE
  8
1
 62
3
 10
421.8675123956371
 20
500.0000000000002
 30
0
 11
429.7203014366301
 21
532.0511751450792
 31
0
  0
LINE
  8
1
 62
3
 10
429.7203014366301
 20
532.0511751450792
 30
0
 11
436.0025326694399
 21
532.0511751450792
 31
0
  0
LINE
  8
1
 62
3
 10
436.0025326694399
 20
532.0511751450792
 30
0
 11
429.2337176876449
 21
504.4242424241822
 31
0
  0
LINE
  8
1
 62
3
 10
429.2337176876449
 20
504.4242424241822
 30
0
 11
434.468910381629
 21
504.4242424241822
 31
0
  0
LINE
  8
1
 62
3
 10
434.468910381629
 20
504.4242424241822
 30
0
 11
441.237725363435
 21
532.0511751450792
 31
0
  0
LINE
  8
1
 62
3
 10
439.6671675552261
 20
500.0000000000002
 30
0
 11
421.8675123956371
 21
500.0000000000002
 31
0
  0
LINE
  8
1
 62
3
 10
441.237725363435
 20
532.0511751450792
 30
0
 11
447.519956596241
 21
532.0511751450792
 31
0
  0
LINE
  8
1
 62
3
 10
447.519956596241
 20
532.0511751450792
 30
0
 11
439.6671675552261
 21
500.0000000000002
 31
0
  0
LINE
  8
1
 62
3
 10
468.4607273721761
 20
532.0511751450792
 30
0
 11
451.7081107514041
 21
532.0511751450792
 31
0
  0
LINE
  8
1
 62
3
 10
451.7081107514041
 20
532.0511751450792
 30
0
 11
447.107243888013
 21
513.2727272727973
 31
0
  0
LINE
  8
1
 62
3
 10
447.107243888013
 20
513.2727272727973
 30
0
 11
457.577629275979
 21
513.2727272727973
 31
0
  0
LINE
  8
1
 62
3
 10
457.577629275979
 20
513.2727272727973
 30
0
 11
455.40968115756
 21
504.4242424241822
 31
0
  0
LINE
  8
1
 62
3
 10
455.40968115756
 20
504.4242424241822
 30
0
 11
444.9392957696491
 21
504.4242424241822
 31
0
  0
LINE
  8
1
 62
3
 10
444.9392957696491
 20
504.4242424241822
 30
0
 11
443.855321710342
 21
500.0000000000002
 31
0
  0
LINE
  8
1
 62
3
 10
443.855321710342
 20
500.0000000000002
 30
0
 11
460.6079383311651
 21
500.0000000000002
 31
0
  0
LINE
  8
1
 62
3
 10
460.6079383311651
 20
500.0000000000002
 30
0
 11
464.943834568089
 21
517.6969696969534
 31
0
  0
LINE
  8
1
 62
3
 10
464.943834568089
 20
517.6969696969534
 30
0
 11
454.473449180025
 21
517.6969696969534
 31
0
  0
LINE
  8
1
 62
3
 10
454.473449180025
 20
517.6969696969534
 30
0
 11
456.906367925038
 21
527.6269327208393
 31
0
  0
LINE
  8
1
 62
3
 10
456.906367925038
 20
527.6269327208393
 30
0
 11
467.3767533130181
 21
527.6269327208393
 31
0
  0
LINE
  8
1
 62
3
 10
467.3767533130181
 20
527.6269327208393
 30
0
 11
468.4607273721761
 21
532.0511751450792
 31
0
  0
LINE
  8
1
 62
3
 10
486.691563000184
 20
520.9905690844132
 30
0
 11
489.4014981481141
 21
532.0511751450792
 31
0
  0
LINE
  8
1
 62
3
 10
489.4014981481141
 20
532.0511751450792
 30
0
 11
472.648881527394
 21
532.0511751450792
 31
0
  0
LINE
  8
1
 62
3
 10
472.648881527394
 20
532.0511751450792
 30
0
 11
464.7960924864001
 21
500.0000000000002
 31
0
  0
LINE
  8
1
 62
3
 10
464.7960924864001
 20
500.0000000000002
 30
0
 11
481.5487091071541
 21
500.0000000000002
 31
0
  0
LINE
  8
1
 62
3
 10
481.5487091071541
 20
500.0000000000002
 30
0
 11
484.2586442551281
 21
511.0606060606083
 31
0
  0
LINE
  8
1
 62
3
 10
484.2586442551281
 20
511.0606060606083
 30
0
 11
477.97641302234
 21
511.0606060606083
 31
0
  0
LINE
  8
1
 62
3
 10
477.97641302234
 20
511.0606060606083
 30
0
 11
476.3504519335529
 21
504.4242424241822
 31
0
  0
LINE
  8
1
 62
3
 10
476.3504519335529
 20
504.4242424241822
 30
0
 11
472.16229777835
 21
504.4242424241822
 31
0
  0
LINE
  8
1
 62
3
 10
472.16229777835
 20
504.4242424241822
 30
0
 11
477.8471387009799
 21
527.6269327208393
 31
0
  0
LINE
  8
1
 62
3
 10
477.8471387009799
 20
527.6269327208393
 30
0
 11
482.035292856172
 21
527.6269327208393
 31
0
  0
LINE
  8
1
 62
3
 10
482.035292856172
 20
527.6269327208393
 30
0
 11
480.409331767378
 21
520.9905690844132
 31
0
  0
LINE
  8
1
 62
3
 10
480.409331767378
 20
520.9905690844132
 30
0
 11
486.691563000184
 21
520.9905690844132
 31
0
  0
LINE
  8
1
 62
3
 10
485.736863262335
 20
500.0000000000002
 30
0
 11
492.019094495123
 21
500.0000000000002
 31
0
  0
LINE
  8
1
 62
3
 10
502.4894798831981
 20
500.0000000000002
 30
0
 11
510.3422689242129
 21
532.0511751450792
 31
0
  0
LINE
  8
1
 62
3
 10
496.2072486503009
 20
500.0000000000002
 30
0
 11
499.5916561411959
 21
513.8134663603412
 31
0
  0
LINE
  8
1
 62
3
 10
492.019094495123
 20
500.0000000000002
 30
0
 11
495.403501986008
 21
513.8134663603412
 31
0
  0
LINE
  8
1
 62
3
 10
493.589652303328
 20
532.0511751450792
 30
0
 11
485.736863262335
 21
500.0000000000002
 31
0
  0
LINE
  8
1
 62
3
 10
510.3422689242129
 20
532.0511751450792
 30
0
 11
504.0600376912971
 21
532.0511751450792
 31
0
  0
LINE
  8
1
 62
3
 10
506.677634038324
 20
500.0000000000002
 30
0
 11
523.4302506591321
 21
500.0000000000002
 31
0
  0
LINE
  8
1
 62
3
 10
518.2319934854299
 20
504.4242424241822
 30
0
 11
514.0438393303291
 21
504.4242424241822
 31
0
  0
LINE
  8
1
 62
3
 10
514.5304230793211
 20
532.0511751450792
 30
0
 11
506.677634038324
 21
500.0000000000002
 31
0
  0
LINE
  8
1
 62
3
 10
514.0438393303291
 20
504.4242424241822
 30
0
 11
519.728680252904
 21
527.6269327208393
 31
0
  0
LINE
  8
1
 62
3
 10
531.283039700151
 20
532.0511751450792
 30
0
 11
514.5304230793211
 21
532.0511751450792
 31
0
  0
LINE
  8
1
 62
3
 10
519.728680252904
 20
527.6269327208393
 30
0
 11
523.9168344081541
 21
527.6269327208393
 31
0
  0
LINE
  8
1
 62
3
 10
523.9168344081541
 20
527.6269327208393
 30
0
 11
518.2319934854299
 21
504.4242424241822
 31
0
  0
LINE
  8
1
 62
3
 10
531.283039700151
 20
532.0511751450792
 30
0
 11
523.4302506591321
 21
500.0000000000002
 31
0
  0
LINE
  8
1
 62
3
 10
499.8718835361931
 20
532.0511751450792
 30
0
 11
493.589652303328
 21
532.0511751450792
 31
0
  0
LINE
  8
1
 62
3
 10
496.2072486503009
 20
500.0000000000002
 30
0
 11
502.4894798831981
 21
500.0000000000002
 31
0
  0
LINE
  8
1
 62
3
 10
495.403501986008
 20
513.8134663603412
 30
0
 11
499.5916561411959
 21
513.8134663603412
 31
0
  0
LINE
  8
1
 62
3
 10
496.4874760451771
 20
518.2377087845274
 30
0
 11
500.675630200416
 21
518.2377087845274
 31
0
  0
LINE
  8
1
 62
3
 10
496.4874760451771
 20
518.2377087845274
 30
0
 11
499.8718835361931
 21
532.0511751450792
 31
0
  0
LINE
  8
1
 62
3
 10
500.675630200416
 20
518.2377087845274
 30
0
 11
504.0600376912971
 21
532.0511751450792
 31
0
  0
LINE
  8
1
 62
3
 10
465.6446062317471
 20
548.7622048583321
 30
0
 11
464.9125234627991
 21
547.9784478723633
 31
0
  0
LINE
  8
1
 62
3
 10
465.20792655018
 20
546.9798958107822
 30
0
 11
464.9125234627991
 21
547.9784478723633
 31
0
  0
ARC
  8
1
 62
3
 10
573.3942898724581
 20
549.3622336822261
 30
0
 40
1.39187009132817
 50
358.7013873342734
 51
66.54486649404552
  0
ARC
  8
1
 62
3
 10
572.6688966859681
 20
549.0530393898223
 30
0
 40
1.155889798231655
 50
0.9850581704851609
 51
82.91825463293205
  0
ARC
  8
1
 62
3
 10
572.744079324164
 20
552.2640259305513
 30
0
 40
1.257687287767243
 50
285.1995809529428
 51
80.9313952387881
  0
ARC
  8
1
 62
3
 10
572.822397150178
 20
552.3039199213813
 30
0
 40
2.00979800886174
 50
304.0700115354277
 51
86.29788871825882
  0
CIRCLE
  8
1
 62
3
 10
572.615578318799
 20
550.8787878787553
 30
0
 40
5.530127989695984
  0
CIRCLE
  8
1
 62
3
 10
572.615578318799
 20
550.8787878787553
 30
0
 40
5.972862778753957
  0
ENDBLK
  8
0
  0
BLOCK
  8
0
  2
WANNE_PORTOFINO_115
 70
0
 10
601.3288259999999
 20
-105.757901
 30
0
  0
POLYLINE
  8
0
 62
7
 66
1
 70
1
  0
VERTEX
  8
GEOMETRIE
 10
976.0038979999999
 20
79.99976500000003
 30
0
  0
VERTEX
  8
GEOMETRIE
 10
975.963898
 20
79.65676499999972
 30
0
  0
VERTEX
  8
GEOMETRIE
 10
975.8738980000001
 20
79.31376499999988
 30
0
  0
VERTEX
  8
GEOMETRIE
 10
975.713898
 20
78.97276499999998
 30
0
  0
VERTEX
  8
GEOMETRIE
 10
975.5038979999999
 20
78.63476499999979
 30
0
  0
VERTEX
  8
GEOMETRIE
 10
975.223898
 20
78.298765
 30
0
  0
VERTEX
  8
GEOMETRIE
 10
974.883898
 20
77.96776499999987
 30
0
  0
VERTEX
  8
GEOMETRIE
 10
974.483898
 20
77.64176499999985
 30
0
  0
VERTEX
  8
GEOMETRIE
 10
974.0238979999999
 20
77.32076499999994
 30
0
  0
VERTEX
  8
GEOMETRIE
 10
973.5038979999999
 20
77.00676500000009
 30
0
  0
VERTEX
  8
GEOMETRIE
 10
972.933898
 20
76.69976499999984
 30
0
  0
VERTEX
  8
GEOMETRIE
 10
972.3038979999999
 20
76.40176499999961
 30
0
  0
VERTEX
  8
GEOMETRIE
 10
971.6138980000001
 20
76.1107649999999
 30
0
  0
VERTEX
  8
GEOMETRIE
 10
970.883898
 20
75.82976499999995
 30
0
  0
VERTEX
  8
GEOMETRIE
 10
970.0938980000001
 20
75.55876499999977
 30
0
  0
VERTEX
  8
GEOMETRIE
 10
969.2638979999999
 20
75.298765
 30
0
  0
VERTEX
  8
GEOMETRIE
 10
968.383898
 20
75.04976499999975
 30
0
  0
VERTEX
  8
GEOMETRIE
 10
967.463898
 20
74.81376499999988
 30
0
  0
VERTEX
  8
GEOMETRIE
 10
966.4938979999999
 20
74.58876499999997
 30
0
  0
VERTEX
  8
GEOMETRIE
 10
965.483898
 20
74.37776499999973
 30
0
  0
VERTEX
  8
GEOMETRIE
 10
964.443898
 20
74.17976499999986
 30
0
  0
VERTEX
  8
GEOMETRIE
 10
963.3638980000001
 20
73.99576499999967
 30
0
  0
VERTEX
  8
GEOMETRIE
 10
962.2538979999999
 20
73.8267649999998
 30
0
  0
VERTEX
  8
GEOMETRIE
 10
961.1138980000001
 20
73.67176500000005
 30
0
  0
VERTEX
  8
GEOMETRIE
 10
959.953898
 20
73.53276499999993
 30
0
  0
VERTEX
  8
GEOMETRIE
 10
958.7638979999999
 20
73.40876500000013
 30
0
  0
VERTEX
  8
GEOMETRIE
 10
957.5438979999999
 20
73.30176499999971
 30
0
  0
VERTEX
  8
GEOMETRIE
 10
956.3138980000001
 20
73.20976499999961
 30
0
  0
VERTEX
  8
GEOMETRIE
 10
955.0738980000001
 20
73.13476499999979
 30
0
  0
VERTEX
  8
GEOMETRIE
 10
953.8138980000001
 20
73.07576499999959
 30
0
  0
VERTEX
  8
GEOMETRIE
 10
952.5438979999999
 20
73.03376500000013
 30
0
  0
VERTEX
  8
GEOMETRIE
 10
951.2738979999999
 20
73.00876499999959
 30
0
  0
VERTEX
  8
GEOMETRIE
 10
950.0038979999999
 20
72.99976500000003
 30
0
  0
VERTEX
  8
GEOMETRIE
 10
948.723898
 20
73.00876499999959
 30
0
  0
VERTEX
  8
GEOMETRIE
 10
947.453898
 20
73.03376500000013
 30
0
  0
VERTEX
  8
GEOMETRIE
 10
946.183898
 20
73.07576499999959
 30
0
  0
VERTEX
  8
GEOMETRIE
 10
944.923898
 20
73.13476499999979
 30
0
  0
VERTEX
  8
GEOMETRIE
 10
943.683898
 20
73.20976499999961
 30
0
  0
VERTEX
  8
GEOMETRIE
 10
942.453898
 20
73.30176499999971
 30
0
  0
VERTEX
  8
GEOMETRIE
 10
941.2438979999999
 20
73.40876500000013
 30
0
  0
VERTEX
  8
GEOMETRIE
 10
940.0538979999999
 20
73.53276499999993
 30
0
  0
VERTEX
  8
GEOMETRIE
 10
938.883898
 20
73.67176500000005
 30
0
  0
VERTEX
  8
GEOMETRIE
 10
937.7438979999999
 20
73.8267649999998
 30
0
  0
VERTEX
  8
GEOMETRIE
 10
936.633898
 20
73.99576499999967
 30
0
  0
VERTEX
  8
GEOMETRIE
 10
935.5538979999999
 20
74.17976499999986
 30
0
  0
VERTEX
  8
GEOMETRIE
 10
934.5138979999999
 20
74.37776499999973
 30
0
  0
VERTEX
  8
GEOMETRIE
 10
933.5038979999999
 20
74.58876499999997
 30
0
  0
VERTEX
  8
GEOMETRIE
 10
932.5438979999999
 20
74.81376499999988
 30
0
  0
VERTEX
  8
GEOMETRIE
 10
931.6138980000001
 20
75.04976499999975
 30
0
  0
VERTEX
  8
GEOMETRIE
 10
930.733898
 20
75.298765
 30
0
  0
VERTEX
  8
GEOMETRIE
 10
929.903898
 20
75.55876499999977
 30
0
  0
VERTEX
  8
GEOMETRIE
 10
929.1138980000001
 20
75.82976499999995
 30
0
  0
VERTEX
  8
GEOMETRIE
 10
928.383898
 20
76.1107649999999
 30
0
  0
VERTEX
  8
GEOMETRIE
 10
927.703898
 20
76.40176499999961
 30
0
  0
VERTEX
  8
GEOMETRIE
 10
927.0738980000001
 20
76.69976499999984
 30
0
  0
VERTEX
  8
GEOMETRIE
 10
926.4938979999999
 20
77.00676500000009
 30
0
  0
VERTEX
  8
GEOMETRIE
 10
925.983898
 20
77.32076499999994
 30
0
  0
VERTEX
  8
GEOMETRIE
 10
925.5238979999999
 20
77.64176499999985
 30
0
  0
VERTEX
  8
GEOMETRIE
 10
925.1238980000001
 20
77.96776499999987
 30
0
  0
VERTEX
  8
GEOMETRIE
 10
924.7838979999999
 20
78.298765
 30
0
  0
VERTEX
  8
GEOMETRIE
 10
924.5038979999999
 20
78.63476499999979
 30
0
  0
VERTEX
  8
GEOMETRIE
 10
924.2838979999999
 20
78.97276499999998
 30
0
  0
VERTEX
  8
GEOMETRIE
 10
924.1238980000001
 20
79.31376499999988
 30
0
  0
VERTEX
  8
GEOMETRIE
 10
924.0338979999999
 20
79.65676499999972
 30
0
  0
VERTEX
  8
GEOMETRIE
 10
924.0038979999999
 20
79.99976500000003
 30
0
  0
VERTEX
  8
GEOMETRIE
 10
924.0338979999999
 20
80.34376499999962
 30
0
  0
VERTEX
  8
GEOMETRIE
 10
924.1238980000001
 20
80.68576499999972
 30
0
  0
VERTEX
  8
GEOMETRIE
 10
924.2838979999999
 20
81.02676499999961
 30
0
  0
VERTEX
  8
GEOMETRIE
 10
924.5038979999999
 20
81.36576500000001
 30
0
  0
VERTEX
  8
GEOMETRIE
 10
924.7838979999999
 20
81.70076499999959
 30
0
  0
VERTEX
  8
GEOMETRIE
 10
925.1238980000001
 20
82.03176499999972
 30
0
  0
VERTEX
  8
GEOMETRIE
 10
925.5238979999999
 20
82.35776499999975
 30
0
  0
VERTEX
  8
GEOMETRIE
 10
925.983898
 20
82.67876499999966
 30
0
  0
VERTEX
  8
GEOMETRIE
 10
926.4938979999999
 20
82.99276499999996
 30
0
  0
VERTEX
  8
GEOMETRIE
 10
927.0738980000001
 20
83.29976499999975
 30
0
  0
VERTEX
  8
GEOMETRIE
 10
927.703898
 20
83.59876499999973
 30
0
  0
VERTEX
  8
GEOMETRIE
 10
928.383898
 20
83.88876499999969
 30
0
  0
VERTEX
  8
GEOMETRIE
 10
929.1138980000001
 20
84.16976499999964
 30
0
  0
VERTEX
  8
GEOMETRIE
 10
929.903898
 20
84.44076499999983
 30
0
  0
VERTEX
  8
GEOMETRIE
 10
930.733898
 20
84.70076499999959
 30
0
  0
VERTEX
  8
GEOMETRIE
 10
931.6138980000001
 20
84.94976499999984
 30
0
  0
VERTEX
  8
GEOMETRIE
 10
932.5438979999999
 20
85.18676499999992
 30
0
  0
VERTEX
  8
GEOMETRIE
 10
933.5038979999999
 20
85.41076499999963
 30
0
  0
VERTEX
  8
GEOMETRIE
 10
934.5138979999999
 20
85.62276500000007
 30
0
  0
VERTEX
  8
GEOMETRIE
 10
935.5538979999999
 20
85.82076499999994
 30
0
  0
VERTEX
  8
GEOMETRIE
 10
936.633898
 20
86.00376499999993
 30
0
  0
VERTEX
  8
GEOMETRIE
 10
937.7438979999999
 20
86.173765
 30
0
  0
VERTEX
  8
GEOMETRIE
 10
938.883898
 20
86.327765
 30
0
  0
VERTEX
  8
GEOMETRIE
 10
940.0538979999999
 20
86.46676500000012
 30
0
  0
VERTEX
  8
GEOMETRIE
 10
941.2438979999999
 20
86.59076499999992
 30
0
  0
VERTEX
  8
GEOMETRIE
 10
942.453898
 20
86.69876500000009
 30
0
  0
VERTEX
  8
GEOMETRIE
 10
943.683898
 20
86.78976499999999
 30
0
  0
VERTEX
  8
GEOMETRIE
 10
944.923898
 20
86.86576500000001
 30
0
  0
VERTEX
  8
GEOMETRIE
 10
946.183898
 20
86.923765
 30
0
  0
VERTEX
  8
GEOMETRIE
 10
947.453898
 20
86.96676500000012
 30
0
  0
VERTEX
  8
GEOMETRIE
 10
948.723898
 20
86.99176499999976
 30
0
  0
VERTEX
  8
GEOMETRIE
 10
950.0038979999999
 20
86.99976500000003
 30
0
  0
VERTEX
  8
GEOMETRIE
 10
951.2738979999999
 20
86.99176499999976
 30
0
  0
VERTEX
  8
GEOMETRIE
 10
952.5438979999999
 20
86.96676500000012
 30
0
  0
VERTEX
  8
GEOMETRIE
 10
953.8138980000001
 20
86.923765
 30
0
  0
VERTEX
  8
GEOMETRIE
 10
955.0738980000001
 20
86.86576500000001
 30
0
  0
VERTEX
  8
GEOMETRIE
 10
956.3138980000001
 20
86.78976499999999
 30
0
  0
VERTEX
  8
GEOMETRIE
 10
957.5438979999999
 20
86.69876500000009
 30
0
  0
VERTEX
  8
GEOMETRIE
 10
958.7638979999999
 20
86.59076499999992
 30
0
  0
VERTEX
  8
GEOMETRIE
 10
959.953898
 20
86.46676500000012
 30
0
  0
VERTEX
  8
GEOMETRIE
 10
961.1138980000001
 20
86.327765
 30
0
  0
VERTEX
  8
GEOMETRIE
 10
962.2538979999999
 20
86.173765
 30
0
  0
VERTEX
  8
GEOMETRIE
 10
963.3638980000001
 20
86.00376499999993
 30
0
  0
VERTEX
  8
GEOMETRIE
 10
964.443898
 20
85.82076499999994
 30
0
  0
VERTEX
  8
GEOMETRIE
 10
965.483898
 20
85.62276500000007
 30
0
  0
VERTEX
  8
GEOMETRIE
 10
966.4938979999999
 20
85.41076499999963
 30
0
  0
VERTEX
  8
GEOMETRIE
 10
967.463898
 20
85.18676499999992
 30
0
  0
VERTEX
  8
GEOMETRIE
 10
968.383898
 20
84.94976499999984
 30
0
  0
VERTEX
  8
GEOMETRIE
 10
969.2638979999999
 20
84.70076499999959
 30
0
  0
VERTEX
  8
GEOMETRIE
 10
970.0938980000001
 20
84.44076499999983
 30
0
  0
VERTEX
  8
GEOMETRIE
 10
970.883898
 20
84.16976499999964
 30
0
  0
VERTEX
  8
GEOMETRIE
 10
971.6138980000001
 20
83.88876499999969
 30
0
  0
VERTEX
  8
GEOMETRIE
 10
972.3038979999999
 20
83.59876499999973
 30
0
  0
VERTEX
  8
GEOMETRIE
 10
972.933898
 20
83.29976499999975
 30
0
  0
VERTEX
  8
GEOMETRIE
 10
973.5038979999999
 20
82.99276499999996
 30
0
  0
VERTEX
  8
GEOMETRIE
 10
974.0238979999999
 20
82.67876499999966
 30
0
  0
VERTEX
  8
GEOMETRIE
 10
974.483898
 20
82.35776499999975
 30
0
  0
VERTEX
  8
GEOMETRIE
 10
974.883898
 20
82.03176499999972
 30
0
  0
VERTEX
  8
GEOMETRIE
 10
975.223898
 20
81.70076499999959
 30
0
  0
VERTEX
  8
GEOMETRIE
 10
975.5038979999999
 20
81.36576500000001
 30
0
  0
VERTEX
  8
GEOMETRIE
 10
975.713898
 20
81.02676499999961
 30
0
  0
VERTEX
  8
GEOMETRIE
 10
975.8738980000001
 20
80.68576499999972
 30
0
  0
VERTEX
  8
GEOMETRIE
 10
975.963898
 20
80.34376499999962
 30
0
  0
VERTEX
  8
GEOMETRIE
 10
976.0038979999999
 20
79.99976500000003
 30
0
  0
SEQEND
  8
GEOMETRIE
  0
LINE
  8
GEOMETRIE
 62
7
 10
1450
 20
0
 30
0
 11
450
 21
0
 31
0
  0
LINE
  8
GEOMETRIE
 62
7
 10
1450
 20
70
 30
0
 11
450
 21
70
 31
0
  0
LINE
  8
HILFSLINIEN
 62
7
 10
1254.030639
 20
106.5
 30
0
 11
645.9693620000001
 21
106.5
 31
0
  0
LINE
  8
HILFSLINIEN
 62
7
 10
645.9693620000001
 20
793.5
 30
0
 11
1254.030639
 21
793.5
 31
0
  0
LINE
  8
GEOMETRIE
 62
7
 10
450
 20
830
 30
0
 11
1450
 21
830
 31
0
  0
LINE
  8
GEOMETRIE
 62
7
 10
450
 20
900
 30
0
 11
1450
 21
900
 31
0
  0
LINE
  8
MITTELLINIEN
 62
3
  6
DASHDOT
 10
1013.989954999998
 20
245
 30
0
 11
884.3219809999871
 21
245
 31
0
  0
LINE
  8
MITTELLINIEN
 62
3
  6
DASHDOT
 10
950
 20
308.989954999999
 30
0
 11
950
 21
179.3219809999991
 31
0
  0
ARC
  8
GEOMETRIE
 62
7
 10
450
 20
450
 30
0
 40
450
 50
90
 51
180
  0
ARC
  8
GEOMETRIE
 62
7
 10
450
 20
450
 30
0
 40
380
 50
90
 51
180
  0
ARC
  8
GEOMETRIE
 62
7
 10
1450
 20
450
 30
0
 40
380
 50
270
 51
0
  0
ARC
  8
GEOMETRIE
 62
7
 10
1450
 20
450
 30
0
 40
450
 50
270
 51
0
  0
ARC
  8
GEOMETRIE
 62
7
 10
450
 20
450
 30
0
 40
450
 50
180
 51
270
  0
ARC
  8
GEOMETRIE
 62
7
 10
450
 20
450
 30
0
 40
380
 50
180
 51
270
  0
ARC
  8
HILFSLINIEN
 62
7
 10
645.9693620000001
 20
450
 30
0
 40
343.5
 50
90
 51
270
  0
ARC
  8
HILFSLINIEN
 62
7
 10
1254.030639
 20
450
 30
0
 40
343.5
 50
270
 51
90
  0
ARC
  8
GEOMETRIE
 62
7
 10
1450
 20
450
 30
0
 40
380
 50
0
 51
90
  0
ARC
  8
GEOMETRIE
 62
7
 10
1450
 20
450
 30
0
 40
450
 50
0
 51
90
  0
CIRCLE
  8
WANNE
 62
7
 10
949.9999999999941
 20
245
 30
0
 40
26
  0
CIRCLE
  8
WANNE
 62
7
 10
949.9999999999941
 20
245
 30
0
 40
45
  0
ENDBLK
  8
0
  0
ENDSEC
  0
SECTION
  2
ENTITIES
  0
TEXT
  8
1
 62
2
 10
399.8797030808621
 20
365.0000000000002
 30
0
 40
35
  1
PORTOFINO 115
 41
0.5993999999999999
  0
TEXT
  8
1
 62
3
 10
999.8786697010399
 20
295.0000000000005
 30
0
 40
35
  1
Ö 52
 41
0.5993999999999999
  0
INSERT
  8
0
  2
DLX
 10
0
 20
0
 30
0
  0
INSERT
  8
0
  2
WANNE_PORTOFINO_115
 10
601.3288259999999
 20
-105.757901
 30
0
  0
ENDSEC
  0
EOF
