  0
SECTION
  2
HEADER
  9
$ACADVER
  1
AC1009
  9
$INSBASE
 10
0
 20
0
  9
$EXTMIN
 10
0
 20
0
  9
$EXTMAX
 10
1900.000000000001
 20
655
  9
$LIMMIN
 10
0
 20
0
  9
$LIMMAX
 10
1900.000000000001
 20
655
  9
$VIEWCTR
 10
10
 20
10
  9
$VIEWSIZE
 40
10
  9
$SNAPMODE
 70
0
  9
$SNAPUNIT
 10
1
 20
1
  9
$SNAPBASE
 10
0
 20
0
  9
$SNAPANG
 50
0
  9
$SNAPSTYLE
 70
0
  9
$SNAPISOPAIR
 70
0
  9
$GRIDMODE
 70
0
  9
$GRIDUNIT
 10
0
 20
0
  9
$ORTHOMODE
 70
0
  9
$REGENMODE
 70
1
  9
$FILLMODE
 70
1
  9
$QTEXTMODE
 70
0
  9
$DRAGMODE
 70
2
  9
$LTSCALE
 40
1
  9
$OSMODE
 70
0
  9
$ATTMODE
 70
1
  9
$TEXTSIZE
 40
3.5
  9
$TRACEWID
 40
0.5
  9
$TEXTSTYLE
  7
STANDARD
  9
$CLAYER
  8
0
  9
$CELTYPE
  6
BYLAYER
  9
$CECOLOR
 62
256
  9
$DIMSCALE
 40
1
  9
$DIMASZ
 40
0.18
  9
$DIMEXO
 40
0.0625
  9
$DIMDLI
 40
0.38
  9
$DIMRND
 40
0
  9
$DIMDLE
 40
0
  9
$DIMEXE
 40
0.18
  9
$DIMTP
 40
0
  9
$DIMTM
 40
0
  9
$DIMTXT
 40
0.18
  9
$DIMCEN
 40
0.09
  9
$DIMTSZ
 40
0
  9
$DIMTOL
 70
0
  9
$DIMLIM
 70
0
  9
$DIMTIH
 70
1
  9
$DIMTOH
 70
1
  9
$DIMSE1
 70
0
  9
$DIMSE2
 70
0
  9
$DIMTAD
 70
0
  9
$DIMZIN
 70
0
  9
$DIMBLK
  1

  9
$DIMASO
 70
1
  9
$DIMSHO
 70
1
  9
$DIMPOST
  1

  9
$DIMAPOST
  1

  9
$DIMALT
 70
0
  9
$DIMALTD
 70
2
  9
$DIMALTF
 40
25.4
  9
$DIMLFAC
 40
1
  9
$DIMTOFL
 70
0
  9
$DIMTVP
 40
0
  9
$DIMTIX
 70
0
  9
$DIMSOXD
 70
0
  9
$DIMSAH
 70
0
  9
$DIMBLK1
  1

  9
$DIMBLK2
  1

  9
$DIMSTYLE
  2
*UNNAMED
  9
$DIMCLRD
 70
0
  9
$DIMCLRE
 70
0
  9
$DIMCLRT
 70
0
  9
$DIMTFAC
 40
1
  9
$DIMGAP
 40
0.09
  9
$LUNITS
 70
2
  9
$LUPREC
 70
4
  9
$AXISMODE
 70
0
  9
$AXISUNIT
 10
0
 20
0
  9
$SKETCHINC
 40
0.1
  9
$FILLETRAD
 40
2
  9
$AUNITS
 70
0
  9
$AUPREC
 70
0
  9
$MENU
  1
ACAD
  9
$ELEVATION
 40
0
  9
$THICKNESS
 40
0
  9
$VIEWDIR
 10
0
 20
0
 30
1
  9
$LIMCHECK
 70
0
  9
$BLIPMODE
 70
1
  9
$CHAMFERA
 40
0
  9
$CHAMFERB
 40
0
  9
$FASTZOOM
 70
1
  9
$SKPOLY
 70
0
  9
$ANGBASE
 50
0
  9
$ANGDIR
 70
0
  9
$PDMODE
 70
0
  9
$PDSIZE
 40
0
  9
$PLINEWID
 40
0
  9
$COORDS
 70
2
  0
ENDSEC
  0
SECTION
  2
TABLES
  0
TABLE
  2
DIMSTYLE
 70
0
  0
ENDTAB
  0
TABLE
  2
LTYPE
 70
9
  0
LTYPE
  2
CONTINUOUS
 70
64
  3
Solid line
 72
65
 73
0
 40
0
  0
LTYPE
  2
BORDER
 70
64
  3
__ __ . __ __ .
 72
65
 73
6
 40
87.50000000000004
 49
25.00000000000001
 49
-12.50000000000001
 49
25.00000000000001
 49
-12.50000000000001
 49
0
 49
-12.50000000000001
  0
LTYPE
  2
CENTER
 70
64
  3
____ _ ____ _
 72
65
 73
4
 40
100
 49
62.50000000000003
 49
-12.50000000000001
 49
12.50000000000001
 49
-12.50000000000001
  0
LTYPE
  2
DASHDOT
 70
64
  3
__ . __ . __ .
 72
65
 73
4
 40
50.00000000000002
 49
25.00000000000001
 49
-12.50000000000001
 49
0
 49
-12.50000000000001
  0
LTYPE
  2
DASHED
 70
64
  3
__ __ __ __ __
 72
65
 73
2
 40
37.50000000000001
 49
25.00000000000001
 49
-12.50000000000001
  0
LTYPE
  2
DIVIDE
 70
64
  3
__ . . __ . . 
 72
65
 73
6
 40
62.50000000000003
 49
25.00000000000001
 49
-12.50000000000001
 49
0
 49
-12.50000000000001
 49
0
 49
-12.50000000000001
  0
LTYPE
  2
DOT
 70
64
  3
..............
 72
65
 73
4
 40
25.00000000000001
 49
0
 49
-12.50000000000001
 49
0
 49
-12.50000000000001
  0
LTYPE
  2
HIDDEN
 70
64
  3
_ _ _ _ _ _ _
 72
65
 73
2
 40
18.75000000000001
 49
12.50000000000001
 49
-6.250000000000003
  0
LTYPE
  2
PHANTOM
 70
64
  3
_____ _ _ _____ _ _ 
 72
65
 73
6
 40
125.0000000000001
 49
62.50000000000003
 49
-12.50000000000001
 49
12.50000000000001
 49
-12.50000000000001
 49
12.50000000000001
 49
-12.50000000000001
  0
ENDTAB
  0
TABLE
  2
LAYER
 70
5
  0
LAYER
  2
MITTELLINIEN
 70
0
 62
7
  6
CONTINUOUS
  0
LAYER
  2
1
 70
0
 62
7
  6
CONTINUOUS
  0
LAYER
  2
WANNE
 70
0
 62
7
  6
CONTINUOUS
  0
LAYER
  2
0
 70
0
 62
7
  6
CONTINUOUS
  0
ENDTAB
  0
TABLE
  2
STYLE
 70
4
  0
STYLE
  2
STANDARD
 70
0
 40
0
 41
1
 50
0
 71
0
 42
3.5
  3
txt
  4

  0
STYLE
  2
SIMPLEX
 70
0
 40
0
 41
1
 50
0
 71
0
 42
3.5
  3
simplex
  4

  0
STYLE
  2
COMPLEX
 70
0
 40
0
 41
1
 50
0
 71
0
 42
3.5
  3
complex
  4

  0
STYLE
  2
ITALIC
 70
0
 40
0
 41
1
 50
0
 71
0
 42
3.5
  3
italic
  4

  0
ENDTAB
  0
TABLE
  2
VIEW
 70
0
  0
ENDTAB
  0
ENDSEC
  0
SECTION
  2
BLOCKS
  0
BLOCK
  8
0
  2
DLX
 70
0
 10
350
 20
330
 30
0
  0
LINE
  8
1
 62
3
 10
521.206636135699
 20
383.505992531278
 30
0
 11
521.206636135699
 21
381.050334541276
 31
0
  0
LINE
  8
1
 62
3
 10
523.062609127785
 20
383.505992531278
 30
0
 11
521.206636135699
 21
383.505992531278
 31
0
  0
LINE
  8
1
 62
3
 10
521.206636135699
 20
381.050334541276
 30
0
 11
523.194119363641
 21
381.050334541276
 31
0
  0
LINE
  8
1
 62
3
 10
521.206636135699
 20
377.4510557882821
 30
0
 11
520.3341884365839
 21
377.4510557882821
 31
0
  0
LINE
  8
1
 62
3
 10
522.931697837317
 20
380.2001112138419
 30
0
 11
521.206636135699
 21
380.2001112138419
 31
0
  0
LINE
  8
1
 62
3
 10
523.9449125772369
 20
377.4510557882821
 30
0
 11
523.9449125772369
 21
379.0729110559
 31
0
  0
LINE
  8
1
 62
3
 10
524.9060993927419
 20
377.4510557882821
 30
0
 11
523.9449125772369
 21
377.4510557882821
 31
0
  0
LINE
  8
1
 62
3
 10
524.9060993927419
 20
379.3306895546259
 30
0
 11
524.9060993927419
 21
377.4510557882821
 31
0
  0
LINE
  8
1
 62
3
 10
522.7761082958239
 20
384.3095239634562
 30
0
 11
523.0724648781759
 21
384.3095239634562
 31
0
  0
LINE
  8
1
 62
3
 10
520.3341884365839
 20
384.3095239634562
 30
0
 11
522.7761082958239
 21
384.3095239634562
 31
0
  0
LINE
  8
1
 62
3
 10
520.3341884365839
 20
377.4510557882821
 30
0
 11
520.3341884365839
 21
384.3095239634562
 31
0
  0
LINE
  8
1
 62
3
 10
521.206636135699
 20
380.2001112138419
 30
0
 11
521.206636135699
 21
377.4510557882821
 31
0
  0
LINE
  8
1
 62
3
 10
476.68540084903
 20
386.3845084783201
 30
0
 11
474.591323771416
 21
386.3845084783201
 31
0
  0
LINE
  8
1
 62
3
 10
473.9754657010669
 20
375.3239024177931
 30
0
 11
476.68540084903
 21
386.3845084783201
 31
0
  0
LINE
  8
1
 62
3
 10
484.445851089087
 20
375.3239024177931
 30
0
 11
473.9754657010669
 21
375.3239024177931
 31
0
  0
LINE
  8
1
 62
3
 10
483.9038640594258
 20
373.1117812056621
 30
0
 11
484.445851089087
 21
375.3239024177931
 31
0
  0
LINE
  8
1
 62
3
 10
471.339401593847
 20
373.1117812056621
 30
0
 11
483.9038640594258
 21
373.1117812056621
 31
0
  0
LINE
  8
1
 62
3
 10
474.591323771416
 20
386.3845084783201
 30
0
 11
471.339401593847
 21
373.1117812056621
 31
0
  0
LINE
  8
1
 62
3
 10
461.144653716558
 20
377.5360236298441
 30
0
 11
464.9003688559239
 21
384.172387266269
 31
0
  0
LINE
  8
1
 62
3
 10
465.9571720012139
 20
384.172387266269
 30
0
 11
464.9003688559239
 21
384.172387266269
 31
0
  0
LINE
  8
1
 62
3
 10
466.4609649630688
 20
377.5360236298441
 30
0
 11
465.9571720012139
 21
384.172387266269
 31
0
  0
LINE
  8
1
 62
3
 10
461.144653716558
 20
377.5360236298441
 30
0
 11
466.4609649630688
 21
377.5360236298441
 31
0
  0
LINE
  8
1
 62
3
 10
458.6408436236638
 20
373.1117812056621
 30
0
 11
456.2620466350929
 21
373.1117812056621
 31
0
  0
LINE
  8
1
 62
3
 10
459.892748670027
 20
375.3239024177931
 30
0
 11
458.6408436236638
 21
373.1117812056621
 31
0
  0
LINE
  8
1
 62
3
 10
466.6288959503909
 20
375.3239024177931
 30
0
 11
459.892748670027
 21
375.3239024177931
 31
0
  0
LINE
  8
1
 62
3
 10
466.7968269376579
 20
373.1117812056621
 30
0
 11
466.6288959503909
 21
375.3239024177931
 31
0
  0
LINE
  8
1
 62
3
 10
468.826509100727
 20
373.1117812056621
 30
0
 11
466.7968269376579
 21
373.1117812056621
 31
0
  0
LINE
  8
1
 62
3
 10
467.818923176965
 20
386.3845084783201
 30
0
 11
468.826509100727
 21
373.1117812056621
 31
0
  0
LINE
  8
1
 62
3
 10
463.77347691399
 20
386.3845084783201
 30
0
 11
467.818923176965
 21
386.3845084783201
 31
0
  0
LINE
  8
1
 62
3
 10
456.2620466350929
 20
373.1117812056621
 30
0
 11
463.77347691399
 21
386.3845084783201
 31
0
  0
LINE
  8
1
 62
3
 10
443.2787687540589
 20
373.1117812056621
 30
0
 11
441.1846916764989
 21
373.1117812056621
 31
0
  0
LINE
  8
1
 62
3
 10
446.0847710509879
 20
384.5644855385979
 30
0
 11
443.2787687540589
 21
373.1117812056621
 31
0
  0
LINE
  8
1
 62
3
 10
446.7253193174979
 20
382.9053946295351
 30
0
 11
446.0847710509879
 21
384.5644855385979
 31
0
  0
LINE
  8
1
 62
3
 10
450.5064756532079
 20
373.1117812056621
 30
0
 11
446.7253193174979
 21
382.9053946295351
 31
0
  0
LINE
  8
1
 62
3
 10
453.7491541419769
 20
373.1117812056621
 30
0
 11
450.5064756532079
 21
373.1117812056621
 31
0
  0
LINE
  8
1
 62
3
 10
457.0010763195969
 20
386.3845084783201
 30
0
 11
453.7491541419769
 21
373.1117812056621
 31
0
  0
LINE
  8
1
 62
3
 10
454.9069992419829
 20
386.3845084783201
 30
0
 11
457.0010763195969
 21
386.3845084783201
 31
0
  0
LINE
  8
1
 62
3
 10
452.0615673366299
 20
374.770872114746
 30
0
 11
454.9069992419829
 21
386.3845084783201
 31
0
  0
LINE
  8
1
 62
3
 10
447.5777294703549
 20
386.3845084783201
 30
0
 11
452.0615673366299
 21
374.770872114746
 31
0
  0
LINE
  8
1
 62
3
 10
444.4366138540139
 20
386.3845084783201
 30
0
 11
447.5777294703549
 21
386.3845084783201
 31
0
  0
LINE
  8
1
 62
3
 10
441.1846916764989
 20
373.1117812056621
 30
0
 11
444.4366138540139
 21
386.3845084783201
 31
0
  0
LINE
  8
1
 62
3
 10
441.923721360898
 20
386.3845084783201
 30
0
 11
439.8296442833339
 21
386.3845084783201
 31
0
  0
LINE
  8
1
 62
3
 10
439.8296442833339
 20
386.3845084783201
 30
0
 11
436.5777221057689
 21
373.1117812056621
 31
0
  0
LINE
  8
1
 62
3
 10
438.671799183329
 20
373.1117812056621
 30
0
 11
441.923721360898
 21
386.3845084783201
 31
0
  0
LINE
  8
1
 62
3
 10
436.5777221057689
 20
373.1117812056621
 30
0
 11
438.671799183329
 21
373.1117812056621
 31
0
  0
LINE
  8
1
 62
3
 10
434.0845019505219
 20
381.739053932891
 30
0
 11
436.1785790280479
 21
381.739053932891
 31
0
  0
LINE
  8
1
 62
3
 10
433.0547265943719
 20
377.5360236298441
 30
0
 11
432.5127395646049
 21
375.3239024177931
 31
0
  0
LINE
  8
1
 62
3
 10
428.8665724389718
 20
377.5360236298441
 30
0
 11
433.0547265943719
 21
377.5360236298441
 31
0
  0
LINE
  8
1
 62
3
 10
429.4085594686189
 20
379.7481448420331
 30
0
 11
428.8665724389718
 21
377.5360236298441
 31
0
  0
LINE
  8
1
 62
3
 10
435.6907907014249
 20
379.7481448420331
 30
0
 11
434.0648296126529
 21
373.1117812056621
 31
0
  0
LINE
  8
1
 62
3
 10
435.6907907014249
 20
379.7481448420331
 30
0
 11
429.4085594686189
 21
379.7481448420331
 31
0
  0
LINE
  8
1
 62
3
 10
424.1364312542755
 20
375.3239024177931
 30
0
 11
426.3043793726031
 21
384.172387266269
 31
0
  0
LINE
  8
1
 62
3
 10
426.3043793726031
 20
384.172387266269
 30
0
 11
434.6806876828999
 21
384.172387266269
 31
0
  0
LINE
  8
1
 62
3
 10
434.6806876828999
 20
384.172387266269
 30
0
 11
434.0845019505219
 21
381.739053932891
 31
0
  0
LINE
  8
1
 62
3
 10
432.5127395646049
 20
375.3239024177931
 30
0
 11
424.1364312542755
 21
375.3239024177931
 31
0
  0
LINE
  8
1
 62
3
 10
434.0648296126529
 20
373.1117812056621
 30
0
 11
421.5003671470404
 21
373.1117812056621
 31
0
  0
LINE
  8
1
 62
3
 10
437.3167517901749
 20
386.3845084783201
 30
0
 11
436.1785790280479
 21
381.739053932891
 31
0
  0
LINE
  8
1
 62
3
 10
424.7522893245841
 20
386.3845084783201
 30
0
 11
437.3167517901749
 21
386.3845084783201
 31
0
  0
LINE
  8
1
 62
3
 10
421.5003671470404
 20
373.1117812056621
 30
0
 11
424.7522893245841
 21
386.3845084783201
 31
0
  0
LINE
  8
1
 62
3
 10
418.9874746540554
 20
373.1117812056621
 30
0
 11
422.2393968314646
 21
386.3845084783201
 31
0
  0
LINE
  8
1
 62
3
 10
416.8933975763357
 20
373.1117812056621
 30
0
 11
418.9874746540554
 21
373.1117812056621
 31
0
  0
LINE
  8
1
 62
3
 10
420.1453197539013
 20
386.3845084783201
 30
0
 11
416.8933975763357
 21
373.1117812056621
 31
0
  0
LINE
  8
1
 62
3
 10
422.2393968314646
 20
386.3845084783201
 30
0
 11
420.1453197539013
 21
386.3845084783201
 31
0
  0
LINE
  8
1
 62
3
 10
403.9101196952979
 20
373.1117812056621
 30
0
 11
404.9940937544088
 21
377.5360236298441
 31
0
  0
LINE
  8
1
 62
3
 10
401.8160426176219
 20
373.1117812056621
 30
0
 11
403.9101196952979
 21
373.1117812056621
 31
0
  0
LINE
  8
1
 62
3
 10
415.3282234693179
 20
376.979895810782
 30
0
 11
414.3805050832052
 21
373.1117812056621
 31
0
  0
LINE
  8
1
 62
3
 10
406.6200548431843
 20
384.172387266269
 30
0
 11
405.5360807840007
 21
379.7481448420331
 31
0
  0
LINE
  8
1
 62
3
 10
414.996363153703
 20
384.172387266269
 30
0
 11
406.6200548431843
 21
384.172387266269
 31
0
  0
LINE
  8
1
 62
3
 10
413.9123890943811
 20
379.7481448420331
 30
0
 11
414.996363153703
 21
384.172387266269
 31
0
  0
LINE
  8
1
 62
3
 10
405.5360807840007
 20
379.7481448420331
 30
0
 11
413.9123890943811
 21
379.7481448420331
 31
0
  0
LINE
  8
1
 62
3
 10
413.3704020649384
 20
377.5360236298441
 30
0
 11
404.9940937544088
 21
377.5360236298441
 31
0
  0
LINE
  8
1
 62
3
 10
412.2864280055655
 20
373.1117812056621
 30
0
 11
413.3704020649384
 21
377.5360236298441
 31
0
  0
LINE
  8
1
 62
3
 10
414.3805050832052
 20
373.1117812056621
 30
0
 11
412.2864280055655
 21
373.1117812056621
 31
0
  0
LINE
  8
1
 62
3
 10
417.632427260738
 20
386.3845084783201
 30
0
 11
415.7649031508845
 21
378.7622048583319
 31
0
  0
LINE
  8
1
 62
3
 10
405.0679647951583
 20
386.3845084783201
 30
0
 11
417.632427260738
 21
386.3845084783201
 31
0
  0
LINE
  8
1
 62
3
 10
405.0679647951583
 20
386.3845084783201
 30
0
 11
401.8160426176219
 21
373.1117812056621
 31
0
  0
LINE
  8
1
 62
3
 10
389.3747517661323
 20
375.3239024177931
 30
0
 11
391.5426998844741
 21
384.172387266269
 31
0
  0
LINE
  8
1
 62
3
 10
391.5426998844741
 20
384.172387266269
 30
0
 11
399.9190081949637
 21
384.172387266269
 31
0
  0
LINE
  8
1
 62
3
 10
399.9190081949637
 20
384.172387266269
 30
0
 11
397.7510600764872
 21
375.3239024177931
 31
0
  0
LINE
  8
1
 62
3
 10
397.7510600764872
 20
375.3239024177931
 30
0
 11
389.3747517661323
 21
375.3239024177931
 31
0
  0
LINE
  8
1
 62
3
 10
399.3031501244914
 20
373.1117812056621
 30
0
 11
386.7386876589662
 21
373.1117812056621
 31
0
  0
LINE
  8
1
 62
3
 10
402.5550723021661
 20
386.3845084783201
 30
0
 11
399.3031501244914
 21
373.1117812056621
 31
0
  0
LINE
  8
1
 62
3
 10
389.9906098364481
 20
386.3845084783201
 30
0
 11
402.5550723021661
 21
386.3845084783201
 31
0
  0
LINE
  8
1
 62
3
 10
386.7386876589662
 20
373.1117812056621
 30
0
 11
389.9906098364481
 21
386.3845084783201
 31
0
  0
LINE
  8
1
 62
3
 10
530.3295031522068
 20
330
 30
0
 11
477.738701733397
 21
330
 31
0
  0
LINE
  8
1
 62
3
 10
527.928830785688
 20
336.1939393939099
 30
0
 11
485.1196812335149
 21
336.1939393939099
 31
0
  0
LINE
  8
1
 62
3
 10
527.928830785688
 20
336.1939393939099
 30
0
 11
530.3295031522068
 21
330
 31
0
  0
LINE
  8
1
 62
3
 10
520.686830708906
 20
354.878917066824
 30
0
 11
517.9069775849489
 21
362.051175145079
 31
0
  0
LINE
  8
1
 62
3
 10
526.284056889192
 20
362.051175145079
 30
0
 11
520.686830708906
 21
354.878917066824
 31
0
  0
LINE
  8
1
 62
3
 10
530.32950315225
 20
362.051175145079
 30
0
 11
526.284056889192
 21
362.051175145079
 31
0
  0
LINE
  8
1
 62
3
 10
522.0292731071679
 20
351.415301218603
 30
0
 11
530.32950315225
 21
362.051175145079
 31
0
  0
LINE
  8
1
 62
3
 10
526.8999712001719
 20
338.848484848477
 30
0
 11
522.0292731071679
 21
351.415301218603
 31
0
  0
LINE
  8
1
 62
3
 10
522.8545249371239
 20
338.848484848477
 30
0
 11
526.8999712001719
 21
338.848484848477
 31
0
  0
LINE
  8
1
 62
3
 10
519.3262692424398
 20
347.951685370502
 30
0
 11
522.8545249371239
 21
338.848484848477
 31
0
  0
LINE
  8
1
 62
3
 10
512.222136662338
 20
338.848484848477
 30
0
 11
519.3262692424398
 21
347.951685370502
 31
0
  0
LINE
  8
1
 62
3
 10
508.1766903993409
 20
338.848484848477
 30
0
 11
512.222136662338
 21
338.848484848477
 31
0
  0
LINE
  8
1
 62
3
 10
517.9838268441308
 20
351.4153012186609
 30
0
 11
508.1766903993409
 21
338.848484848477
 31
0
  0
LINE
  8
1
 62
3
 10
513.8615313219339
 20
362.051175145079
 30
0
 11
517.9838268441308
 21
351.4153012186609
 31
0
  0
LINE
  8
1
 62
3
 10
517.9069775849489
 20
362.051175145079
 30
0
 11
513.8615313219339
 21
362.051175145079
 31
0
  0
LINE
  8
1
 62
3
 10
500.878253440889
 20
362.051175145079
 30
0
 11
495.643060746967
 21
362.051175145079
 31
0
  0
LINE
  8
1
 62
3
 10
496.277386577538
 20
343.2727272727971
 30
0
 11
500.878253440889
 21
362.051175145079
 31
0
  0
LINE
  8
1
 62
3
 10
501.5125792714898
 20
343.2727272727971
 30
0
 11
496.277386577538
 21
343.2727272727971
 31
0
  0
LINE
  8
1
 62
3
 10
506.113446134885
 20
362.051175145079
 30
0
 11
501.5125792714898
 21
343.2727272727971
 31
0
  0
LINE
  8
1
 62
3
 10
511.3486388288079
 20
362.051175145079
 30
0
 11
506.113446134885
 21
362.051175145079
 31
0
  0
LINE
  8
1
 62
3
 10
505.6637979062
 20
338.848484848477
 30
0
 11
511.3486388288079
 21
362.051175145079
 31
0
  0
LINE
  8
1
 62
3
 10
489.958219824279
 20
338.848484848477
 30
0
 11
505.6637979062
 21
338.848484848477
 31
0
  0
LINE
  8
1
 62
3
 10
495.643060746967
 20
362.051175145079
 30
0
 11
489.958219824279
 21
338.848484848477
 31
0
  0
LINE
  8
1
 62
3
 10
488.301425922338
 20
373.1117812056621
 30
0
 11
477.738701733397
 21
330
 31
0
  0
LINE
  8
1
 62
3
 10
494.1648417396059
 20
373.1117812056621
 30
0
 11
488.301425922338
 21
373.1117812056621
 31
0
  0
LINE
  8
1
 62
3
 10
485.1196812335149
 20
336.1939393939099
 30
0
 11
494.1648417396059
 21
373.1117812056621
 31
0
  0
LINE
  8
1
 62
3
 10
350
 20
330
 30
0
 11
357.8527890410551
 21
362.051175145079
 31
0
  0
LINE
  8
1
 62
3
 10
357.8527890410551
 20
362.051175145079
 30
0
 11
364.1350202737522
 21
362.051175145079
 31
0
  0
LINE
  8
1
 62
3
 10
364.1350202737522
 20
362.051175145079
 30
0
 11
357.3662052920627
 21
334.424242424182
 31
0
  0
LINE
  8
1
 62
3
 10
357.3662052920627
 20
334.424242424182
 30
0
 11
362.6013979859417
 21
334.424242424182
 31
0
  0
LINE
  8
1
 62
3
 10
362.6013979859417
 20
334.424242424182
 30
0
 11
370.7251805418237
 21
367.581478175405
 31
0
  0
LINE
  8
1
 62
3
 10
370.7251805418237
 20
367.581478175405
 30
0
 11
353.0340846972904
 21
367.581478175405
 31
0
  0
LINE
  8
1
 62
3
 10
353.0340846972904
 20
367.581478175405
 30
0
 11
354.3890522712754
 21
373.1117812056621
 31
0
  0
LINE
  8
1
 62
3
 10
354.3890522712754
 20
373.1117812056621
 30
0
 11
378.3623793485676
 21
373.1117812056621
 31
0
  0
LINE
  8
1
 62
3
 10
378.3623793485676
 20
373.1117812056621
 30
0
 11
367.799655159648
 21
330
 31
0
  0
LINE
  8
1
 62
3
 10
367.799655159648
 20
330
 30
0
 11
350
 21
330
 31
0
  0
LINE
  8
1
 62
3
 10
371.9878093147745
 20
330
 30
0
 11
379.8405983557677
 21
362.051175145079
 31
0
  0
LINE
  8
1
 62
3
 10
379.8405983557677
 20
362.051175145079
 30
0
 11
386.1228295885776
 21
362.051175145079
 31
0
  0
LINE
  8
1
 62
3
 10
386.1228295885776
 20
362.051175145079
 30
0
 11
379.3540146067826
 21
334.424242424182
 31
0
  0
LINE
  8
1
 62
3
 10
379.3540146067826
 20
334.424242424182
 30
0
 11
384.5892073007672
 21
334.424242424182
 31
0
  0
LINE
  8
1
 62
3
 10
384.5892073007672
 20
334.424242424182
 30
0
 11
391.3580222825731
 21
362.051175145079
 31
0
  0
LINE
  8
1
 62
3
 10
389.7874644743642
 20
330
 30
0
 11
371.9878093147745
 21
330
 31
0
  0
LINE
  8
1
 62
3
 10
391.3580222825731
 20
362.051175145079
 30
0
 11
397.6402535153793
 21
362.051175145079
 31
0
  0
LINE
  8
1
 62
3
 10
397.6402535153793
 20
362.051175145079
 30
0
 11
389.7874644743642
 21
330
 31
0
  0
LINE
  8
1
 62
3
 10
418.581024291314
 20
362.051175145079
 30
0
 11
401.8284076705422
 21
362.051175145079
 31
0
  0
LINE
  8
1
 62
3
 10
401.8284076705422
 20
362.051175145079
 30
0
 11
397.2275408071509
 21
343.2727272727971
 31
0
  0
LINE
  8
1
 62
3
 10
397.2275408071509
 20
343.2727272727971
 30
0
 11
407.6979261951165
 21
343.2727272727971
 31
0
  0
LINE
  8
1
 62
3
 10
407.6979261951165
 20
343.2727272727971
 30
0
 11
405.5299780766982
 21
334.424242424182
 31
0
  0
LINE
  8
1
 62
3
 10
405.5299780766982
 20
334.424242424182
 30
0
 11
395.0595926887872
 21
334.424242424182
 31
0
  0
LINE
  8
1
 62
3
 10
395.0595926887872
 20
334.424242424182
 30
0
 11
393.9756186294799
 21
330
 31
0
  0
LINE
  8
1
 62
3
 10
393.9756186294799
 20
330
 30
0
 11
410.7282352503025
 21
330
 31
0
  0
LINE
  8
1
 62
3
 10
410.7282352503025
 20
330
 30
0
 11
415.0641314872264
 21
347.696969696953
 31
0
  0
LINE
  8
1
 62
3
 10
415.0641314872264
 20
347.696969696953
 30
0
 11
404.5937460991627
 21
347.696969696953
 31
0
  0
LINE
  8
1
 62
3
 10
404.5937460991627
 20
347.696969696953
 30
0
 11
407.0266648441757
 21
357.626932720839
 31
0
  0
LINE
  8
1
 62
3
 10
407.0266648441757
 20
357.626932720839
 30
0
 11
417.4970502321557
 21
357.626932720839
 31
0
  0
LINE
  8
1
 62
3
 10
417.4970502321557
 20
357.626932720839
 30
0
 11
418.581024291314
 21
362.051175145079
 31
0
  0
LINE
  8
1
 62
3
 10
436.8118599193219
 20
350.990569084413
 30
0
 11
439.5217950672519
 21
362.051175145079
 31
0
  0
LINE
  8
1
 62
3
 10
439.5217950672519
 20
362.051175145079
 30
0
 11
422.7691784465314
 21
362.051175145079
 31
0
  0
LINE
  8
1
 62
3
 10
422.7691784465314
 20
362.051175145079
 30
0
 11
414.9163894055382
 21
330
 31
0
  0
LINE
  8
1
 62
3
 10
414.9163894055382
 20
330
 30
0
 11
431.6690060262919
 21
330
 31
0
  0
LINE
  8
1
 62
3
 10
431.6690060262919
 20
330
 30
0
 11
434.378941174266
 21
341.0606060606082
 31
0
  0
LINE
  8
1
 62
3
 10
434.378941174266
 20
341.0606060606082
 30
0
 11
428.0967099414779
 21
341.0606060606082
 31
0
  0
LINE
  8
1
 62
3
 10
428.0967099414779
 20
341.0606060606082
 30
0
 11
426.4707488526909
 21
334.424242424182
 31
0
  0
LINE
  8
1
 62
3
 10
426.4707488526909
 20
334.424242424182
 30
0
 11
422.2825946974881
 21
334.424242424182
 31
0
  0
LINE
  8
1
 62
3
 10
422.2825946974881
 20
334.424242424182
 30
0
 11
427.9674356201178
 21
357.626932720839
 31
0
  0
LINE
  8
1
 62
3
 10
427.9674356201178
 20
357.626932720839
 30
0
 11
432.1555897753099
 21
357.626932720839
 31
0
  0
LINE
  8
1
 62
3
 10
432.1555897753099
 20
357.626932720839
 30
0
 11
430.5296286865159
 21
350.990569084413
 31
0
  0
LINE
  8
1
 62
3
 10
430.5296286865159
 20
350.990569084413
 30
0
 11
436.8118599193219
 21
350.990569084413
 31
0
  0
LINE
  8
1
 62
3
 10
435.8571601814729
 20
330
 30
0
 11
442.1393914142609
 21
330
 31
0
  0
LINE
  8
1
 62
3
 10
452.6097768023359
 20
330
 30
0
 11
460.4625658433508
 21
362.051175145079
 31
0
  0
LINE
  8
1
 62
3
 10
446.3275455694389
 20
330
 30
0
 11
449.7119530603339
 21
343.813466360341
 31
0
  0
LINE
  8
1
 62
3
 10
442.1393914142609
 20
330
 30
0
 11
445.5237989051459
 21
343.813466360341
 31
0
  0
LINE
  8
1
 62
3
 10
443.7099492224659
 20
362.051175145079
 30
0
 11
435.8571601814729
 21
330
 31
0
  0
LINE
  8
1
 62
3
 10
460.4625658433508
 20
362.051175145079
 30
0
 11
454.1803346104349
 21
362.051175145079
 31
0
  0
LINE
  8
1
 62
3
 10
456.7979309574619
 20
330
 30
0
 11
473.55054757827
 21
330
 31
0
  0
LINE
  8
1
 62
3
 10
468.3522904045678
 20
334.424242424182
 30
0
 11
464.164136249467
 21
334.424242424182
 31
0
  0
LINE
  8
1
 62
3
 10
464.650719998459
 20
362.051175145079
 30
0
 11
456.7979309574619
 21
330
 31
0
  0
LINE
  8
1
 62
3
 10
464.164136249467
 20
334.424242424182
 30
0
 11
469.8489771720419
 21
357.626932720839
 31
0
  0
LINE
  8
1
 62
3
 10
481.4033366192889
 20
362.051175145079
 30
0
 11
464.650719998459
 21
362.051175145079
 31
0
  0
LINE
  8
1
 62
3
 10
469.8489771720419
 20
357.626932720839
 30
0
 11
474.037131327292
 21
357.626932720839
 31
0
  0
LINE
  8
1
 62
3
 10
474.037131327292
 20
357.626932720839
 30
0
 11
468.3522904045678
 21
334.424242424182
 31
0
  0
LINE
  8
1
 62
3
 10
481.4033366192889
 20
362.051175145079
 30
0
 11
473.55054757827
 21
330
 31
0
  0
LINE
  8
1
 62
3
 10
449.9921804553309
 20
362.051175145079
 30
0
 11
443.7099492224659
 21
362.051175145079
 31
0
  0
LINE
  8
1
 62
3
 10
446.3275455694389
 20
330
 30
0
 11
452.6097768023359
 21
330
 31
0
  0
LINE
  8
1
 62
3
 10
445.5237989051459
 20
343.813466360341
 30
0
 11
449.7119530603339
 21
343.813466360341
 31
0
  0
LINE
  8
1
 62
3
 10
446.6077729643149
 20
348.2377087845272
 30
0
 11
450.7959271195539
 21
348.2377087845272
 31
0
  0
LINE
  8
1
 62
3
 10
446.6077729643149
 20
348.2377087845272
 30
0
 11
449.9921804553309
 21
362.051175145079
 31
0
  0
LINE
  8
1
 62
3
 10
450.7959271195539
 20
348.2377087845272
 30
0
 11
454.1803346104349
 21
362.051175145079
 31
0
  0
LINE
  8
1
 62
3
 10
415.7649031508845
 20
378.7622048583319
 30
0
 11
415.0328203819372
 21
377.9784478723631
 31
0
  0
LINE
  8
1
 62
3
 10
415.3282234693179
 20
376.979895810782
 30
0
 11
415.0328203819372
 21
377.9784478723631
 31
0
  0
ARC
  8
1
 62
3
 10
523.514586791596
 20
379.3622336822259
 30
0
 40
1.39187009132817
 50
358.7013873342734
 51
66.54486649404458
  0
ARC
  8
1
 62
3
 10
522.789193605106
 20
379.0530393898221
 30
0
 40
1.155889798231653
 50
0.9850581704823435
 51
82.91825463293205
  0
ARC
  8
1
 62
3
 10
522.8643762433019
 20
382.264025930551
 30
0
 40
1.257687287767188
 50
285.1995809529435
 51
80.93139523878851
  0
ARC
  8
1
 62
3
 10
522.9426940693159
 20
382.3039199213811
 30
0
 40
2.009798008861834
 50
304.0700115354259
 51
86.2978887182587
  0
CIRCLE
  8
1
 62
3
 10
522.7358752379369
 20
380.878787878755
 30
0
 40
5.530127989695984
  0
CIRCLE
  8
1
 62
3
 10
522.7358752379369
 20
380.878787878755
 30
0
 40
5.972862778753957
  0
ENDBLK
  8
0
  0
BLOCK
  8
0
  2
WANNENF_SSE
 70
0
 10
489.0347689999999
 20
0
 30
0
  0
LINE
  8
1
 62
2
 10
489.0347689999999
 20
25
 30
0
 11
529.0347689999999
 21
25
 31
0
  0
LINE
  8
1
 62
2
 10
494.0347689999999
 20
55
 30
0
 11
524.0347689999999
 21
55
 31
0
  0
LINE
  8
1
 62
2
 10
499.0347689999999
 20
85
 30
0
 11
519.0347689999999
 21
85
 31
0
  0
LINE
  8
1
 62
2
 10
488.5100736690756
 20
162.4646234569254
 30
0
 11
528.4966881762457
 21
161.4298963165848
 31
0
  0
LINE
  8
1
 62
2
 10
483.6410877482222
 20
167.5922911628641
 30
0
 11
488.6394145616177
 21
167.4629502703219
 31
0
  0
LINE
  8
1
 62
2
 10
493.6377413750151
 20
167.3336093777798
 30
0
 11
523.6277022553918
 21
166.5575640225234
 31
0
  0
LINE
  8
1
 62
2
 10
528.6260290687887
 20
166.4282231299812
 30
0
 11
533.6243558821839
 21
166.2988822374391
 31
0
  0
LINE
  8
1
 62
2
 10
468.9047890931179
 20
177.9769674672843
 30
0
 11
483.8997695333069
 21
177.588944789657
 31
0
  0
LINE
  8
1
 62
2
 10
533.8830376672709
 20
176.2955358642312
 30
0
 11
548.878018107459
 21
175.907513186603
 31
0
  0
LINE
  8
1
 62
2
 10
488.7687554541608
 20
172.4612770837175
 30
0
 11
493.7670822675573
 21
172.3319361911754
 31
0
  0
LINE
  8
1
 62
2
 10
523.7570431479348
 20
171.5558908359199
 30
0
 11
528.7553699613309
 21
171.4265499433768
 31
0
  0
LINE
  8
1
 62
2
 10
489.0347689999999
 20
0
 30
0
 11
489.0347689999999
 21
25
 31
0
  0
LINE
  8
1
 62
2
 10
529.0347689999999
 20
0
 30
0
 11
529.0347689999999
 21
25
 31
0
  0
LINE
  8
1
 62
2
 10
524.0347689999999
 20
25
 30
0
 11
524.0347689999999
 21
55
 31
0
  0
LINE
  8
1
 62
2
 10
494.0347689999999
 20
25
 30
0
 11
494.0347689999999
 21
55
 31
0
  0
LINE
  8
1
 62
2
 10
494.0347689999999
 20
55
 30
0
 11
499.0347689999999
 21
85
 31
0
  0
LINE
  8
1
 62
2
 10
524.0347689999999
 20
55
 30
0
 11
519.0347689999999
 21
85
 31
0
  0
LINE
  8
1
 62
2
 10
504.0347689999999
 20
85
 30
0
 11
504.0347689999999
 21
162.0628934329557
 31
0
  0
LINE
  8
1
 62
2
 10
514.0347689999999
 20
85
 30
0
 11
514.0347689999999
 21
161.8041250543138
 31
0
  0
LINE
  8
1
 62
2
 10
468.9047890931179
 20
177.9769674672843
 30
0
 11
469.0341299856609
 21
182.9752942806808
 31
0
  0
LINE
  8
1
 62
2
 10
469.0341299856609
 20
182.9752942806808
 30
0
 11
489.027437239246
 21
182.4579307105105
 31
0
  0
LINE
  8
1
 62
2
 10
489.027437239246
 20
182.4579307105105
 30
0
 11
488.7687554541608
 21
172.4612770837175
 31
0
  0
LINE
  8
1
 62
2
 10
483.8997695333069
 20
177.588944789657
 30
0
 11
483.6410877482222
 21
167.5922911628641
 31
0
  0
LINE
  8
1
 62
2
 10
493.7670822675573
 20
172.3319361911754
 30
0
 11
493.6377413750151
 21
167.3336093777798
 31
0
  0
LINE
  8
1
 62
2
 10
488.6394145616177
 20
167.4629502703219
 30
0
 11
488.5100736690756
 21
162.4646234569254
 31
0
  0
LINE
  8
1
 62
2
 10
523.6277022553918
 20
166.5575640225234
 30
0
 11
523.7570431479348
 21
171.5558908359199
 31
0
  0
LINE
  8
1
 62
2
 10
528.7553699613309
 20
171.4265499433768
 30
0
 11
529.014051746416
 21
181.4232035701698
 31
0
  0
LINE
  8
1
 62
2
 10
529.014051746416
 20
181.4232035701698
 30
0
 11
549.0073590000011
 21
180.9058399999994
 31
0
  0
LINE
  8
1
 62
2
 10
548.878018107459
 20
175.907513186603
 30
0
 11
549.0073590000011
 21
180.9058399999994
 31
0
  0
LINE
  8
1
 62
2
 10
533.8830376672709
 20
176.2955358642312
 30
0
 11
533.6243558821839
 21
166.2988822374391
 31
0
  0
LINE
  8
1
 62
2
 10
528.6260290687887
 20
166.4282231299812
 30
0
 11
528.4966881762457
 21
161.4298963165848
 31
0
  0
LINE
  8
1
 62
2
 10
1370.965231
 20
25
 30
0
 11
1410.965231
 21
25
 31
0
  0
LINE
  8
1
 62
2
 10
1375.965231
 20
55
 30
0
 11
1405.965231
 21
55
 31
0
  0
LINE
  8
1
 62
2
 10
1380.965231
 20
85
 30
0
 11
1400.965231
 21
85
 31
0
  0
LINE
  8
1
 62
2
 10
1371.503311823754
 20
161.4298963165848
 30
0
 11
1411.489926330924
 21
162.4646234569254
 31
0
  0
LINE
  8
1
 62
2
 10
1411.360585438382
 20
167.4629502703219
 30
0
 11
1416.358912251777
 21
167.5922911628641
 31
0
  0
LINE
  8
1
 62
2
 10
1376.372297744608
 20
166.5575640225234
 30
0
 11
1406.362258624984
 21
167.3336093777798
 31
0
  0
LINE
  8
1
 62
2
 10
1366.375644117816
 20
166.2988822374391
 30
0
 11
1371.373970931211
 21
166.4282231299812
 31
0
  0
LINE
  8
1
 62
2
 10
1416.100230466693
 20
177.588944789657
 30
0
 11
1431.095210906882
 21
177.9769674672843
 31
0
  0
LINE
  8
1
 62
2
 10
1351.121981892541
 20
175.907513186603
 30
0
 11
1366.116962332729
 21
176.2955358642312
 31
0
  0
LINE
  8
1
 62
2
 10
1406.232917732442
 20
172.3319361911754
 30
0
 11
1411.231244545839
 21
172.4612770837175
 31
0
  0
LINE
  8
1
 62
2
 10
1371.244630038669
 20
171.4265499433768
 30
0
 11
1376.242956852065
 21
171.5558908359199
 31
0
  0
LINE
  8
1
 62
2
 10
1410.965231
 20
25
 30
0
 11
1410.965231
 21
0
 31
0
  0
LINE
  8
1
 62
2
 10
1370.965231
 20
25
 30
0
 11
1370.965231
 21
0
 31
0
  0
LINE
  8
1
 62
2
 10
1375.965231
 20
55
 30
0
 11
1375.965231
 21
25
 31
0
  0
LINE
  8
1
 62
2
 10
1405.965231
 20
55
 30
0
 11
1405.965231
 21
25
 31
0
  0
LINE
  8
1
 62
2
 10
1400.965231
 20
85
 30
0
 11
1405.965231
 21
55
 31
0
  0
LINE
  8
1
 62
2
 10
1380.965231
 20
85
 30
0
 11
1375.965231
 21
55
 31
0
  0
LINE
  8
1
 62
2
 10
1395.965231
 20
162.0628934329557
 30
0
 11
1395.965231
 21
85
 31
0
  0
LINE
  8
1
 62
2
 10
1385.965231
 20
161.8041250543138
 30
0
 11
1385.965231
 21
85
 31
0
  0
LINE
  8
1
 62
2
 10
1430.965870014339
 20
182.9752942806808
 30
0
 11
1431.095210906882
 21
177.9769674672843
 31
0
  0
LINE
  8
1
 62
2
 10
1410.972562760754
 20
182.4579307105105
 30
0
 11
1430.965870014339
 21
182.9752942806808
 31
0
  0
LINE
  8
1
 62
2
 10
1411.231244545839
 20
172.4612770837175
 30
0
 11
1410.972562760754
 21
182.4579307105105
 31
0
  0
LINE
  8
1
 62
2
 10
1416.358912251777
 20
167.5922911628641
 30
0
 11
1416.100230466693
 21
177.588944789657
 31
0
  0
LINE
  8
1
 62
2
 10
1406.362258624984
 20
167.3336093777798
 30
0
 11
1406.232917732442
 21
172.3319361911754
 31
0
  0
LINE
  8
1
 62
2
 10
1411.489926330924
 20
162.4646234569254
 30
0
 11
1411.360585438382
 21
167.4629502703219
 31
0
  0
LINE
  8
1
 62
2
 10
1376.242956852065
 20
171.5558908359199
 30
0
 11
1376.372297744608
 21
166.5575640225234
 31
0
  0
LINE
  8
1
 62
2
 10
1370.985948253584
 20
181.4232035701698
 30
0
 11
1371.244630038669
 21
171.4265499433768
 31
0
  0
LINE
  8
1
 62
2
 10
1350.992640999999
 20
180.9058399999994
 30
0
 11
1370.985948253584
 21
181.4232035701698
 31
0
  0
LINE
  8
1
 62
2
 10
1350.992640999999
 20
180.9058399999994
 30
0
 11
1351.121981892541
 21
175.907513186603
 31
0
  0
LINE
  8
1
 62
2
 10
1366.375644117816
 20
166.2988822374391
 30
0
 11
1366.116962332729
 21
176.2955358642312
 31
0
  0
LINE
  8
1
 62
2
 10
1371.503311823754
 20
161.4298963165848
 30
0
 11
1371.373970931211
 21
166.4282231299812
 31
0
  0
ENDBLK
  8
0
  0
BLOCK
  8
0
  2
WANNE_PORTOFINO_115
 70
0
 10
550
 20
350
 30
0
  0
LINE
  8
1
 62
3
  6
DASHDOT
 10
950
 20
220
 30
0
 11
950
 21
150
 31
0
  0
LINE
  8
1
 62
7
 10
1033.562739
 20
176.0182190000005
 30
0
 11
1510.42921
 21
186.2142530000001
 31
0
  0
LINE
  8
1
 62
7
 10
905
 20
195
 30
0
 11
924
 21
175
 31
0
  0
LINE
  8
1
 62
7
 10
924
 20
175
 30
0
 11
976
 21
175
 31
0
  0
LINE
  8
1
 62
7
 10
976
 20
175
 30
0
 11
995
 21
195
 31
0
  0
LINE
  8
1
 62
7
 10
866.437261
 20
176.0182190000005
 30
0
 11
885.869337713697
 21
195.4502947136966
 31
0
  0
LINE
  8
1
 62
7
 10
1014.130662286303
 20
195.4502947136966
 30
0
 11
1033.562739
 21
176.0182190000005
 31
0
  0
LINE
  8
1
 62
7
 10
389.5707899999998
 20
186.2142530000001
 30
0
 11
866.437261
 21
176.0182190000005
 31
0
  0
LINE
  8
MITTELLINIEN
 62
3
  6
DASHDOT
 10
1013.989954999998
 20
575
 30
0
 11
884.3219809999871
 21
575
 31
0
  0
LINE
  8
MITTELLINIEN
 62
3
  6
DASHDOT
 10
950
 20
638.9899549999991
 30
0
 11
950
 21
509.3219809999989
 31
0
  0
LINE
  8
1
 62
7
 10
906.314715992085
 20
195
 30
0
 11
993.6852840079159
 21
195
 31
0
  0
LINE
  8
1
 62
7
 10
1900.000000000001
 20
620
 30
0
 11
1900.000000000001
 21
655
 31
0
  0
LINE
  8
1
 62
7
 10
0
 20
655
 30
0
 11
0
 21
620
 31
0
  0
LINE
  8
1
 62
7
 10
0
 20
655
 30
0
 11
1900.000000000001
 21
655
 31
0
  0
LINE
  8
1
 62
7
 10
0
 20
620
 30
0
 11
1900.000000000001
 21
620
 31
0
  0
LINE
  8
1
 62
7
 10
906.314715992085
 20
195
 30
0
 11
368.9499720000003
 21
206.835071
 31
0
  0
LINE
  8
1
 62
7
 10
389.5707899999998
 20
186.2142530000001
 30
0
 11
368.9499720000003
 21
206.835071
 31
0
  0
LINE
  8
1
 62
7
 10
1531.050028
 20
206.835071
 30
0
 11
993.6852840079159
 21
195
 31
0
  0
LINE
  8
1
 62
7
 10
1531.050028
 20
206.835071
 30
0
 11
1510.42921
 21
186.2142530000001
 31
0
  0
ARC
  8
1
 62
7
 10
974.160213773868
 20
948.742784337604
 30
0
 40
954.0001046872384
 50
200.1570187845493
 51
216.7705182265316
  0
ARC
  8
1
 62
7
 10
-1388.908281444226
 20
-817.1625570608685
 30
0
 40
1996.00233393412
 50
32.18622347811062
 51
36.77051670444585
  0
ARC
  8
1
 62
7
 10
371.441937000016
 20
290.7981000000273
 30
0
 40
84.0000000000276
 50
212.1862200000098
 51
268.2999999999897
  0
ARC
  8
1
 62
7
 10
925.839786226132
 20
948.742784337604
 30
0
 40
954.0001046872382
 50
323.2294817734684
 51
339.8429812154507
  0
ARC
  8
1
 62
7
 10
3288.908281444225
 20
-817.1625570608685
 30
0
 40
1996.00233393412
 50
143.2294832955541
 51
147.8137765218894
  0
ARC
  8
1
 62
7
 10
1528.558062999984
 20
290.7981000000273
 30
0
 40
84.00000000002751
 50
271.7000000000102
 51
327.81377999999
  0
CIRCLE
  8
WANNE
 62
7
 10
949.999999999995
 20
575
 30
0
 40
26
  0
INSERT
  8
0
  2
WANNENF_SSE
 10
489.0347689999999
 20
0
 30
0
  0
ENDBLK
  8
0
  0
ENDSEC
  0
SECTION
  2
ENTITIES
  0
TEXT
  8
1
 62
2
 10
350
 20
255
 30
0
 40
35
  1
PORTOFINO 115
 41
0.5993999999999999
  0
TEXT
  8
1
 62
3
 10
908.042
 20
90
 30
0
 40
35
  1
Ö 52
 41
0.5993999999999999
 72
1
 73
3
 11
950
 21
125
 31
0
  0
TEXT
  8
1
 62
3
 10
816.0840000000001
 20
490
 30
0
 40
35
  1
Ö 52
 41
0.5993999999999999
 72
2
 73
3
 11
900
 21
525
 31
0
  0
INSERT
  8
0
  2
DLX
 10
350
 20
330
 30
0
  0
INSERT
  8
0
  2
WANNE_PORTOFINO_115
 10
550
 20
350
 30
0
  0
ENDSEC
  0
EOF
