  0
SECTION
  2
HEADER
  9
$ACADVER
  1
AC1009
  9
$INSBASE
 10
0
 20
0
  9
$EXTMIN
 10
0
 20
0
  9
$EXTMAX
 10
2343.000000108694
 20
1649.899417999998
  9
$LIMMIN
 10
0
 20
0
  9
$LIMMAX
 10
2343.000000108694
 20
1649.899417999998
  9
$VIEWCTR
 10
10
 20
10
  9
$VIEWSIZE
 40
10
  9
$SNAPMODE
 70
0
  9
$SNAPUNIT
 10
1
 20
1
  9
$SNAPBASE
 10
0
 20
0
  9
$SNAPANG
 50
0
  9
$SNAPSTYLE
 70
0
  9
$SNAPISOPAIR
 70
0
  9
$GRIDMODE
 70
0
  9
$GRIDUNIT
 10
0
 20
0
  9
$ORTHOMODE
 70
0
  9
$REGENMODE
 70
1
  9
$FILLMODE
 70
1
  9
$QTEXTMODE
 70
0
  9
$DRAGMODE
 70
2
  9
$LTSCALE
 40
1
  9
$OSMODE
 70
0
  9
$ATTMODE
 70
1
  9
$TEXTSIZE
 40
3.5
  9
$TRACEWID
 40
0.5
  9
$TEXTSTYLE
  7
STANDARD
  9
$CLAYER
  8
0
  9
$CELTYPE
  6
BYLAYER
  9
$CECOLOR
 62
256
  9
$DIMSCALE
 40
1
  9
$DIMASZ
 40
0.18
  9
$DIMEXO
 40
0.0625
  9
$DIMDLI
 40
0.38
  9
$DIMRND
 40
0
  9
$DIMDLE
 40
0
  9
$DIMEXE
 40
0.18
  9
$DIMTP
 40
0
  9
$DIMTM
 40
0
  9
$DIMTXT
 40
0.18
  9
$DIMCEN
 40
0.09
  9
$DIMTSZ
 40
0
  9
$DIMTOL
 70
0
  9
$DIMLIM
 70
0
  9
$DIMTIH
 70
1
  9
$DIMTOH
 70
1
  9
$DIMSE1
 70
0
  9
$DIMSE2
 70
0
  9
$DIMTAD
 70
0
  9
$DIMZIN
 70
0
  9
$DIMBLK
  1

  9
$DIMASO
 70
1
  9
$DIMSHO
 70
1
  9
$DIMPOST
  1

  9
$DIMAPOST
  1

  9
$DIMALT
 70
0
  9
$DIMALTD
 70
2
  9
$DIMALTF
 40
25.4
  9
$DIMLFAC
 40
1
  9
$DIMTOFL
 70
0
  9
$DIMTVP
 40
0
  9
$DIMTIX
 70
0
  9
$DIMSOXD
 70
0
  9
$DIMSAH
 70
0
  9
$DIMBLK1
  1

  9
$DIMBLK2
  1

  9
$DIMSTYLE
  2
*UNNAMED
  9
$DIMCLRD
 70
0
  9
$DIMCLRE
 70
0
  9
$DIMCLRT
 70
0
  9
$DIMTFAC
 40
1
  9
$DIMGAP
 40
0.09
  9
$LUNITS
 70
2
  9
$LUPREC
 70
4
  9
$AXISMODE
 70
0
  9
$AXISUNIT
 10
0
 20
0
  9
$SKETCHINC
 40
0.1
  9
$FILLETRAD
 40
2
  9
$AUNITS
 70
0
  9
$AUPREC
 70
0
  9
$MENU
  1
ACAD
  9
$ELEVATION
 40
0
  9
$THICKNESS
 40
0
  9
$VIEWDIR
 10
0
 20
0
 30
1
  9
$LIMCHECK
 70
0
  9
$BLIPMODE
 70
1
  9
$CHAMFERA
 40
0
  9
$CHAMFERB
 40
0
  9
$FASTZOOM
 70
1
  9
$SKPOLY
 70
0
  9
$ANGBASE
 50
0
  9
$ANGDIR
 70
0
  9
$PDMODE
 70
0
  9
$PDSIZE
 40
0
  9
$PLINEWID
 40
0
  9
$COORDS
 70
2
  0
ENDSEC
  0
SECTION
  2
TABLES
  0
TABLE
  2
DIMSTYLE
 70
0
  0
ENDTAB
  0
TABLE
  2
LTYPE
 70
9
  0
LTYPE
  2
CONTINUOUS
 70
64
  3
Solid line
 72
65
 73
0
 40
0
  0
LTYPE
  2
BORDER
 70
64
  3
__ __ . __ __ .
 72
65
 73
6
 40
107.9013157944793
 49
30.82894736985124
 49
-15.41447368492562
 49
30.82894736985124
 49
-15.41447368492562
 49
0
 49
-15.41447368492562
  0
LTYPE
  2
CENTER
 70
64
  3
____ _ ____ _
 72
65
 73
4
 40
123.315789479405
 49
77.0723684246281
 49
-15.41447368492562
 49
15.41447368492562
 49
-15.41447368492562
  0
LTYPE
  2
DASHDOT
 70
64
  3
__ . __ . __ .
 72
65
 73
4
 40
61.65789473970248
 49
30.82894736985124
 49
-15.41447368492562
 49
0
 49
-15.41447368492562
  0
LTYPE
  2
DASHED
 70
64
  3
__ __ __ __ __
 72
65
 73
2
 40
46.24342105477686
 49
30.82894736985124
 49
-15.41447368492562
  0
LTYPE
  2
DIVIDE
 70
64
  3
__ . . __ . . 
 72
65
 73
6
 40
77.0723684246281
 49
30.82894736985124
 49
-15.41447368492562
 49
0
 49
-15.41447368492562
 49
0
 49
-15.41447368492562
  0
LTYPE
  2
DOT
 70
64
  3
..............
 72
65
 73
4
 40
30.82894736985124
 49
0
 49
-15.41447368492562
 49
0
 49
-15.41447368492562
  0
LTYPE
  2
HIDDEN
 70
64
  3
_ _ _ _ _ _ _
 72
65
 73
2
 40
23.12171052738843
 49
15.41447368492562
 49
-7.70723684246281
  0
LTYPE
  2
PHANTOM
 70
64
  3
_____ _ _ _____ _ _ 
 72
65
 73
6
 40
154.1447368492562
 49
77.0723684246281
 49
-15.41447368492562
 49
15.41447368492562
 49
-15.41447368492562
 49
15.41447368492562
 49
-15.41447368492562
  0
ENDTAB
  0
TABLE
  2
LAYER
 70
5
  0
LAYER
  2
MITTELLINIEN
 70
0
 62
7
  6
CONTINUOUS
  0
LAYER
  2
1
 70
0
 62
7
  6
CONTINUOUS
  0
LAYER
  2
GEOMETRIE
 70
0
 62
7
  6
CONTINUOUS
  0
LAYER
  2
0
 70
0
 62
7
  6
CONTINUOUS
  0
ENDTAB
  0
TABLE
  2
STYLE
 70
4
  0
STYLE
  2
STANDARD
 70
0
 40
0
 41
1
 50
0
 71
0
 42
3.5
  3
txt
  4

  0
STYLE
  2
SIMPLEX
 70
0
 40
0
 41
1
 50
0
 71
0
 42
3.5
  3
simplex
  4

  0
STYLE
  2
COMPLEX
 70
0
 40
0
 41
1
 50
0
 71
0
 42
3.5
  3
complex
  4

  0
STYLE
  2
ITALIC
 70
0
 40
0
 41
1
 50
0
 71
0
 42
3.5
  3
italic
  4

  0
ENDTAB
  0
TABLE
  2
VIEW
 70
0
  0
ENDTAB
  0
ENDSEC
  0
SECTION
  2
BLOCKS
  0
BLOCK
  8
0
  2
DLX
 70
0
 10
0
 20
0
 30
0
  0
LINE
  8
1
 62
3
 10
815.3282234693179
 20
1046.979895810782
 30
0
 11
815.0328203819372
 21
1047.978447872363
 31
0
  0
LINE
  8
1
 62
3
 10
815.7649031508845
 20
1048.762204858332
 30
0
 11
815.0328203819372
 21
1047.978447872363
 31
0
  0
LINE
  8
1
 62
3
 10
850.7959271195539
 20
1018.237708784527
 30
0
 11
854.1803346104349
 21
1032.051175145079
 31
0
  0
LINE
  8
1
 62
3
 10
846.6077729643149
 20
1018.237708784527
 30
0
 11
849.992180455331
 21
1032.051175145079
 31
0
  0
LINE
  8
1
 62
3
 10
846.6077729643149
 20
1018.237708784527
 30
0
 11
850.7959271195539
 21
1018.237708784527
 31
0
  0
LINE
  8
1
 62
3
 10
845.5237989051459
 20
1013.813466360341
 30
0
 11
849.7119530603338
 21
1013.813466360341
 31
0
  0
LINE
  8
1
 62
3
 10
846.3275455694388
 20
1000
 30
0
 11
852.6097768023359
 21
1000
 31
0
  0
LINE
  8
1
 62
3
 10
849.992180455331
 20
1032.051175145079
 30
0
 11
843.7099492224659
 21
1032.051175145079
 31
0
  0
LINE
  8
1
 62
3
 10
881.4033366192889
 20
1032.051175145079
 30
0
 11
873.55054757827
 21
1000
 31
0
  0
LINE
  8
1
 62
3
 10
874.037131327292
 20
1027.626932720839
 30
0
 11
868.3522904045678
 21
1004.424242424182
 31
0
  0
LINE
  8
1
 62
3
 10
869.8489771720419
 20
1027.626932720839
 30
0
 11
874.037131327292
 21
1027.626932720839
 31
0
  0
LINE
  8
1
 62
3
 10
881.4033366192889
 20
1032.051175145079
 30
0
 11
864.650719998459
 21
1032.051175145079
 31
0
  0
LINE
  8
1
 62
3
 10
864.164136249467
 20
1004.424242424182
 30
0
 11
869.8489771720419
 21
1027.626932720839
 31
0
  0
LINE
  8
1
 62
3
 10
864.650719998459
 20
1032.051175145079
 30
0
 11
856.7979309574619
 21
1000
 31
0
  0
LINE
  8
1
 62
3
 10
868.3522904045678
 20
1004.424242424182
 30
0
 11
864.164136249467
 21
1004.424242424182
 31
0
  0
LINE
  8
1
 62
3
 10
856.7979309574619
 20
1000
 30
0
 11
873.55054757827
 21
1000
 31
0
  0
LINE
  8
1
 62
3
 10
860.4625658433508
 20
1032.051175145079
 30
0
 11
854.1803346104349
 21
1032.051175145079
 31
0
  0
LINE
  8
1
 62
3
 10
843.7099492224659
 20
1032.051175145079
 30
0
 11
835.8571601814729
 21
1000
 31
0
  0
LINE
  8
1
 62
3
 10
842.1393914142609
 20
1000
 30
0
 11
845.5237989051459
 21
1013.813466360341
 31
0
  0
LINE
  8
1
 62
3
 10
846.3275455694388
 20
1000
 30
0
 11
849.7119530603338
 21
1013.813466360341
 31
0
  0
LINE
  8
1
 62
3
 10
852.6097768023359
 20
1000
 30
0
 11
860.4625658433508
 21
1032.051175145079
 31
0
  0
LINE
  8
1
 62
3
 10
835.8571601814729
 20
1000
 30
0
 11
842.1393914142609
 21
1000
 31
0
  0
LINE
  8
1
 62
3
 10
830.5296286865159
 20
1020.990569084413
 30
0
 11
836.8118599193219
 21
1020.990569084413
 31
0
  0
LINE
  8
1
 62
3
 10
832.1555897753099
 20
1027.626932720839
 30
0
 11
830.5296286865159
 21
1020.990569084413
 31
0
  0
LINE
  8
1
 62
3
 10
827.9674356201178
 20
1027.626932720839
 30
0
 11
832.1555897753099
 21
1027.626932720839
 31
0
  0
LINE
  8
1
 62
3
 10
822.2825946974881
 20
1004.424242424182
 30
0
 11
827.9674356201178
 21
1027.626932720839
 31
0
  0
LINE
  8
1
 62
3
 10
826.4707488526909
 20
1004.424242424182
 30
0
 11
822.2825946974881
 21
1004.424242424182
 31
0
  0
LINE
  8
1
 62
3
 10
828.0967099414779
 20
1011.060606060608
 30
0
 11
826.4707488526909
 21
1004.424242424182
 31
0
  0
LINE
  8
1
 62
3
 10
834.378941174266
 20
1011.060606060608
 30
0
 11
828.0967099414779
 21
1011.060606060608
 31
0
  0
LINE
  8
1
 62
3
 10
831.669006026292
 20
1000
 30
0
 11
834.378941174266
 21
1011.060606060608
 31
0
  0
LINE
  8
1
 62
3
 10
814.9163894055382
 20
1000
 30
0
 11
831.669006026292
 21
1000
 31
0
  0
LINE
  8
1
 62
3
 10
822.7691784465314
 20
1032.051175145079
 30
0
 11
814.9163894055382
 21
1000
 31
0
  0
LINE
  8
1
 62
3
 10
839.5217950672519
 20
1032.051175145079
 30
0
 11
822.7691784465314
 21
1032.051175145079
 31
0
  0
LINE
  8
1
 62
3
 10
836.8118599193219
 20
1020.990569084413
 30
0
 11
839.5217950672519
 21
1032.051175145079
 31
0
  0
LINE
  8
1
 62
3
 10
817.4970502321557
 20
1027.626932720839
 30
0
 11
818.581024291314
 21
1032.051175145079
 31
0
  0
LINE
  8
1
 62
3
 10
807.0266648441757
 20
1027.626932720839
 30
0
 11
817.4970502321557
 21
1027.626932720839
 31
0
  0
LINE
  8
1
 62
3
 10
804.5937460991627
 20
1017.696969696953
 30
0
 11
807.0266648441757
 21
1027.626932720839
 31
0
  0
LINE
  8
1
 62
3
 10
815.0641314872264
 20
1017.696969696953
 30
0
 11
804.5937460991627
 21
1017.696969696953
 31
0
  0
LINE
  8
1
 62
3
 10
810.7282352503025
 20
1000
 30
0
 11
815.0641314872264
 21
1017.696969696953
 31
0
  0
LINE
  8
1
 62
3
 10
793.97561862948
 20
1000
 30
0
 11
810.7282352503025
 21
1000
 31
0
  0
LINE
  8
1
 62
3
 10
795.0595926887872
 20
1004.424242424182
 30
0
 11
793.97561862948
 21
1000
 31
0
  0
LINE
  8
1
 62
3
 10
805.5299780766982
 20
1004.424242424182
 30
0
 11
795.0595926887872
 21
1004.424242424182
 31
0
  0
LINE
  8
1
 62
3
 10
807.6979261951165
 20
1013.272727272797
 30
0
 11
805.5299780766982
 21
1004.424242424182
 31
0
  0
LINE
  8
1
 62
3
 10
797.2275408071509
 20
1013.272727272797
 30
0
 11
807.6979261951165
 21
1013.272727272797
 31
0
  0
LINE
  8
1
 62
3
 10
801.8284076705422
 20
1032.051175145079
 30
0
 11
797.2275408071509
 21
1013.272727272797
 31
0
  0
LINE
  8
1
 62
3
 10
818.581024291314
 20
1032.051175145079
 30
0
 11
801.8284076705422
 21
1032.051175145079
 31
0
  0
LINE
  8
1
 62
3
 10
797.6402535153793
 20
1032.051175145079
 30
0
 11
789.7874644743642
 21
1000
 31
0
  0
LINE
  8
1
 62
3
 10
791.3580222825731
 20
1032.051175145079
 30
0
 11
797.6402535153793
 21
1032.051175145079
 31
0
  0
LINE
  8
1
 62
3
 10
789.7874644743642
 20
1000
 30
0
 11
771.9878093147745
 21
1000
 31
0
  0
LINE
  8
1
 62
3
 10
784.5892073007672
 20
1004.424242424182
 30
0
 11
791.3580222825731
 21
1032.051175145079
 31
0
  0
LINE
  8
1
 62
3
 10
779.3540146067826
 20
1004.424242424182
 30
0
 11
784.5892073007672
 21
1004.424242424182
 31
0
  0
LINE
  8
1
 62
3
 10
786.1228295885776
 20
1032.051175145079
 30
0
 11
779.3540146067826
 21
1004.424242424182
 31
0
  0
LINE
  8
1
 62
3
 10
779.8405983557677
 20
1032.051175145079
 30
0
 11
786.1228295885776
 21
1032.051175145079
 31
0
  0
LINE
  8
1
 62
3
 10
771.9878093147745
 20
1000
 30
0
 11
779.8405983557677
 21
1032.051175145079
 31
0
  0
LINE
  8
1
 62
3
 10
767.799655159648
 20
1000
 30
0
 11
750
 21
1000
 31
0
  0
LINE
  8
1
 62
3
 10
778.3623793485675
 20
1043.111781205662
 30
0
 11
767.799655159648
 21
1000
 31
0
  0
LINE
  8
1
 62
3
 10
754.3890522712754
 20
1043.111781205662
 30
0
 11
778.3623793485675
 21
1043.111781205662
 31
0
  0
LINE
  8
1
 62
3
 10
753.0340846972904
 20
1037.581478175405
 30
0
 11
754.3890522712754
 21
1043.111781205662
 31
0
  0
LINE
  8
1
 62
3
 10
770.7251805418237
 20
1037.581478175405
 30
0
 11
753.0340846972904
 21
1037.581478175405
 31
0
  0
LINE
  8
1
 62
3
 10
762.6013979859416
 20
1004.424242424182
 30
0
 11
770.7251805418237
 21
1037.581478175405
 31
0
  0
LINE
  8
1
 62
3
 10
757.3662052920627
 20
1004.424242424182
 30
0
 11
762.6013979859416
 21
1004.424242424182
 31
0
  0
LINE
  8
1
 62
3
 10
764.1350202737523
 20
1032.051175145079
 30
0
 11
757.3662052920627
 21
1004.424242424182
 31
0
  0
LINE
  8
1
 62
3
 10
757.8527890410551
 20
1032.051175145079
 30
0
 11
764.1350202737523
 21
1032.051175145079
 31
0
  0
LINE
  8
1
 62
3
 10
750
 20
1000
 30
0
 11
757.8527890410551
 21
1032.051175145079
 31
0
  0
LINE
  8
1
 62
3
 10
885.1196812335149
 20
1006.19393939391
 30
0
 11
894.1648417396059
 21
1043.111781205662
 31
0
  0
LINE
  8
1
 62
3
 10
894.1648417396059
 20
1043.111781205662
 30
0
 11
888.301425922338
 21
1043.111781205662
 31
0
  0
LINE
  8
1
 62
3
 10
888.301425922338
 20
1043.111781205662
 30
0
 11
877.738701733397
 21
1000
 31
0
  0
LINE
  8
1
 62
3
 10
895.643060746967
 20
1032.051175145079
 30
0
 11
889.958219824279
 21
1008.848484848477
 31
0
  0
LINE
  8
1
 62
3
 10
889.958219824279
 20
1008.848484848477
 30
0
 11
905.6637979062
 21
1008.848484848477
 31
0
  0
LINE
  8
1
 62
3
 10
905.6637979062
 20
1008.848484848477
 30
0
 11
911.3486388288079
 21
1032.051175145079
 31
0
  0
LINE
  8
1
 62
3
 10
911.3486388288079
 20
1032.051175145079
 30
0
 11
906.113446134885
 21
1032.051175145079
 31
0
  0
LINE
  8
1
 62
3
 10
906.113446134885
 20
1032.051175145079
 30
0
 11
901.5125792714898
 21
1013.272727272797
 31
0
  0
LINE
  8
1
 62
3
 10
901.5125792714898
 20
1013.272727272797
 30
0
 11
896.277386577538
 21
1013.272727272797
 31
0
  0
LINE
  8
1
 62
3
 10
896.277386577538
 20
1013.272727272797
 30
0
 11
900.878253440889
 21
1032.051175145079
 31
0
  0
LINE
  8
1
 62
3
 10
900.878253440889
 20
1032.051175145079
 30
0
 11
895.643060746967
 21
1032.051175145079
 31
0
  0
LINE
  8
1
 62
3
 10
917.9069775849489
 20
1032.051175145079
 30
0
 11
913.8615313219339
 21
1032.051175145079
 31
0
  0
LINE
  8
1
 62
3
 10
913.8615313219339
 20
1032.051175145079
 30
0
 11
917.9838268441308
 21
1021.415301218661
 31
0
  0
LINE
  8
1
 62
3
 10
917.9838268441308
 20
1021.415301218661
 30
0
 11
908.1766903993409
 21
1008.848484848477
 31
0
  0
LINE
  8
1
 62
3
 10
908.1766903993409
 20
1008.848484848477
 30
0
 11
912.222136662338
 21
1008.848484848477
 31
0
  0
LINE
  8
1
 62
3
 10
912.222136662338
 20
1008.848484848477
 30
0
 11
919.3262692424398
 21
1017.951685370502
 31
0
  0
LINE
  8
1
 62
3
 10
919.3262692424398
 20
1017.951685370502
 30
0
 11
922.8545249371239
 21
1008.848484848477
 31
0
  0
LINE
  8
1
 62
3
 10
922.8545249371239
 20
1008.848484848477
 30
0
 11
926.8999712001719
 21
1008.848484848477
 31
0
  0
LINE
  8
1
 62
3
 10
926.8999712001719
 20
1008.848484848477
 30
0
 11
922.0292731071679
 21
1021.415301218603
 31
0
  0
LINE
  8
1
 62
3
 10
922.0292731071679
 20
1021.415301218603
 30
0
 11
930.32950315225
 21
1032.051175145079
 31
0
  0
LINE
  8
1
 62
3
 10
930.32950315225
 20
1032.051175145079
 30
0
 11
926.284056889192
 21
1032.051175145079
 31
0
  0
LINE
  8
1
 62
3
 10
926.284056889192
 20
1032.051175145079
 30
0
 11
920.686830708906
 21
1024.878917066824
 31
0
  0
LINE
  8
1
 62
3
 10
920.686830708906
 20
1024.878917066824
 30
0
 11
917.9069775849489
 21
1032.051175145079
 31
0
  0
LINE
  8
1
 62
3
 10
927.928830785688
 20
1006.19393939391
 30
0
 11
930.3295031522068
 21
1000
 31
0
  0
LINE
  8
1
 62
3
 10
927.928830785688
 20
1006.19393939391
 30
0
 11
885.1196812335149
 21
1006.19393939391
 31
0
  0
LINE
  8
1
 62
3
 10
930.3295031522068
 20
1000
 30
0
 11
877.738701733397
 21
1000
 31
0
  0
LINE
  8
1
 62
3
 10
786.7386876589662
 20
1043.111781205662
 30
0
 11
789.9906098364481
 21
1056.38450847832
 31
0
  0
LINE
  8
1
 62
3
 10
789.9906098364481
 20
1056.38450847832
 30
0
 11
802.5550723021661
 21
1056.38450847832
 31
0
  0
LINE
  8
1
 62
3
 10
802.5550723021661
 20
1056.38450847832
 30
0
 11
799.3031501244914
 21
1043.111781205662
 31
0
  0
LINE
  8
1
 62
3
 10
799.3031501244914
 20
1043.111781205662
 30
0
 11
786.7386876589662
 21
1043.111781205662
 31
0
  0
LINE
  8
1
 62
3
 10
797.7510600764872
 20
1045.323902417793
 30
0
 11
789.3747517661324
 21
1045.323902417793
 31
0
  0
LINE
  8
1
 62
3
 10
799.9190081949637
 20
1054.172387266269
 30
0
 11
797.7510600764872
 21
1045.323902417793
 31
0
  0
LINE
  8
1
 62
3
 10
791.5426998844741
 20
1054.172387266269
 30
0
 11
799.9190081949637
 21
1054.172387266269
 31
0
  0
LINE
  8
1
 62
3
 10
789.3747517661324
 20
1045.323902417793
 30
0
 11
791.5426998844741
 21
1054.172387266269
 31
0
  0
LINE
  8
1
 62
3
 10
805.0679647951583
 20
1056.38450847832
 30
0
 11
801.8160426176219
 21
1043.111781205662
 31
0
  0
LINE
  8
1
 62
3
 10
805.0679647951583
 20
1056.38450847832
 30
0
 11
817.632427260738
 21
1056.38450847832
 31
0
  0
LINE
  8
1
 62
3
 10
817.632427260738
 20
1056.38450847832
 30
0
 11
815.7649031508845
 21
1048.762204858332
 31
0
  0
LINE
  8
1
 62
3
 10
814.3805050832052
 20
1043.111781205662
 30
0
 11
812.2864280055655
 21
1043.111781205662
 31
0
  0
LINE
  8
1
 62
3
 10
812.2864280055655
 20
1043.111781205662
 30
0
 11
813.3704020649384
 21
1047.536023629844
 31
0
  0
LINE
  8
1
 62
3
 10
813.3704020649384
 20
1047.536023629844
 30
0
 11
804.9940937544088
 21
1047.536023629844
 31
0
  0
LINE
  8
1
 62
3
 10
805.5360807840007
 20
1049.748144842033
 30
0
 11
813.9123890943812
 21
1049.748144842033
 31
0
  0
LINE
  8
1
 62
3
 10
813.9123890943812
 20
1049.748144842033
 30
0
 11
814.996363153703
 21
1054.172387266269
 31
0
  0
LINE
  8
1
 62
3
 10
814.996363153703
 20
1054.172387266269
 30
0
 11
806.6200548431843
 21
1054.172387266269
 31
0
  0
LINE
  8
1
 62
3
 10
806.6200548431843
 20
1054.172387266269
 30
0
 11
805.5360807840007
 21
1049.748144842033
 31
0
  0
LINE
  8
1
 62
3
 10
815.3282234693179
 20
1046.979895810782
 30
0
 11
814.3805050832052
 21
1043.111781205662
 31
0
  0
LINE
  8
1
 62
3
 10
801.8160426176219
 20
1043.111781205662
 30
0
 11
803.9101196952979
 21
1043.111781205662
 31
0
  0
LINE
  8
1
 62
3
 10
803.9101196952979
 20
1043.111781205662
 30
0
 11
804.9940937544088
 21
1047.536023629844
 31
0
  0
LINE
  8
1
 62
3
 10
822.2393968314646
 20
1056.38450847832
 30
0
 11
820.1453197539013
 21
1056.38450847832
 31
0
  0
LINE
  8
1
 62
3
 10
820.1453197539013
 20
1056.38450847832
 30
0
 11
816.8933975763357
 21
1043.111781205662
 31
0
  0
LINE
  8
1
 62
3
 10
816.8933975763357
 20
1043.111781205662
 30
0
 11
818.9874746540554
 21
1043.111781205662
 31
0
  0
LINE
  8
1
 62
3
 10
818.9874746540554
 20
1043.111781205662
 30
0
 11
822.2393968314646
 21
1056.38450847832
 31
0
  0
LINE
  8
1
 62
3
 10
821.5003671470404
 20
1043.111781205662
 30
0
 11
824.7522893245841
 21
1056.38450847832
 31
0
  0
LINE
  8
1
 62
3
 10
824.7522893245841
 20
1056.38450847832
 30
0
 11
837.316751790175
 21
1056.38450847832
 31
0
  0
LINE
  8
1
 62
3
 10
837.316751790175
 20
1056.38450847832
 30
0
 11
836.1785790280479
 21
1051.739053932891
 31
0
  0
LINE
  8
1
 62
3
 10
834.0648296126528
 20
1043.111781205662
 30
0
 11
821.5003671470404
 21
1043.111781205662
 31
0
  0
LINE
  8
1
 62
3
 10
832.5127395646049
 20
1045.323902417793
 30
0
 11
824.1364312542755
 21
1045.323902417793
 31
0
  0
LINE
  8
1
 62
3
 10
834.6806876828998
 20
1054.172387266269
 30
0
 11
834.0845019505218
 21
1051.739053932891
 31
0
  0
LINE
  8
1
 62
3
 10
826.3043793726031
 20
1054.172387266269
 30
0
 11
834.6806876828998
 21
1054.172387266269
 31
0
  0
LINE
  8
1
 62
3
 10
824.1364312542755
 20
1045.323902417793
 30
0
 11
826.3043793726031
 21
1054.172387266269
 31
0
  0
LINE
  8
1
 62
3
 10
835.6907907014249
 20
1049.748144842033
 30
0
 11
829.4085594686189
 21
1049.748144842033
 31
0
  0
LINE
  8
1
 62
3
 10
835.6907907014249
 20
1049.748144842033
 30
0
 11
834.0648296126528
 21
1043.111781205662
 31
0
  0
LINE
  8
1
 62
3
 10
829.4085594686189
 20
1049.748144842033
 30
0
 11
828.8665724389718
 21
1047.536023629844
 31
0
  0
LINE
  8
1
 62
3
 10
828.8665724389718
 20
1047.536023629844
 30
0
 11
833.0547265943719
 21
1047.536023629844
 31
0
  0
LINE
  8
1
 62
3
 10
833.0547265943719
 20
1047.536023629844
 30
0
 11
832.5127395646049
 21
1045.323902417793
 31
0
  0
LINE
  8
1
 62
3
 10
834.0845019505218
 20
1051.739053932891
 30
0
 11
836.1785790280479
 21
1051.739053932891
 31
0
  0
LINE
  8
1
 62
3
 10
836.5777221057689
 20
1043.111781205662
 30
0
 11
838.671799183329
 21
1043.111781205662
 31
0
  0
LINE
  8
1
 62
3
 10
838.671799183329
 20
1043.111781205662
 30
0
 11
841.9237213608981
 21
1056.38450847832
 31
0
  0
LINE
  8
1
 62
3
 10
839.8296442833339
 20
1056.38450847832
 30
0
 11
836.5777221057689
 21
1043.111781205662
 31
0
  0
LINE
  8
1
 62
3
 10
841.9237213608981
 20
1056.38450847832
 30
0
 11
839.8296442833339
 21
1056.38450847832
 31
0
  0
LINE
  8
1
 62
3
 10
841.1846916764989
 20
1043.111781205662
 30
0
 11
844.4366138540139
 21
1056.38450847832
 31
0
  0
LINE
  8
1
 62
3
 10
844.4366138540139
 20
1056.38450847832
 30
0
 11
847.5777294703548
 21
1056.38450847832
 31
0
  0
LINE
  8
1
 62
3
 10
847.5777294703548
 20
1056.38450847832
 30
0
 11
852.0615673366299
 21
1044.770872114746
 31
0
  0
LINE
  8
1
 62
3
 10
852.0615673366299
 20
1044.770872114746
 30
0
 11
854.9069992419829
 21
1056.38450847832
 31
0
  0
LINE
  8
1
 62
3
 10
854.9069992419829
 20
1056.38450847832
 30
0
 11
857.0010763195969
 21
1056.38450847832
 31
0
  0
LINE
  8
1
 62
3
 10
857.0010763195969
 20
1056.38450847832
 30
0
 11
853.7491541419769
 21
1043.111781205662
 31
0
  0
LINE
  8
1
 62
3
 10
853.7491541419769
 20
1043.111781205662
 30
0
 11
850.5064756532079
 21
1043.111781205662
 31
0
  0
LINE
  8
1
 62
3
 10
850.5064756532079
 20
1043.111781205662
 30
0
 11
846.7253193174979
 21
1052.905394629535
 31
0
  0
LINE
  8
1
 62
3
 10
846.7253193174979
 20
1052.905394629535
 30
0
 11
846.0847710509879
 21
1054.564485538598
 31
0
  0
LINE
  8
1
 62
3
 10
846.0847710509879
 20
1054.564485538598
 30
0
 11
843.2787687540589
 21
1043.111781205662
 31
0
  0
LINE
  8
1
 62
3
 10
843.2787687540589
 20
1043.111781205662
 30
0
 11
841.1846916764989
 21
1043.111781205662
 31
0
  0
LINE
  8
1
 62
3
 10
856.2620466350929
 20
1043.111781205662
 30
0
 11
863.77347691399
 21
1056.38450847832
 31
0
  0
LINE
  8
1
 62
3
 10
863.77347691399
 20
1056.38450847832
 30
0
 11
867.818923176965
 21
1056.38450847832
 31
0
  0
LINE
  8
1
 62
3
 10
867.818923176965
 20
1056.38450847832
 30
0
 11
868.826509100727
 21
1043.111781205662
 31
0
  0
LINE
  8
1
 62
3
 10
868.826509100727
 20
1043.111781205662
 30
0
 11
866.7968269376579
 21
1043.111781205662
 31
0
  0
LINE
  8
1
 62
3
 10
866.7968269376579
 20
1043.111781205662
 30
0
 11
866.6288959503909
 21
1045.323902417793
 31
0
  0
LINE
  8
1
 62
3
 10
866.6288959503909
 20
1045.323902417793
 30
0
 11
859.892748670027
 21
1045.323902417793
 31
0
  0
LINE
  8
1
 62
3
 10
859.892748670027
 20
1045.323902417793
 30
0
 11
858.6408436236638
 21
1043.111781205662
 31
0
  0
LINE
  8
1
 62
3
 10
858.6408436236638
 20
1043.111781205662
 30
0
 11
856.2620466350929
 21
1043.111781205662
 31
0
  0
LINE
  8
1
 62
3
 10
861.144653716558
 20
1047.536023629844
 30
0
 11
866.4609649630688
 21
1047.536023629844
 31
0
  0
LINE
  8
1
 62
3
 10
866.4609649630688
 20
1047.536023629844
 30
0
 11
865.9571720012139
 21
1054.172387266269
 31
0
  0
LINE
  8
1
 62
3
 10
865.9571720012139
 20
1054.172387266269
 30
0
 11
864.9003688559239
 21
1054.172387266269
 31
0
  0
LINE
  8
1
 62
3
 10
861.144653716558
 20
1047.536023629844
 30
0
 11
864.9003688559239
 21
1054.172387266269
 31
0
  0
LINE
  8
1
 62
3
 10
874.591323771416
 20
1056.38450847832
 30
0
 11
871.339401593847
 21
1043.111781205662
 31
0
  0
LINE
  8
1
 62
3
 10
871.339401593847
 20
1043.111781205662
 30
0
 11
883.9038640594258
 21
1043.111781205662
 31
0
  0
LINE
  8
1
 62
3
 10
883.9038640594258
 20
1043.111781205662
 30
0
 11
884.445851089087
 21
1045.323902417793
 31
0
  0
LINE
  8
1
 62
3
 10
884.445851089087
 20
1045.323902417793
 30
0
 11
873.9754657010669
 21
1045.323902417793
 31
0
  0
LINE
  8
1
 62
3
 10
873.9754657010669
 20
1045.323902417793
 30
0
 11
876.68540084903
 21
1056.38450847832
 31
0
  0
LINE
  8
1
 62
3
 10
876.68540084903
 20
1056.38450847832
 30
0
 11
874.591323771416
 21
1056.38450847832
 31
0
  0
LINE
  8
1
 62
3
 10
921.206636135699
 20
1050.200111213842
 30
0
 11
921.206636135699
 21
1047.451055788282
 31
0
  0
LINE
  8
1
 62
3
 10
920.3341884365839
 20
1047.451055788282
 30
0
 11
920.3341884365839
 21
1054.309523963456
 31
0
  0
LINE
  8
1
 62
3
 10
920.3341884365839
 20
1054.309523963456
 30
0
 11
922.7761082958239
 21
1054.309523963456
 31
0
  0
LINE
  8
1
 62
3
 10
922.7761082958239
 20
1054.309523963456
 30
0
 11
923.0724648781759
 21
1054.309523963456
 31
0
  0
LINE
  8
1
 62
3
 10
924.9060993927419
 20
1049.330689554626
 30
0
 11
924.9060993927419
 21
1047.451055788282
 31
0
  0
LINE
  8
1
 62
3
 10
924.9060993927419
 20
1047.451055788282
 30
0
 11
923.9449125772369
 21
1047.451055788282
 31
0
  0
LINE
  8
1
 62
3
 10
923.9449125772369
 20
1047.451055788282
 30
0
 11
923.9449125772369
 21
1049.0729110559
 31
0
  0
LINE
  8
1
 62
3
 10
922.931697837317
 20
1050.200111213842
 30
0
 11
921.206636135699
 21
1050.200111213842
 31
0
  0
LINE
  8
1
 62
3
 10
921.206636135699
 20
1047.451055788282
 30
0
 11
920.3341884365839
 21
1047.451055788282
 31
0
  0
LINE
  8
1
 62
3
 10
921.206636135699
 20
1051.050334541276
 30
0
 11
923.194119363641
 21
1051.050334541276
 31
0
  0
LINE
  8
1
 62
3
 10
923.062609127785
 20
1053.505992531278
 30
0
 11
921.206636135699
 21
1053.505992531278
 31
0
  0
LINE
  8
1
 62
3
 10
921.206636135699
 20
1053.505992531278
 30
0
 11
921.206636135699
 21
1051.050334541276
 31
0
  0
ARC
  8
1
 62
3
 10
922.9426940693159
 20
1052.303919921381
 30
0
 40
2.00979800886174
 50
304.0700115354277
 51
86.29788871825861
  0
ARC
  8
1
 62
3
 10
922.8643762433019
 20
1052.264025930551
 30
0
 40
1.257687287767243
 50
285.1995809529428
 51
80.9313952387881
  0
ARC
  8
1
 62
3
 10
922.789193605106
 20
1049.053039389822
 30
0
 40
1.155889798231655
 50
0.9850581704851609
 51
82.91825463293345
  0
ARC
  8
1
 62
3
 10
923.514586791596
 20
1049.362233682226
 30
0
 40
1.39187009132817
 50
358.7013873342734
 51
66.54486649404552
  0
CIRCLE
  8
1
 62
3
 10
922.7358752379369
 20
1050.878787878755
 30
0
 40
5.972862778753957
  0
CIRCLE
  8
1
 62
3
 10
922.7358752379369
 20
1050.878787878755
 30
0
 40
5.530127989695984
  0
ENDBLK
  8
0
  0
BLOCK
  8
0
  2
WANNE_PORTOFINO_TREND_DUO_335
 70
0
 10
1171.500000054347
 20
-1175.050291000001
 30
0
  0
LINE
  8
1
 62
7
 10
573.8476100543471
 20
476.7593429999986
 30
0
 11
741.991752054347
 21
684.0593129999986
 31
0
  0
LINE
  8
1
 62
7
 10
1601.008248054347
 20
965.8401049999986
 30
0
 11
1769.211860054346
 21
1173.213392999999
 31
0
  0
LINE
  8
1
 62
7
 10
867.2327087283602
 20
1477.453033439682
 30
0
 11
1475.782023712277
 21
172.4147664155221
 31
0
  0
LINE
  8
MITTELLINIEN
 62
3
  6
DASHDOT
 10
820.997802712277
 20
505.3468374155227
 30
0
 11
820.997802712277
 21
695.0148114155227
 31
0
  0
LINE
  8
MITTELLINIEN
 62
3
  6
DASHDOT
 10
727.007847712277
 20
599.3367924155227
 30
0
 11
916.6758217122772
 21
599.3367924155227
 31
0
  0
LINE
  8
MITTELLINIEN
 62
3
  6
DASHDOT
 10
1522.002183054347
 20
1144.552574999999
 30
0
 11
1522.002183054347
 21
954.8846009999986
 31
0
  0
LINE
  8
MITTELLINIEN
 62
3
  6
DASHDOT
 10
1615.992138054347
 20
1050.562619999999
 30
0
 11
1426.324164054347
 21
1050.562619999999
 31
0
  0
ARC
  8
1
 62
7
 10
1171.500000054347
 20
1250
 30
0
 40
1250
 50
200.9274248137116
 51
270
  0
ARC
  8
1
 62
7
 10
1171.499999715198
 20
1170.000000557707
 30
0
 40
1100.000000557708
 50
248.1323330489991
 51
270.0000000176652
  0
ARC
  8
1
 62
7
 10
1171.500000054347
 20
399.8994179999977
 30
0
 40
1249.999999999999
 50
20.92742481371154
 51
90
  0
ARC
  8
1
 62
7
 10
1171.500000609876
 20
479.8994168595407
 30
0
 40
1100.000001017934
 50
68.13233307076439
 51
90.00000002893587
  0
ARC
  8
1
 62
7
 10
504.9868700407071
 20
824.9497090052905
 30
0
 40
349.9999999854549
 50
152.6085649997419
 51
180.0000000008663
  0
ARC
  8
1
 62
7
 10
1838.013130086117
 20
824.9497090186387
 30
0
 40
349.9999999633131
 50
332.6085639262927
 51
359.9999999969485
  0
ARC
  8
1
 62
7
 10
588.9548777838691
 20
357.201635827721
 30
0
 40
99.99999970240688
 50
114.6146261832627
 51
234.3702470684597
  0
ARC
  8
1
 62
7
 10
588.954878054328
 20
357.2016360000016
 30
0
 40
93.40408799998939
 50
114.6146269999903
 51
228.7956410000099
  0
ARC
  8
1
 62
7
 10
1754.045122384986
 20
1292.697782166476
 30
0
 40
99.99999967207549
 50
294.6146261533096
 51
54.37024709841234
  0
ARC
  8
1
 62
7
 10
1754.0451223618
 20
1292.697782160748
 30
0
 40
93.40408767652447
 50
294.6146261079127
 51
48.79564107693744
  0
ARC
  8
1
 62
7
 10
1171.500000054328
 20
479.8994179999747
 30
0
 40
1100.000000000031
 50
54.37024699999991
 51
68.13172265232618
  0
ARC
  8
1
 62
7
 10
1171.500024956881
 20
479.8994611693256
 30
0
 40
1092.999950294466
 50
53.89460569782902
 51
64.18385418963584
  0
ARC
  8
1
 62
7
 10
1171.500000054394
 20
1170.000000000085
 30
0
 40
1100.000000000098
 50
234.3702470000006
 51
248.1317226529477
  0
ARC
  8
1
 62
7
 10
1171.500000054384
 20
1170.00000000006
 30
0
 40
1093.000000000071
 50
233.8946060000003
 51
244.1838539999997
  0
ARC
  8
1
 62
7
 10
873.52869705435
 20
427.5627280000007
 30
0
 40
300.0000000000026
 50
176.6396240000003
 51
248.1323329999996
  0
ARC
  8
1
 62
7
 10
1469.471303054344
 20
1222.336689999998
 30
0
 40
300.0000000000028
 50
356.6396240000003
 51
68.13233299999951
  0
ARC
  8
1
 62
7
 10
1801.944103629076
 20
1188.147853682068
 30
0
 40
14.99999977035184
 50
114.6146207858169
 51
281.1553548286776
  0
ARC
  8
1
 62
7
 10
1801.944104054254
 20
1188.147854000026
 30
0
 40
21.59591199993285
 50
117.3771013051076
 51
209.7325650001845
  0
ARC
  8
1
 62
7
 10
541.055896574346
 20
461.7515640758686
 30
0
 40
21.59591151083075
 50
294.6146227227817
 51
29.73256550942763
  0
ARC
  8
1
 62
7
 10
541.055895863527
 20
461.7515641125235
 30
0
 40
15.00000018177835
 50
294.6146274836211
 51
89.99999988289447
  0
ARC
  8
1
 62
7
 10
543.9186275110021
 20
446.8500055333645
 30
0
 40
30.17395556226519
 50
356.7655363653914
 51
101.0141557027798
  0
ARC
  8
1
 62
7
 10
1799.087558484315
 20
1203.056500945305
 30
0
 40
30.17973256190697
 50
176.7796349110408
 51
281.0000571571314
  0
ARC
  8
1
 62
7
 10
1170.900000609876
 20
479.8994168595407
 30
0
 40
1100.000001017933
 50
90.00000002893587
 51
152.6085649605693
  0
ARC
  8
1
 62
7
 10
1172.099999715198
 20
1170.000000557707
 30
0
 40
1100.000000557709
 50
270.0000000176652
 51
332.6085649823347
  0
ARC
  8
1
 62
7
 10
1838.013130086117
 20
824.9497090186387
 30
0
 40
349.9999999633139
 50
359.9999999969485
 51
95.33900996299535
  0
ARC
  8
1
 62
7
 10
504.9868700407071
 20
824.9497090052905
 30
0
 40
349.9999999854548
 50
180.0000000008663
 51
275.3390099596758
  0
ARC
  8
1
 62
7
 10
1088.311062889285
 20
1111.422852577583
 30
0
 40
1015.80998800676
 50
292.4229329632492
 51
309.5331171038529
  0
ARC
  8
1
 62
7
 10
1512.115177033258
 20
597.9123723741996
 30
0
 40
349.9999997638179
 50
309.5331169637799
 51
75.36343750792945
  0
ARC
  8
1
 62
7
 10
734.8637966172412
 20
684.3187492944646
 30
0
 40
30.00000014114356
 50
315.3857456426114
 51
75.36343788280772
  0
ARC
  8
1
 62
7
 10
955.5376957122751
 20
466.5963794155216
 30
0
 40
279.9999999999993
 50
135.3857409999995
 51
249.2322200000002
  0
ARC
  8
1
 62
7
 10
1216.52213711162
 20
1155.051783193559
 30
0
 40
1016.263349502787
 50
249.2370863913288
 51
284.7801582774266
  0
ARC
  8
1
 62
7
 10
1254.688922877338
 20
538.4765598379386
 30
0
 40
1015.80998800676
 50
112.4229329632491
 51
129.5331171038529
  0
ARC
  8
1
 62
7
 10
830.8848087333652
 20
1051.987040041321
 30
0
 40
349.9999997638176
 50
129.5331169637798
 51
255.3634375079296
  0
ARC
  8
1
 62
7
 10
1608.136189149382
 20
965.5806631210567
 30
0
 40
30.00000014114275
 50
135.3857456426105
 51
255.363437882809
  0
ARC
  8
1
 62
7
 10
1387.462290054348
 20
1183.303032999999
 30
0
 40
279.9999999999997
 50
315.3857409999997
 51
69.23222000000003
  0
ARC
  8
1
 62
7
 10
1126.477848655003
 20
494.8476292219616
 30
0
 40
1016.263349502788
 50
69.23708639132879
 51
104.7801582774265
  0
ARC
  8
1
 62
7
 10
1171.500000054347
 20
399.8994179999977
 30
0
 40
1250
 50
90
 51
159.0725751862884
  0
ARC
  8
1
 62
7
 10
1171.500000054347
 20
1250
 30
0
 40
1250
 50
270
 51
339.0725751862884
  0
CIRCLE
  8
GEOMETRIE
 62
7
 10
820.997802712277
 20
599.3367924155227
 30
0
 40
75.67801999999983
  0
CIRCLE
  8
GEOMETRIE
 62
7
 10
820.997802712277
 20
599.3367924155227
 30
0
 40
68.39577899999995
  0
CIRCLE
  8
GEOMETRIE
 62
7
 10
820.997802712277
 20
599.3367924155227
 30
0
 40
54.96428900000001
  0
CIRCLE
  8
GEOMETRIE
 62
7
 10
820.997802712277
 20
599.3367924155227
 30
0
 40
45
  0
CIRCLE
  8
GEOMETRIE
 62
7
 10
1522.002183054347
 20
1050.562619999999
 30
0
 40
75.67802000000006
  0
CIRCLE
  8
GEOMETRIE
 62
7
 10
1522.002183054347
 20
1050.562619999999
 30
0
 40
68.39577900000018
  0
CIRCLE
  8
GEOMETRIE
 62
7
 10
1522.002183054347
 20
1050.562619999999
 30
0
 40
54.96428900000001
  0
CIRCLE
  8
GEOMETRIE
 62
7
 10
1522.002183054347
 20
1050.562619999999
 30
0
 40
45
  0
POLYLINE
  8
1
 62
7
 66
1
  0
VERTEX
  8
1
 10
787.188051800166
 20
671.8438866786466
 30
0
 42
0.01739425013832697
  0
VERTEX
  8
1
 10
779.4357813630977
 20
667.8952520189589
 30
0
 42
0.03520279650845471
  0
VERTEX
  8
1
 10
764.9178459701429
 20
658.4625170155705
 30
0
 42
0.0363574224783801
  0
VERTEX
  8
1
 10
752.0979603230787
 20
647.236454878803
 30
0
 42
0.03828481625037197
  0
VERTEX
  8
1
 10
741.3644559170248
 20
634.555306956412
 30
0
 42
0.04095669984475548
  0
VERTEX
  8
1
 10
733.0435341370242
 20
620.8008608140106
 30
0
 42
0.04425837646316457
  0
VERTEX
  8
1
 10
727.3899469572752
 20
606.3873784318209
 30
0
 42
0.04790672084395678
  0
VERTEX
  8
1
 10
724.5796046861883
 20
591.7501935136065
 30
0
 42
0.05137977789742419
  0
VERTEX
  8
1
 10
724.7036406397585
 20
577.3340890617512
 30
0
 42
0.05393896478533687
  0
VERTEX
  8
1
 10
727.7632950160461
 20
563.5813249089397
 30
0
 42
0.0273888189025916
  0
VERTEX
  8
1
 10
730.3685103936562
 20
557.0829034601036
 30
0
  0
VERTEX
  8
1
 10
731.9319563123179
 20
553.9570999183586
 30
0
 42
0.05399546971422212
  0
VERTEX
  8
1
 10
737.6498223452422
 20
545.0894680247429
 30
0
 42
0.05295996935924327
  0
VERTEX
  8
1
 10
747.474508766761
 20
534.7651775427513
 30
0
 42
0.05021529334902464
  0
VERTEX
  8
1
 10
759.5312918749521
 20
526.4239434293164
 30
0
 42
0.04675676995021434
  0
VERTEX
  8
1
 10
773.4420764997655
 20
520.3135662529844
 30
0
 42
0.04324915525219648
  0
VERTEX
  8
1
 10
788.7801529439256
 20
516.6096146093975
 30
0
 42
0.04014648722927802
  0
VERTEX
  8
1
 10
805.0809971614274
 20
515.4156746332533
 30
0
 42
0.03768916960839282
  0
VERTEX
  8
1
 10
821.8539644958426
 20
516.7619649986401
 30
0
 42
0.03598175367858019
  0
VERTEX
  8
1
 10
838.597339477044
 20
520.605153155338
 30
0
 42
0.01757679103186111
  0
VERTEX
  8
1
 10
850.8318432749045
 20
525.0585962014163
 30
0
  0
VERTEX
  8
1
 10
854.8100000544271
 20
526.8297086789717
 30
0
  0
SEQEND
  8
1
  0
POLYLINE
  8
1
 62
7
 66
1
  0
VERTEX
  8
1
 10
854.81000005289
 20
526.8297086820955
 30
0
 42
0.01933045022084799
  0
VERTEX
  8
1
 10
861.769692599816
 20
530.4086429029769
 30
0
 42
0.03899243654093817
  0
VERTEX
  8
1
 10
874.741969249208
 20
539.1218849191139
 30
0
 42
0.03972966530638617
  0
VERTEX
  8
1
 10
886.0847747412731
 20
549.6631455377885
 30
0
 42
0.04091608006039035
  0
VERTEX
  8
1
 10
895.4539253454004
 20
561.7139362887356
 30
0
 42
0.04247489341676947
  0
VERTEX
  8
1
 10
902.5643180892321
 20
574.910047020993
 30
0
 42
0.0442742466347895
  0
VERTEX
  8
1
 10
907.1984983095941
 20
588.8521675019496
 30
0
 42
0.04611487631362307
  0
VERTEX
  8
1
 10
909.2134274615137
 20
603.117463363806
 30
0
 42
0.04773665560950251
  0
VERTEX
  8
1
 10
908.5453725367968
 20
617.2719440971291
 30
0
 42
0.04885987082134928
  0
VERTEX
  8
1
 10
905.2127111577936
 20
630.8835672173368
 30
0
 42
0.04926158911034091
  0
VERTEX
  8
1
 10
899.3162098407202
 20
643.5359170398726
 30
0
  0
VERTEX
  8
1
 10
895.4528262421522
 20
649.3918012277446
 30
0
 42
0.04833729070372787
  0
VERTEX
  8
1
 10
886.0611689728424
 20
659.8984688441743
 30
0
 42
0.04710359216673072
  0
VERTEX
  8
1
 10
874.6928800855332
 20
668.5548136751577
 30
0
 42
0.04544939163152231
  0
VERTEX
  8
1
 10
861.6984988745545
 20
675.0999062377197
 30
0
 42
0.04364380315068109
  0
VERTEX
  8
1
 10
847.4757792667766
 20
679.3390310920462
 30
0
 42
0.04192732030509688
  0
VERTEX
  8
1
 10
832.457219844628
 20
681.147992685554
 30
0
 42
0.0404799902844356
  0
VERTEX
  8
1
 10
817.0973962032805
 20
680.4756533506366
 30
0
 42
0.03941914732989112
  0
VERTEX
  8
1
 10
801.8599525576808
 20
677.3448394382231
 30
0
 42
0.01949476800437888
  0
VERTEX
  8
1
 10
790.7803174271694
 20
673.4345507679251
 30
0
  0
VERTEX
  8
1
 10
787.1880518014771
 20
671.8438866757726
 30
0
  0
SEQEND
  8
1
  0
POLYLINE
  8
1
 62
7
 66
1
  0
VERTEX
  8
1
 10
1488.190000055804
 20
1123.069708996837
 30
0
 42
0.01933045022085508
  0
VERTEX
  8
1
 10
1481.230307508879
 20
1119.490774775956
 30
0
 42
0.03899243654092586
  0
VERTEX
  8
1
 10
1468.258030859487
 20
1110.777532759819
 30
0
 42
0.03972966530635064
  0
VERTEX
  8
1
 10
1456.915225367421
 20
1100.236272141144
 30
0
 42
0.04091608006039994
  0
VERTEX
  8
1
 10
1447.546074763294
 20
1088.185481390197
 30
0
 42
0.04247489341674295
  0
VERTEX
  8
1
 10
1440.435682019462
 20
1074.989370657939
 30
0
 42
0.04427424663480303
  0
VERTEX
  8
1
 10
1435.8015017991
 20
1061.047250176983
 30
0
 42
0.04611487631363351
  0
VERTEX
  8
1
 10
1433.78657264718
 20
1046.781954315127
 30
0
 42
0.04773665560948693
  0
VERTEX
  8
1
 10
1434.454627571897
 20
1032.627473581804
 30
0
 42
0.04885987082134913
  0
VERTEX
  8
1
 10
1437.787288950901
 20
1019.015850461596
 30
0
 42
0.04926158911037711
  0
VERTEX
  8
1
 10
1443.683790267974
 20
1006.36350063906
 30
0
  0
VERTEX
  8
1
 10
1447.547173866542
 20
1000.507616451187
 30
0
 42
0.04833729070371783
  0
VERTEX
  8
1
 10
1456.938831135852
 20
990.0009488347571
 30
0
 42
0.04710359216674973
  0
VERTEX
  8
1
 10
1468.307120023161
 20
981.3446040037745
 30
0
 42
0.04544939163151554
  0
VERTEX
  8
1
 10
1481.30150123414
 20
974.7995114412132
 30
0
 42
0.04364380315065265
  0
VERTEX
  8
1
 10
1495.524220841918
 20
970.5603865868865
 30
0
 42
0.04192732030510672
  0
VERTEX
  8
1
 10
1510.542780264066
 20
968.751424993379
 30
0
 42
0.04047999028442065
  0
VERTEX
  8
1
 10
1525.902603905414
 20
969.4237643282955
 30
0
 42
0.03941914732991894
  0
VERTEX
  8
1
 10
1541.140047551014
 20
972.5545782407093
 30
0
 42
0.01949476800438528
  0
VERTEX
  8
1
 10
1552.219682681525
 20
976.4648669110073
 30
0
  0
VERTEX
  8
1
 10
1555.811948307217
 20
978.0555310031596
 30
0
  0
SEQEND
  8
1
  0
POLYLINE
  8
1
 62
7
 66
1
  0
VERTEX
  8
1
 10
1555.811948308528
 20
978.0555310002856
 30
0
 42
0.01739425013827967
  0
VERTEX
  8
1
 10
1563.564218745596
 20
982.0041656599742
 30
0
 42
0.03520279650843278
  0
VERTEX
  8
1
 10
1578.082154138551
 20
991.4369006633622
 30
0
 42
0.03635742247839329
  0
VERTEX
  8
1
 10
1590.902039785616
 20
1002.662962800129
 30
0
 42
0.03828481625037734
  0
VERTEX
  8
1
 10
1601.63554419167
 20
1015.344110722521
 30
0
 42
0.04095669984476043
  0
VERTEX
  8
1
 10
1609.95646597167
 20
1029.098556864922
 30
0
 42
0.04425837646318356
  0
VERTEX
  8
1
 10
1615.610053151419
 20
1043.512039247112
 30
0
 42
0.04790672084397644
  0
VERTEX
  8
1
 10
1618.420395422506
 20
1058.149224165326
 30
0
 42
0.05137977789745334
  0
VERTEX
  8
1
 10
1618.296359468936
 20
1072.565328617181
 30
0
 42
0.05393896478539216
  0
VERTEX
  8
1
 10
1615.236705092648
 20
1086.318092769993
 30
0
 42
0.02738881890253921
  0
VERTEX
  8
1
 10
1612.631489715038
 20
1092.81651421883
 30
0
  0
VERTEX
  8
1
 10
1611.068043796376
 20
1095.942317760574
 30
0
 42
0.05399546971417776
  0
VERTEX
  8
1
 10
1605.350177763452
 20
1104.80994965419
 30
0
 42
0.05295996935921795
  0
VERTEX
  8
1
 10
1595.525491341934
 20
1115.134240136182
 30
0
 42
0.05021529334901533
  0
VERTEX
  8
1
 10
1583.468708233742
 20
1123.475474249616
 30
0
 42
0.04675676995017721
  0
VERTEX
  8
1
 10
1569.557923608929
 20
1129.585851425949
 30
0
 42
0.04324915525218563
  0
VERTEX
  8
1
 10
1554.219847164769
 20
1133.289803069536
 30
0
 42
0.04014648722930918
  0
VERTEX
  8
1
 10
1537.919002947267
 20
1134.483743045679
 30
0
 42
0.03768916960838562
  0
VERTEX
  8
1
 10
1521.146035612851
 20
1133.137452680293
 30
0
 42
0.03598175367857406
  0
VERTEX
  8
1
 10
1504.40266063165
 20
1129.294264523595
 30
0
 42
0.01757679103185559
  0
VERTEX
  8
1
 10
1492.168156833791
 20
1124.840821477517
 30
0
  0
VERTEX
  8
1
 10
1488.190000054267
 20
1123.069708999961
 30
0
  0
SEQEND
  8
1
  0
ARC
  8
1
 62
7
 10
59.99999999999955
 20
824.9497089999986
 30
0
 40
60.00000000000011
 50
159.0725751862881
 51
180
  0
ARC
  8
1
 62
7
 10
2283.000000108696
 20
824.9497089999986
 30
0
 40
59.99999999999801
 50
339.0725751862886
 51
0
  0
ARC
  8
1
 62
7
 10
59.99999999999955
 20
824.9497089999986
 30
0
 40
59.99999999999955
 50
180
 51
200.927424813711
  0
ARC
  8
1
 62
7
 10
2283.000000108696
 20
824.9497089999986
 30
0
 40
59.99999999999818
 50
0
 51
20.92742481371146
  0
ENDBLK
  8
0
  0
ENDSEC
  0
SECTION
  2
ENTITIES
  0
TEXT
  8
1
 62
2
 10
750
 20
375
 30
0
 40
35
  1
PORTOFINO Trend Duo 335
 41
0.5993999999999999
  0
TEXT
  8
1
 62
3
 10
895.9974570002614
 20
674.313677869714
 30
0
 40
35
  1
Ö 90
 41
0.5993999999999999
  0
TEXT
  8
1
 62
3
 10
1363.085837342332
 20
1125.53950545419
 30
0
 40
35
  1
Ö 90
 41
0.5993999999999999
 72
2
 11
1447.001837342332
 21
1125.53950545419
 31
0
  0
INSERT
  8
0
  2
DLX
 10
0
 20
0
 30
0
  0
INSERT
  8
0
  2
WANNE_PORTOFINO_TREND_DUO_335
 10
1171.500000054347
 20
-1175.050291000001
 30
0
  0
ENDSEC
  0
EOF
