  0
SECTION
  2
HEADER
  9
$ACADVER
  1
AC1009
  9
$INSBASE
 10
0
 20
0
  9
$EXTMIN
 10
0
 20
0
  9
$EXTMAX
 10
1948.121772
 20
640
  9
$LIMMIN
 10
0
 20
0
  9
$LIMMAX
 10
1948.121772
 20
640
  9
$VIEWCTR
 10
10
 20
10
  9
$VIEWSIZE
 40
10
  9
$SNAPMODE
 70
0
  9
$SNAPUNIT
 10
1
 20
1
  9
$SNAPBASE
 10
0
 20
0
  9
$SNAPANG
 50
0
  9
$SNAPSTYLE
 70
0
  9
$SNAPISOPAIR
 70
0
  9
$GRIDMODE
 70
0
  9
$GRIDUNIT
 10
0
 20
0
  9
$ORTHOMODE
 70
0
  9
$REGENMODE
 70
1
  9
$FILLMODE
 70
1
  9
$QTEXTMODE
 70
0
  9
$DRAGMODE
 70
2
  9
$LTSCALE
 40
1
  9
$OSMODE
 70
0
  9
$ATTMODE
 70
1
  9
$TEXTSIZE
 40
3.5
  9
$TRACEWID
 40
0.5
  9
$TEXTSTYLE
  7
STANDARD
  9
$CLAYER
  8
0
  9
$CELTYPE
  6
BYLAYER
  9
$CECOLOR
 62
256
  9
$DIMSCALE
 40
1
  9
$DIMASZ
 40
0.18
  9
$DIMEXO
 40
0.0625
  9
$DIMDLI
 40
0.38
  9
$DIMRND
 40
0
  9
$DIMDLE
 40
0
  9
$DIMEXE
 40
0.18
  9
$DIMTP
 40
0
  9
$DIMTM
 40
0
  9
$DIMTXT
 40
0.18
  9
$DIMCEN
 40
0.09
  9
$DIMTSZ
 40
0
  9
$DIMTOL
 70
0
  9
$DIMLIM
 70
0
  9
$DIMTIH
 70
1
  9
$DIMTOH
 70
1
  9
$DIMSE1
 70
0
  9
$DIMSE2
 70
0
  9
$DIMTAD
 70
0
  9
$DIMZIN
 70
0
  9
$DIMBLK
  1

  9
$DIMASO
 70
1
  9
$DIMSHO
 70
1
  9
$DIMPOST
  1

  9
$DIMAPOST
  1

  9
$DIMALT
 70
0
  9
$DIMALTD
 70
2
  9
$DIMALTF
 40
25.4
  9
$DIMLFAC
 40
1
  9
$DIMTOFL
 70
0
  9
$DIMTVP
 40
0
  9
$DIMTIX
 70
0
  9
$DIMSOXD
 70
0
  9
$DIMSAH
 70
0
  9
$DIMBLK1
  1

  9
$DIMBLK2
  1

  9
$DIMSTYLE
  2
*UNNAMED
  9
$DIMCLRD
 70
0
  9
$DIMCLRE
 70
0
  9
$DIMCLRT
 70
0
  9
$DIMTFAC
 40
1
  9
$DIMGAP
 40
0.09
  9
$LUNITS
 70
2
  9
$LUPREC
 70
4
  9
$AXISMODE
 70
0
  9
$AXISUNIT
 10
0
 20
0
  9
$SKETCHINC
 40
0.1
  9
$FILLETRAD
 40
2
  9
$AUNITS
 70
0
  9
$AUPREC
 70
0
  9
$MENU
  1
ACAD
  9
$ELEVATION
 40
0
  9
$THICKNESS
 40
0
  9
$VIEWDIR
 10
0
 20
0
 30
1
  9
$LIMCHECK
 70
0
  9
$BLIPMODE
 70
1
  9
$CHAMFERA
 40
0
  9
$CHAMFERB
 40
0
  9
$FASTZOOM
 70
1
  9
$SKPOLY
 70
0
  9
$ANGBASE
 50
0
  9
$ANGDIR
 70
0
  9
$PDMODE
 70
0
  9
$PDSIZE
 40
0
  9
$PLINEWID
 40
0
  9
$COORDS
 70
2
  0
ENDSEC
  0
SECTION
  2
TABLES
  0
TABLE
  2
DIMSTYLE
 70
0
  0
ENDTAB
  0
TABLE
  2
LTYPE
 70
9
  0
LTYPE
  2
CONTINUOUS
 70
64
  3
Solid line
 72
65
 73
0
 40
0
  0
LTYPE
  2
BORDER
 70
64
  3
__ __ . __ __ .
 72
65
 73
6
 40
89.71613423684211
 49
25.63318121052632
 49
-12.81659060526316
 49
25.63318121052632
 49
-12.81659060526316
 49
0
 49
-12.81659060526316
  0
LTYPE
  2
CENTER
 70
64
  3
____ _ ____ _
 72
65
 73
4
 40
102.5327248421053
 49
64.08295302631579
 49
-12.81659060526316
 49
12.81659060526316
 49
-12.81659060526316
  0
LTYPE
  2
DASHDOT
 70
64
  3
__ . __ . __ .
 72
65
 73
4
 40
51.26636242105263
 49
25.63318121052632
 49
-12.81659060526316
 49
0
 49
-12.81659060526316
  0
LTYPE
  2
DASHED
 70
64
  3
__ __ __ __ __
 72
65
 73
2
 40
38.44977181578948
 49
25.63318121052632
 49
-12.81659060526316
  0
LTYPE
  2
DIVIDE
 70
64
  3
__ . . __ . . 
 72
65
 73
6
 40
64.08295302631579
 49
25.63318121052632
 49
-12.81659060526316
 49
0
 49
-12.81659060526316
 49
0
 49
-12.81659060526316
  0
LTYPE
  2
DOT
 70
64
  3
..............
 72
65
 73
4
 40
25.63318121052632
 49
0
 49
-12.81659060526316
 49
0
 49
-12.81659060526316
  0
LTYPE
  2
HIDDEN
 70
64
  3
_ _ _ _ _ _ _
 72
65
 73
2
 40
19.22488590789474
 49
12.81659060526316
 49
-6.408295302631579
  0
LTYPE
  2
PHANTOM
 70
64
  3
_____ _ _ _____ _ _ 
 72
65
 73
6
 40
128.1659060526316
 49
64.08295302631579
 49
-12.81659060526316
 49
12.81659060526316
 49
-12.81659060526316
 49
12.81659060526316
 49
-12.81659060526316
  0
ENDTAB
  0
TABLE
  2
LAYER
 70
3
  0
LAYER
  2
1
 70
0
 62
7
  6
CONTINUOUS
  0
LAYER
  2
0
 70
0
 62
7
  6
CONTINUOUS
  0
ENDTAB
  0
TABLE
  2
STYLE
 70
4
  0
STYLE
  2
STANDARD
 70
0
 40
0
 41
1
 50
0
 71
0
 42
3.5
  3
txt
  4

  0
STYLE
  2
SIMPLEX
 70
0
 40
0
 41
1
 50
0
 71
0
 42
3.5
  3
simplex
  4

  0
STYLE
  2
COMPLEX
 70
0
 40
0
 41
1
 50
0
 71
0
 42
3.5
  3
complex
  4

  0
STYLE
  2
ITALIC
 70
0
 40
0
 41
1
 50
0
 71
0
 42
3.5
  3
italic
  4

  0
ENDTAB
  0
TABLE
  2
VIEW
 70
0
  0
ENDTAB
  0
ENDSEC
  0
SECTION
  2
BLOCKS
  0
BLOCK
  8
0
  2
DLX
 70
0
 10
300
 20
390
 30
0
  0
LINE
  8
1
 62
3
 10
471.206636135699
 20
443.505992531278
 30
0
 11
471.206636135699
 21
441.050334541276
 31
0
  0
LINE
  8
1
 62
3
 10
473.062609127785
 20
443.505992531278
 30
0
 11
471.206636135699
 21
443.505992531278
 31
0
  0
LINE
  8
1
 62
3
 10
471.206636135699
 20
441.050334541276
 30
0
 11
473.194119363641
 21
441.050334541276
 31
0
  0
LINE
  8
1
 62
3
 10
471.206636135699
 20
437.4510557882821
 30
0
 11
470.3341884365839
 21
437.4510557882821
 31
0
  0
LINE
  8
1
 62
3
 10
472.931697837317
 20
440.2001112138419
 30
0
 11
471.206636135699
 21
440.2001112138419
 31
0
  0
LINE
  8
1
 62
3
 10
473.9449125772369
 20
437.4510557882821
 30
0
 11
473.9449125772369
 21
439.0729110559
 31
0
  0
LINE
  8
1
 62
3
 10
474.9060993927419
 20
437.4510557882821
 30
0
 11
473.9449125772369
 21
437.4510557882821
 31
0
  0
LINE
  8
1
 62
3
 10
474.9060993927419
 20
439.3306895546259
 30
0
 11
474.9060993927419
 21
437.4510557882821
 31
0
  0
LINE
  8
1
 62
3
 10
472.7761082958239
 20
444.3095239634562
 30
0
 11
473.0724648781759
 21
444.3095239634562
 31
0
  0
LINE
  8
1
 62
3
 10
470.3341884365839
 20
444.3095239634562
 30
0
 11
472.7761082958239
 21
444.3095239634562
 31
0
  0
LINE
  8
1
 62
3
 10
470.3341884365839
 20
437.4510557882821
 30
0
 11
470.3341884365839
 21
444.3095239634562
 31
0
  0
LINE
  8
1
 62
3
 10
471.206636135699
 20
440.2001112138419
 30
0
 11
471.206636135699
 21
437.4510557882821
 31
0
  0
LINE
  8
1
 62
3
 10
426.68540084903
 20
446.3845084783201
 30
0
 11
424.591323771416
 21
446.3845084783201
 31
0
  0
LINE
  8
1
 62
3
 10
423.9754657010669
 20
435.3239024177931
 30
0
 11
426.68540084903
 21
446.3845084783201
 31
0
  0
LINE
  8
1
 62
3
 10
434.445851089087
 20
435.3239024177931
 30
0
 11
423.9754657010669
 21
435.3239024177931
 31
0
  0
LINE
  8
1
 62
3
 10
433.9038640594258
 20
433.1117812056621
 30
0
 11
434.445851089087
 21
435.3239024177931
 31
0
  0
LINE
  8
1
 62
3
 10
421.339401593847
 20
433.1117812056621
 30
0
 11
433.9038640594258
 21
433.1117812056621
 31
0
  0
LINE
  8
1
 62
3
 10
424.591323771416
 20
446.3845084783201
 30
0
 11
421.339401593847
 21
433.1117812056621
 31
0
  0
LINE
  8
1
 62
3
 10
411.144653716558
 20
437.5360236298441
 30
0
 11
414.9003688559239
 21
444.172387266269
 31
0
  0
LINE
  8
1
 62
3
 10
415.9571720012139
 20
444.172387266269
 30
0
 11
414.9003688559239
 21
444.172387266269
 31
0
  0
LINE
  8
1
 62
3
 10
416.4609649630688
 20
437.5360236298441
 30
0
 11
415.9571720012139
 21
444.172387266269
 31
0
  0
LINE
  8
1
 62
3
 10
411.144653716558
 20
437.5360236298441
 30
0
 11
416.4609649630688
 21
437.5360236298441
 31
0
  0
LINE
  8
1
 62
3
 10
408.6408436236638
 20
433.1117812056621
 30
0
 11
406.2620466350929
 21
433.1117812056621
 31
0
  0
LINE
  8
1
 62
3
 10
409.892748670027
 20
435.3239024177931
 30
0
 11
408.6408436236638
 21
433.1117812056621
 31
0
  0
LINE
  8
1
 62
3
 10
416.6288959503909
 20
435.3239024177931
 30
0
 11
409.892748670027
 21
435.3239024177931
 31
0
  0
LINE
  8
1
 62
3
 10
416.7968269376579
 20
433.1117812056621
 30
0
 11
416.6288959503909
 21
435.3239024177931
 31
0
  0
LINE
  8
1
 62
3
 10
418.826509100727
 20
433.1117812056621
 30
0
 11
416.7968269376579
 21
433.1117812056621
 31
0
  0
LINE
  8
1
 62
3
 10
417.818923176965
 20
446.3845084783201
 30
0
 11
418.826509100727
 21
433.1117812056621
 31
0
  0
LINE
  8
1
 62
3
 10
413.77347691399
 20
446.3845084783201
 30
0
 11
417.818923176965
 21
446.3845084783201
 31
0
  0
LINE
  8
1
 62
3
 10
406.2620466350929
 20
433.1117812056621
 30
0
 11
413.77347691399
 21
446.3845084783201
 31
0
  0
LINE
  8
1
 62
3
 10
393.2787687540589
 20
433.1117812056621
 30
0
 11
391.1846916764989
 21
433.1117812056621
 31
0
  0
LINE
  8
1
 62
3
 10
396.0847710509879
 20
444.5644855385979
 30
0
 11
393.2787687540589
 21
433.1117812056621
 31
0
  0
LINE
  8
1
 62
3
 10
396.7253193174979
 20
442.9053946295351
 30
0
 11
396.0847710509879
 21
444.5644855385979
 31
0
  0
LINE
  8
1
 62
3
 10
400.5064756532079
 20
433.1117812056621
 30
0
 11
396.7253193174979
 21
442.9053946295351
 31
0
  0
LINE
  8
1
 62
3
 10
403.7491541419769
 20
433.1117812056621
 30
0
 11
400.5064756532079
 21
433.1117812056621
 31
0
  0
LINE
  8
1
 62
3
 10
407.0010763195969
 20
446.3845084783201
 30
0
 11
403.7491541419769
 21
433.1117812056621
 31
0
  0
LINE
  8
1
 62
3
 10
404.9069992419829
 20
446.3845084783201
 30
0
 11
407.0010763195969
 21
446.3845084783201
 31
0
  0
LINE
  8
1
 62
3
 10
402.0615673366299
 20
434.770872114746
 30
0
 11
404.9069992419829
 21
446.3845084783201
 31
0
  0
LINE
  8
1
 62
3
 10
397.5777294703549
 20
446.3845084783201
 30
0
 11
402.0615673366299
 21
434.770872114746
 31
0
  0
LINE
  8
1
 62
3
 10
394.4366138540139
 20
446.3845084783201
 30
0
 11
397.5777294703549
 21
446.3845084783201
 31
0
  0
LINE
  8
1
 62
3
 10
391.1846916764989
 20
433.1117812056621
 30
0
 11
394.4366138540139
 21
446.3845084783201
 31
0
  0
LINE
  8
1
 62
3
 10
391.923721360898
 20
446.3845084783201
 30
0
 11
389.8296442833339
 21
446.3845084783201
 31
0
  0
LINE
  8
1
 62
3
 10
389.8296442833339
 20
446.3845084783201
 30
0
 11
386.5777221057689
 21
433.1117812056621
 31
0
  0
LINE
  8
1
 62
3
 10
388.671799183329
 20
433.1117812056621
 30
0
 11
391.923721360898
 21
446.3845084783201
 31
0
  0
LINE
  8
1
 62
3
 10
386.5777221057689
 20
433.1117812056621
 30
0
 11
388.671799183329
 21
433.1117812056621
 31
0
  0
LINE
  8
1
 62
3
 10
384.0845019505219
 20
441.739053932891
 30
0
 11
386.1785790280479
 21
441.739053932891
 31
0
  0
LINE
  8
1
 62
3
 10
383.0547265943719
 20
437.5360236298441
 30
0
 11
382.5127395646049
 21
435.3239024177931
 31
0
  0
LINE
  8
1
 62
3
 10
378.8665724389718
 20
437.5360236298441
 30
0
 11
383.0547265943719
 21
437.5360236298441
 31
0
  0
LINE
  8
1
 62
3
 10
379.4085594686189
 20
439.7481448420331
 30
0
 11
378.8665724389718
 21
437.5360236298441
 31
0
  0
LINE
  8
1
 62
3
 10
385.6907907014249
 20
439.7481448420331
 30
0
 11
384.0648296126529
 21
433.1117812056621
 31
0
  0
LINE
  8
1
 62
3
 10
385.6907907014249
 20
439.7481448420331
 30
0
 11
379.4085594686189
 21
439.7481448420331
 31
0
  0
LINE
  8
1
 62
3
 10
374.1364312542755
 20
435.3239024177931
 30
0
 11
376.3043793726031
 21
444.172387266269
 31
0
  0
LINE
  8
1
 62
3
 10
376.3043793726031
 20
444.172387266269
 30
0
 11
384.6806876828999
 21
444.172387266269
 31
0
  0
LINE
  8
1
 62
3
 10
384.6806876828999
 20
444.172387266269
 30
0
 11
384.0845019505219
 21
441.739053932891
 31
0
  0
LINE
  8
1
 62
3
 10
382.5127395646049
 20
435.3239024177931
 30
0
 11
374.1364312542755
 21
435.3239024177931
 31
0
  0
LINE
  8
1
 62
3
 10
384.0648296126529
 20
433.1117812056621
 30
0
 11
371.5003671470404
 21
433.1117812056621
 31
0
  0
LINE
  8
1
 62
3
 10
387.3167517901749
 20
446.3845084783201
 30
0
 11
386.1785790280479
 21
441.739053932891
 31
0
  0
LINE
  8
1
 62
3
 10
374.7522893245841
 20
446.3845084783201
 30
0
 11
387.3167517901749
 21
446.3845084783201
 31
0
  0
LINE
  8
1
 62
3
 10
371.5003671470404
 20
433.1117812056621
 30
0
 11
374.7522893245841
 21
446.3845084783201
 31
0
  0
LINE
  8
1
 62
3
 10
368.9874746540554
 20
433.1117812056621
 30
0
 11
372.2393968314646
 21
446.3845084783201
 31
0
  0
LINE
  8
1
 62
3
 10
366.8933975763357
 20
433.1117812056621
 30
0
 11
368.9874746540554
 21
433.1117812056621
 31
0
  0
LINE
  8
1
 62
3
 10
370.1453197539013
 20
446.3845084783201
 30
0
 11
366.8933975763357
 21
433.1117812056621
 31
0
  0
LINE
  8
1
 62
3
 10
372.2393968314646
 20
446.3845084783201
 30
0
 11
370.1453197539013
 21
446.3845084783201
 31
0
  0
LINE
  8
1
 62
3
 10
353.9101196952979
 20
433.1117812056621
 30
0
 11
354.9940937544088
 21
437.5360236298441
 31
0
  0
LINE
  8
1
 62
3
 10
351.8160426176219
 20
433.1117812056621
 30
0
 11
353.9101196952979
 21
433.1117812056621
 31
0
  0
LINE
  8
1
 62
3
 10
365.3282234693179
 20
436.979895810782
 30
0
 11
364.3805050832052
 21
433.1117812056621
 31
0
  0
LINE
  8
1
 62
3
 10
356.6200548431843
 20
444.172387266269
 30
0
 11
355.5360807840007
 21
439.7481448420331
 31
0
  0
LINE
  8
1
 62
3
 10
364.996363153703
 20
444.172387266269
 30
0
 11
356.6200548431843
 21
444.172387266269
 31
0
  0
LINE
  8
1
 62
3
 10
363.9123890943811
 20
439.7481448420331
 30
0
 11
364.996363153703
 21
444.172387266269
 31
0
  0
LINE
  8
1
 62
3
 10
355.5360807840007
 20
439.7481448420331
 30
0
 11
363.9123890943811
 21
439.7481448420331
 31
0
  0
LINE
  8
1
 62
3
 10
363.3704020649384
 20
437.5360236298441
 30
0
 11
354.9940937544088
 21
437.5360236298441
 31
0
  0
LINE
  8
1
 62
3
 10
362.2864280055655
 20
433.1117812056621
 30
0
 11
363.3704020649384
 21
437.5360236298441
 31
0
  0
LINE
  8
1
 62
3
 10
364.3805050832052
 20
433.1117812056621
 30
0
 11
362.2864280055655
 21
433.1117812056621
 31
0
  0
LINE
  8
1
 62
3
 10
367.632427260738
 20
446.3845084783201
 30
0
 11
365.7649031508845
 21
438.7622048583319
 31
0
  0
LINE
  8
1
 62
3
 10
355.0679647951583
 20
446.3845084783201
 30
0
 11
367.632427260738
 21
446.3845084783201
 31
0
  0
LINE
  8
1
 62
3
 10
355.0679647951583
 20
446.3845084783201
 30
0
 11
351.8160426176219
 21
433.1117812056621
 31
0
  0
LINE
  8
1
 62
3
 10
339.3747517661323
 20
435.3239024177931
 30
0
 11
341.5426998844741
 21
444.172387266269
 31
0
  0
LINE
  8
1
 62
3
 10
341.5426998844741
 20
444.172387266269
 30
0
 11
349.9190081949637
 21
444.172387266269
 31
0
  0
LINE
  8
1
 62
3
 10
349.9190081949637
 20
444.172387266269
 30
0
 11
347.7510600764872
 21
435.3239024177931
 31
0
  0
LINE
  8
1
 62
3
 10
347.7510600764872
 20
435.3239024177931
 30
0
 11
339.3747517661323
 21
435.3239024177931
 31
0
  0
LINE
  8
1
 62
3
 10
349.3031501244914
 20
433.1117812056621
 30
0
 11
336.7386876589662
 21
433.1117812056621
 31
0
  0
LINE
  8
1
 62
3
 10
352.5550723021661
 20
446.3845084783201
 30
0
 11
349.3031501244914
 21
433.1117812056621
 31
0
  0
LINE
  8
1
 62
3
 10
339.9906098364481
 20
446.3845084783201
 30
0
 11
352.5550723021661
 21
446.3845084783201
 31
0
  0
LINE
  8
1
 62
3
 10
336.7386876589662
 20
433.1117812056621
 30
0
 11
339.9906098364481
 21
446.3845084783201
 31
0
  0
LINE
  8
1
 62
3
 10
480.3295031522068
 20
390
 30
0
 11
427.738701733397
 21
390
 31
0
  0
LINE
  8
1
 62
3
 10
477.928830785688
 20
396.1939393939099
 30
0
 11
435.1196812335149
 21
396.1939393939099
 31
0
  0
LINE
  8
1
 62
3
 10
477.928830785688
 20
396.1939393939099
 30
0
 11
480.3295031522068
 21
390
 31
0
  0
LINE
  8
1
 62
3
 10
470.686830708906
 20
414.878917066824
 30
0
 11
467.9069775849489
 21
422.051175145079
 31
0
  0
LINE
  8
1
 62
3
 10
476.284056889192
 20
422.051175145079
 30
0
 11
470.686830708906
 21
414.878917066824
 31
0
  0
LINE
  8
1
 62
3
 10
480.32950315225
 20
422.051175145079
 30
0
 11
476.284056889192
 21
422.051175145079
 31
0
  0
LINE
  8
1
 62
3
 10
472.0292731071679
 20
411.415301218603
 30
0
 11
480.32950315225
 21
422.051175145079
 31
0
  0
LINE
  8
1
 62
3
 10
476.8999712001719
 20
398.848484848477
 30
0
 11
472.0292731071679
 21
411.415301218603
 31
0
  0
LINE
  8
1
 62
3
 10
472.8545249371239
 20
398.848484848477
 30
0
 11
476.8999712001719
 21
398.848484848477
 31
0
  0
LINE
  8
1
 62
3
 10
469.3262692424398
 20
407.951685370502
 30
0
 11
472.8545249371239
 21
398.848484848477
 31
0
  0
LINE
  8
1
 62
3
 10
462.222136662338
 20
398.848484848477
 30
0
 11
469.3262692424398
 21
407.951685370502
 31
0
  0
LINE
  8
1
 62
3
 10
458.1766903993409
 20
398.848484848477
 30
0
 11
462.222136662338
 21
398.848484848477
 31
0
  0
LINE
  8
1
 62
3
 10
467.9838268441308
 20
411.4153012186609
 30
0
 11
458.1766903993409
 21
398.848484848477
 31
0
  0
LINE
  8
1
 62
3
 10
463.8615313219339
 20
422.051175145079
 30
0
 11
467.9838268441308
 21
411.4153012186609
 31
0
  0
LINE
  8
1
 62
3
 10
467.9069775849489
 20
422.051175145079
 30
0
 11
463.8615313219339
 21
422.051175145079
 31
0
  0
LINE
  8
1
 62
3
 10
450.878253440889
 20
422.051175145079
 30
0
 11
445.643060746967
 21
422.051175145079
 31
0
  0
LINE
  8
1
 62
3
 10
446.277386577538
 20
403.2727272727971
 30
0
 11
450.878253440889
 21
422.051175145079
 31
0
  0
LINE
  8
1
 62
3
 10
451.5125792714898
 20
403.2727272727971
 30
0
 11
446.277386577538
 21
403.2727272727971
 31
0
  0
LINE
  8
1
 62
3
 10
456.113446134885
 20
422.051175145079
 30
0
 11
451.5125792714898
 21
403.2727272727971
 31
0
  0
LINE
  8
1
 62
3
 10
461.3486388288079
 20
422.051175145079
 30
0
 11
456.113446134885
 21
422.051175145079
 31
0
  0
LINE
  8
1
 62
3
 10
455.6637979062
 20
398.848484848477
 30
0
 11
461.3486388288079
 21
422.051175145079
 31
0
  0
LINE
  8
1
 62
3
 10
439.958219824279
 20
398.848484848477
 30
0
 11
455.6637979062
 21
398.848484848477
 31
0
  0
LINE
  8
1
 62
3
 10
445.643060746967
 20
422.051175145079
 30
0
 11
439.958219824279
 21
398.848484848477
 31
0
  0
LINE
  8
1
 62
3
 10
438.301425922338
 20
433.1117812056621
 30
0
 11
427.738701733397
 21
390
 31
0
  0
LINE
  8
1
 62
3
 10
444.1648417396059
 20
433.1117812056621
 30
0
 11
438.301425922338
 21
433.1117812056621
 31
0
  0
LINE
  8
1
 62
3
 10
435.1196812335149
 20
396.1939393939099
 30
0
 11
444.1648417396059
 21
433.1117812056621
 31
0
  0
LINE
  8
1
 62
3
 10
300
 20
390
 30
0
 11
307.8527890410551
 21
422.051175145079
 31
0
  0
LINE
  8
1
 62
3
 10
307.8527890410551
 20
422.051175145079
 30
0
 11
314.1350202737522
 21
422.051175145079
 31
0
  0
LINE
  8
1
 62
3
 10
314.1350202737522
 20
422.051175145079
 30
0
 11
307.3662052920627
 21
394.424242424182
 31
0
  0
LINE
  8
1
 62
3
 10
307.3662052920627
 20
394.424242424182
 30
0
 11
312.6013979859417
 21
394.424242424182
 31
0
  0
LINE
  8
1
 62
3
 10
312.6013979859417
 20
394.424242424182
 30
0
 11
320.7251805418237
 21
427.581478175405
 31
0
  0
LINE
  8
1
 62
3
 10
320.7251805418237
 20
427.581478175405
 30
0
 11
303.0340846972904
 21
427.581478175405
 31
0
  0
LINE
  8
1
 62
3
 10
303.0340846972904
 20
427.581478175405
 30
0
 11
304.3890522712754
 21
433.1117812056621
 31
0
  0
LINE
  8
1
 62
3
 10
304.3890522712754
 20
433.1117812056621
 30
0
 11
328.3623793485676
 21
433.1117812056621
 31
0
  0
LINE
  8
1
 62
3
 10
328.3623793485676
 20
433.1117812056621
 30
0
 11
317.799655159648
 21
390
 31
0
  0
LINE
  8
1
 62
3
 10
317.799655159648
 20
390
 30
0
 11
300
 21
390
 31
0
  0
LINE
  8
1
 62
3
 10
321.9878093147745
 20
390
 30
0
 11
329.8405983557677
 21
422.051175145079
 31
0
  0
LINE
  8
1
 62
3
 10
329.8405983557677
 20
422.051175145079
 30
0
 11
336.1228295885776
 21
422.051175145079
 31
0
  0
LINE
  8
1
 62
3
 10
336.1228295885776
 20
422.051175145079
 30
0
 11
329.3540146067826
 21
394.424242424182
 31
0
  0
LINE
  8
1
 62
3
 10
329.3540146067826
 20
394.424242424182
 30
0
 11
334.5892073007672
 21
394.424242424182
 31
0
  0
LINE
  8
1
 62
3
 10
334.5892073007672
 20
394.424242424182
 30
0
 11
341.3580222825731
 21
422.051175145079
 31
0
  0
LINE
  8
1
 62
3
 10
339.7874644743642
 20
390
 30
0
 11
321.9878093147745
 21
390
 31
0
  0
LINE
  8
1
 62
3
 10
341.3580222825731
 20
422.051175145079
 30
0
 11
347.6402535153793
 21
422.051175145079
 31
0
  0
LINE
  8
1
 62
3
 10
347.6402535153793
 20
422.051175145079
 30
0
 11
339.7874644743642
 21
390
 31
0
  0
LINE
  8
1
 62
3
 10
368.581024291314
 20
422.051175145079
 30
0
 11
351.8284076705422
 21
422.051175145079
 31
0
  0
LINE
  8
1
 62
3
 10
351.8284076705422
 20
422.051175145079
 30
0
 11
347.2275408071509
 21
403.2727272727971
 31
0
  0
LINE
  8
1
 62
3
 10
347.2275408071509
 20
403.2727272727971
 30
0
 11
357.6979261951165
 21
403.2727272727971
 31
0
  0
LINE
  8
1
 62
3
 10
357.6979261951165
 20
403.2727272727971
 30
0
 11
355.5299780766982
 21
394.424242424182
 31
0
  0
LINE
  8
1
 62
3
 10
355.5299780766982
 20
394.424242424182
 30
0
 11
345.0595926887872
 21
394.424242424182
 31
0
  0
LINE
  8
1
 62
3
 10
345.0595926887872
 20
394.424242424182
 30
0
 11
343.9756186294799
 21
390
 31
0
  0
LINE
  8
1
 62
3
 10
343.9756186294799
 20
390
 30
0
 11
360.7282352503025
 21
390
 31
0
  0
LINE
  8
1
 62
3
 10
360.7282352503025
 20
390
 30
0
 11
365.0641314872264
 21
407.696969696953
 31
0
  0
LINE
  8
1
 62
3
 10
365.0641314872264
 20
407.696969696953
 30
0
 11
354.5937460991627
 21
407.696969696953
 31
0
  0
LINE
  8
1
 62
3
 10
354.5937460991627
 20
407.696969696953
 30
0
 11
357.0266648441757
 21
417.626932720839
 31
0
  0
LINE
  8
1
 62
3
 10
357.0266648441757
 20
417.626932720839
 30
0
 11
367.4970502321557
 21
417.626932720839
 31
0
  0
LINE
  8
1
 62
3
 10
367.4970502321557
 20
417.626932720839
 30
0
 11
368.581024291314
 21
422.051175145079
 31
0
  0
LINE
  8
1
 62
3
 10
386.8118599193219
 20
410.990569084413
 30
0
 11
389.5217950672519
 21
422.051175145079
 31
0
  0
LINE
  8
1
 62
3
 10
389.5217950672519
 20
422.051175145079
 30
0
 11
372.7691784465314
 21
422.051175145079
 31
0
  0
LINE
  8
1
 62
3
 10
372.7691784465314
 20
422.051175145079
 30
0
 11
364.9163894055382
 21
390
 31
0
  0
LINE
  8
1
 62
3
 10
364.9163894055382
 20
390
 30
0
 11
381.6690060262919
 21
390
 31
0
  0
LINE
  8
1
 62
3
 10
381.6690060262919
 20
390
 30
0
 11
384.378941174266
 21
401.0606060606082
 31
0
  0
LINE
  8
1
 62
3
 10
384.378941174266
 20
401.0606060606082
 30
0
 11
378.0967099414779
 21
401.0606060606082
 31
0
  0
LINE
  8
1
 62
3
 10
378.0967099414779
 20
401.0606060606082
 30
0
 11
376.4707488526909
 21
394.424242424182
 31
0
  0
LINE
  8
1
 62
3
 10
376.4707488526909
 20
394.424242424182
 30
0
 11
372.2825946974881
 21
394.424242424182
 31
0
  0
LINE
  8
1
 62
3
 10
372.2825946974881
 20
394.424242424182
 30
0
 11
377.9674356201178
 21
417.626932720839
 31
0
  0
LINE
  8
1
 62
3
 10
377.9674356201178
 20
417.626932720839
 30
0
 11
382.1555897753099
 21
417.626932720839
 31
0
  0
LINE
  8
1
 62
3
 10
382.1555897753099
 20
417.626932720839
 30
0
 11
380.5296286865159
 21
410.990569084413
 31
0
  0
LINE
  8
1
 62
3
 10
380.5296286865159
 20
410.990569084413
 30
0
 11
386.8118599193219
 21
410.990569084413
 31
0
  0
LINE
  8
1
 62
3
 10
385.8571601814729
 20
390
 30
0
 11
392.1393914142609
 21
390
 31
0
  0
LINE
  8
1
 62
3
 10
402.6097768023359
 20
390
 30
0
 11
410.4625658433508
 21
422.051175145079
 31
0
  0
LINE
  8
1
 62
3
 10
396.3275455694389
 20
390
 30
0
 11
399.7119530603339
 21
403.813466360341
 31
0
  0
LINE
  8
1
 62
3
 10
392.1393914142609
 20
390
 30
0
 11
395.5237989051459
 21
403.813466360341
 31
0
  0
LINE
  8
1
 62
3
 10
393.7099492224659
 20
422.051175145079
 30
0
 11
385.8571601814729
 21
390
 31
0
  0
LINE
  8
1
 62
3
 10
410.4625658433508
 20
422.051175145079
 30
0
 11
404.1803346104349
 21
422.051175145079
 31
0
  0
LINE
  8
1
 62
3
 10
406.7979309574619
 20
390
 30
0
 11
423.55054757827
 21
390
 31
0
  0
LINE
  8
1
 62
3
 10
418.3522904045678
 20
394.424242424182
 30
0
 11
414.164136249467
 21
394.424242424182
 31
0
  0
LINE
  8
1
 62
3
 10
414.650719998459
 20
422.051175145079
 30
0
 11
406.7979309574619
 21
390
 31
0
  0
LINE
  8
1
 62
3
 10
414.164136249467
 20
394.424242424182
 30
0
 11
419.8489771720419
 21
417.626932720839
 31
0
  0
LINE
  8
1
 62
3
 10
431.4033366192889
 20
422.051175145079
 30
0
 11
414.650719998459
 21
422.051175145079
 31
0
  0
LINE
  8
1
 62
3
 10
419.8489771720419
 20
417.626932720839
 30
0
 11
424.037131327292
 21
417.626932720839
 31
0
  0
LINE
  8
1
 62
3
 10
424.037131327292
 20
417.626932720839
 30
0
 11
418.3522904045678
 21
394.424242424182
 31
0
  0
LINE
  8
1
 62
3
 10
431.4033366192889
 20
422.051175145079
 30
0
 11
423.55054757827
 21
390
 31
0
  0
LINE
  8
1
 62
3
 10
399.9921804553309
 20
422.051175145079
 30
0
 11
393.7099492224659
 21
422.051175145079
 31
0
  0
LINE
  8
1
 62
3
 10
396.3275455694389
 20
390
 30
0
 11
402.6097768023359
 21
390
 31
0
  0
LINE
  8
1
 62
3
 10
395.5237989051459
 20
403.813466360341
 30
0
 11
399.7119530603339
 21
403.813466360341
 31
0
  0
LINE
  8
1
 62
3
 10
396.6077729643149
 20
408.2377087845272
 30
0
 11
400.7959271195539
 21
408.2377087845272
 31
0
  0
LINE
  8
1
 62
3
 10
396.6077729643149
 20
408.2377087845272
 30
0
 11
399.9921804553309
 21
422.051175145079
 31
0
  0
LINE
  8
1
 62
3
 10
400.7959271195539
 20
408.2377087845272
 30
0
 11
404.1803346104349
 21
422.051175145079
 31
0
  0
LINE
  8
1
 62
3
 10
365.7649031508845
 20
438.7622048583319
 30
0
 11
365.0328203819372
 21
437.9784478723631
 31
0
  0
LINE
  8
1
 62
3
 10
365.3282234693179
 20
436.979895810782
 30
0
 11
365.0328203819372
 21
437.9784478723631
 31
0
  0
ARC
  8
1
 62
3
 10
473.514586791596
 20
439.3622336822259
 30
0
 40
1.39187009132817
 50
358.7013873342734
 51
66.54486649404674
  0
ARC
  8
1
 62
3
 10
472.789193605106
 20
439.0530393898221
 30
0
 40
1.155889798231653
 50
0.9850581704823435
 51
82.91825463292925
  0
ARC
  8
1
 62
3
 10
472.8643762433019
 20
442.264025930551
 30
0
 40
1.257687287767188
 50
285.1995809529435
 51
80.93139523878851
  0
ARC
  8
1
 62
3
 10
472.9426940693159
 20
442.3039199213811
 30
0
 40
2.00979800886177
 50
304.0700115354233
 51
86.29788871826034
  0
CIRCLE
  8
1
 62
3
 10
472.7358752379369
 20
440.878787878755
 30
0
 40
5.530127989695984
  0
CIRCLE
  8
1
 62
3
 10
472.7358752379369
 20
440.878787878755
 30
0
 40
5.972862778753957
  0
ENDBLK
  8
0
  0
BLOCK
  8
0
  2
WANNENF_SSE
 70
0
 10
499.0008860000019
 20
0
 30
0
  0
LINE
  8
1
 62
2
 10
1859.747778
 20
25
 30
0
 11
1899.747778000001
 21
25
 31
0
  0
LINE
  8
1
 62
2
 10
1864.747778
 20
55
 30
0
 11
1894.747778000001
 21
55
 31
0
  0
LINE
  8
1
 62
2
 10
1869.747778
 20
85
 30
0
 11
1889.747778000001
 21
85
 31
0
  0
LINE
  8
1
 62
2
 10
1859.747778
 20
0
 30
0
 11
1859.747778
 21
25
 31
0
  0
LINE
  8
1
 62
2
 10
1899.747778000001
 20
0
 30
0
 11
1899.747778000001
 21
25
 31
0
  0
LINE
  8
1
 62
2
 10
1894.747778000001
 20
25
 30
0
 11
1894.747778000001
 21
55
 31
0
  0
LINE
  8
1
 62
2
 10
1864.747778
 20
25
 30
0
 11
1864.747778
 21
55
 31
0
  0
LINE
  8
1
 62
2
 10
1864.747778
 20
55
 30
0
 11
1869.747778
 21
85
 31
0
  0
LINE
  8
1
 62
2
 10
1894.747778000001
 20
55
 30
0
 11
1889.747778000001
 21
85
 31
0
  0
LINE
  8
1
 62
2
 10
1874.747778
 20
85
 30
0
 11
1874.747777999969
 21
605
 31
0
  0
LINE
  8
1
 62
2
 10
1884.747778000001
 20
85
 30
0
 11
1884.747778000218
 21
605
 31
0
  0
LINE
  8
1
 62
2
 10
57.81731699985039
 20
25
 30
0
 11
97.81731699985085
 21
25
 31
0
  0
LINE
  8
1
 62
2
 10
62.81731699985039
 20
55
 30
0
 11
92.81731699985085
 21
55
 31
0
  0
LINE
  8
1
 62
2
 10
67.81731699985039
 20
85
 30
0
 11
87.81731699985085
 21
85
 31
0
  0
LINE
  8
1
 62
2
 10
57.81731699985039
 20
0
 30
0
 11
57.81731699985039
 21
25
 31
0
  0
LINE
  8
1
 62
2
 10
97.81731699985085
 20
0
 30
0
 11
97.81731699985085
 21
25
 31
0
  0
LINE
  8
1
 62
2
 10
92.81731699985085
 20
25
 30
0
 11
92.81731699985085
 21
55
 31
0
  0
LINE
  8
1
 62
2
 10
62.81731699985039
 20
25
 30
0
 11
62.81731699985039
 21
55
 31
0
  0
LINE
  8
1
 62
2
 10
62.81731699985039
 20
55
 30
0
 11
67.81731699985039
 21
85
 31
0
  0
LINE
  8
1
 62
2
 10
92.81731699985085
 20
55
 30
0
 11
87.81731699985085
 21
85
 31
0
  0
LINE
  8
1
 62
2
 10
72.81731699985039
 20
85
 30
0
 11
72.81731699981901
 21
605
 31
0
  0
LINE
  8
1
 62
2
 10
82.81731699985085
 20
85
 30
0
 11
82.81731700006776
 21
605
 31
0
  0
LINE
  8
1
 62
2
 10
394.2634913780454
 20
171.7598613912519
 30
0
 11
395.1653271121274
 21
166.8418646132195
 31
0
  0
LINE
  8
1
 62
2
 10
397.3778166879117
 20
182.4976906813977
 30
0
 11
399.1814881560757
 21
172.6616971253338
 31
0
  0
LINE
  8
1
 62
2
 10
412.1318070220078
 20
185.2031978836444
 30
0
 11
411.229971287925
 21
190.1211946616759
 31
0
  0
LINE
  8
1
 62
2
 10
391.5579841757968
 20
186.5138517253467
 30
0
 11
411.229971287925
 21
190.1211946616759
 31
0
  0
LINE
  8
1
 62
2
 10
393.3616556439627
 20
176.6778581692834
 30
0
 11
391.5579841757968
 21
186.5138517253467
 31
0
  0
LINE
  8
1
 62
2
 10
389.3454946000132
 20
170.858025657169
 30
0
 11
388.4436588659314
 21
175.776022435201
 31
0
  0
LINE
  8
1
 62
2
 10
354.9195171537896
 20
164.5451755185914
 30
0
 11
355.8213528878727
 21
159.6271787405599
 31
0
  0
LINE
  8
1
 62
2
 10
358.9356781977389
 20
170.3650080307057
 30
0
 11
359.8375139318226
 21
165.4470112526747
 31
0
  0
LINE
  8
1
 62
2
 10
348.1978489075926
 20
173.4793333405728
 30
0
 11
350.0015203757585
 21
163.6433397845099
 31
0
  0
LINE
  8
1
 62
2
 10
352.2140099515428
 20
179.2991658526871
 30
0
 11
354.0176814197077
 21
169.4631722966237
 31
0
  0
LINE
  8
1
 62
2
 10
332.5420228394154
 20
175.6918229163575
 30
0
 11
352.2140099515428
 21
179.2991658526871
 31
0
  0
LINE
  8
1
 62
2
 10
333.4438585734973
 20
170.7738261383256
 30
0
 11
332.5420228394154
 21
175.6918229163575
 31
0
  0
LINE
  8
1
 62
2
 10
380.49334
 20
85
 30
0
 11
380.49334
 21
164.1513947197013
 31
0
  0
LINE
  8
1
 62
2
 10
370.49334
 20
85
 30
0
 11
370.49334
 21
162.3176486340781
 31
0
  0
LINE
  8
1
 62
2
 10
390.49334
 20
55
 30
0
 11
385.49334
 21
85
 31
0
  0
LINE
  8
1
 62
2
 10
360.49334
 20
55
 30
0
 11
365.49334
 21
85
 31
0
  0
LINE
  8
1
 62
2
 10
360.49334
 20
25
 30
0
 11
360.49334
 21
55
 31
0
  0
LINE
  8
1
 62
2
 10
390.49334
 20
25
 30
0
 11
390.49334
 21
55
 31
0
  0
LINE
  8
1
 62
2
 10
395.49334
 20
0
 30
0
 11
395.49334
 21
25
 31
0
  0
LINE
  8
1
 62
2
 10
355.49334
 20
0
 30
0
 11
355.49334
 21
25
 31
0
  0
LINE
  8
1
 62
2
 10
388.4436588659314
 20
175.776022435201
 30
0
 11
393.3616556439627
 21
176.6778581692834
 31
0
  0
LINE
  8
1
 62
2
 10
354.0176814197077
 20
169.4631722966237
 30
0
 11
358.9356781977389
 21
170.3650080307057
 31
0
  0
LINE
  8
1
 62
2
 10
397.3778166879117
 20
182.4976906813977
 30
0
 11
412.1318070220078
 21
185.2031978836444
 31
0
  0
LINE
  8
1
 62
2
 10
333.4438585734973
 20
170.7738261383256
 30
0
 11
348.1978489075926
 21
173.4793333405728
 31
0
  0
LINE
  8
1
 62
2
 10
394.2634913780454
 20
171.7598613912519
 30
0
 11
399.1814881560757
 21
172.6616971253338
 31
0
  0
LINE
  8
1
 62
2
 10
359.8375139318226
 20
165.4470112526747
 30
0
 11
389.3454946000132
 21
170.858025657169
 31
0
  0
LINE
  8
1
 62
2
 10
350.0015203757585
 20
163.6433397845099
 30
0
 11
354.9195171537896
 21
164.5451755185914
 31
0
  0
LINE
  8
1
 62
2
 10
365.49334
 20
85
 30
0
 11
385.49334
 21
85
 31
0
  0
LINE
  8
1
 62
2
 10
360.49334
 20
55
 30
0
 11
390.49334
 21
55
 31
0
  0
LINE
  8
1
 62
2
 10
355.49334
 20
25
 30
0
 11
395.49334
 21
25
 31
0
  0
LINE
  8
1
 62
2
 10
355.8213528878727
 20
159.6271787405599
 30
0
 11
395.1653271121274
 21
166.8418646132195
 31
0
  0
LINE
  8
1
 62
2
 10
1299.805948575173
 20
172.5914616473624
 30
0
 11
1300.764504948009
 21
177.4987184859738
 31
0
  0
LINE
  8
1
 62
2
 10
1295.857248109399
 20
178.4572748588098
 30
0
 11
1297.774360855071
 21
188.2717885360321
 31
0
  0
LINE
  8
1
 62
2
 10
1284.011146712075
 20
196.0547144931516
 30
0
 11
1283.052590339238
 21
191.1474576545411
 31
0
  0
LINE
  8
1
 62
2
 10
1284.011146712075
 20
196.0547144931516
 30
0
 11
1303.64017406652
 21
192.2204890018061
 31
0
  0
LINE
  8
1
 62
2
 10
1303.64017406652
 20
192.2204890018061
 30
0
 11
1301.723061320846
 21
182.4059753245842
 31
0
  0
LINE
  8
1
 62
2
 10
1306.630318159456
 20
181.4474189517478
 30
0
 11
1305.67176178662
 21
176.5401621131368
 31
0
  0
LINE
  8
1
 62
2
 10
1339.06400328406
 20
164.9230106646696
 30
0
 11
1340.022559656898
 21
169.8302675032805
 31
0
  0
LINE
  8
1
 62
2
 10
1335.115302818286
 20
170.7888238761175
 30
0
 11
1336.073859191123
 21
175.6960807147279
 31
0
  0
LINE
  8
1
 62
2
 10
1344.929816495508
 20
168.8717111304445
 30
0
 11
1346.846929241182
 21
178.6862248076659
 31
0
  0
LINE
  8
1
 62
2
 10
1340.981116029734
 20
174.7375243418919
 30
0
 11
1342.898228775407
 21
184.5520380191133
 31
0
  0
LINE
  8
1
 62
2
 10
1342.898228775407
 20
184.5520380191133
 30
0
 11
1362.52725612985
 21
180.7178125277678
 31
0
  0
LINE
  8
1
 62
2
 10
1362.52725612985
 20
180.7178125277678
 30
0
 11
1361.568699757014
 21
175.8105556891564
 31
0
  0
LINE
  8
1
 62
2
 10
1314.747778
 20
169.6728074403286
 30
0
 11
1314.747778
 21
85
 31
0
  0
LINE
  8
1
 62
2
 10
1324.747778
 20
167.7194628236493
 30
0
 11
1324.747778
 21
85
 31
0
  0
LINE
  8
1
 62
2
 10
1309.747778
 20
85
 30
0
 11
1304.747778
 21
55
 31
0
  0
LINE
  8
1
 62
2
 10
1329.747778
 20
85
 30
0
 11
1334.747778
 21
55
 31
0
  0
LINE
  8
1
 62
2
 10
1334.747778
 20
55
 30
0
 11
1334.747778
 21
25
 31
0
  0
LINE
  8
1
 62
2
 10
1304.747778
 20
55
 30
0
 11
1304.747778
 21
25
 31
0
  0
LINE
  8
1
 62
2
 10
1299.747778
 20
25
 30
0
 11
1299.747778
 21
0
 31
0
  0
LINE
  8
1
 62
2
 10
1339.747778
 20
25
 30
0
 11
1339.747778
 21
0
 31
0
  0
LINE
  8
1
 62
2
 10
1301.723061320846
 20
182.4059753245842
 30
0
 11
1306.630318159456
 21
181.4474189517478
 31
0
  0
LINE
  8
1
 62
2
 10
1336.073859191123
 20
175.6960807147279
 30
0
 11
1340.981116029734
 21
174.7375243418919
 31
0
  0
LINE
  8
1
 62
2
 10
1283.052590339238
 20
191.1474576545411
 30
0
 11
1297.774360855071
 21
188.2717885360321
 31
0
  0
LINE
  8
1
 62
2
 10
1346.846929241182
 20
178.6862248076659
 30
0
 11
1361.568699757014
 21
175.8105556891564
 31
0
  0
LINE
  8
1
 62
2
 10
1295.857248109399
 20
178.4572748588098
 30
0
 11
1300.764504948009
 21
177.4987184859738
 31
0
  0
LINE
  8
1
 62
2
 10
1305.67176178662
 20
176.5401621131368
 30
0
 11
1335.115302818286
 21
170.7888238761175
 31
0
  0
LINE
  8
1
 62
2
 10
1340.022559656898
 20
169.8302675032805
 30
0
 11
1344.929816495508
 21
168.8717111304445
 31
0
  0
LINE
  8
1
 62
2
 10
1309.747778
 20
85
 30
0
 11
1329.747778
 21
85
 31
0
  0
LINE
  8
1
 62
2
 10
1304.747778
 20
55
 30
0
 11
1334.747778
 21
55
 31
0
  0
LINE
  8
1
 62
2
 10
1299.747778
 20
25
 30
0
 11
1339.747778
 21
25
 31
0
  0
LINE
  8
1
 62
2
 10
1299.805948575173
 20
172.5914616473624
 30
0
 11
1339.06400328406
 21
164.9230106646696
 31
0
  0
ENDBLK
  8
0
  0
BLOCK
  8
0
  2
WANNE_PORTOFINO_TREND_DUO_335
 70
0
 10
499.0008860000008
 20
399.9999999999991
 30
0
  0
LINE
  8
1
 62
7
 10
0
 20
605
 30
0
 11
0
 21
640
 31
0
  0
LINE
  8
1
 62
7
 10
0
 20
640
 30
0
 11
1948.121772
 21
640
 31
0
  0
LINE
  8
1
 62
7
 10
0
 20
605
 30
0
 11
1948.121772
 21
605
 31
0
  0
LINE
  8
1
 62
7
 10
1948.121772
 20
605
 30
0
 11
1948.121772
 21
640
 31
0
  0
LINE
  8
1
 62
7
 10
405.8801739656165
 20
165.1311731948554
 30
0
 11
398.5063373152707
 21
165.7763007171752
 31
0
  0
LINE
  8
1
 62
7
 10
415.4999999674346
 20
160.0092798085443
 30
0
 11
407.5302644477997
 21
164.6106083566001
 31
0
  0
LINE
  8
1
 62
7
 10
416
 20
152
 30
0
 11
416
 21
159.1432543859592
 31
0
  0
LINE
  8
1
 62
7
 10
416
 20
152
 30
0
 11
513.9999999999998
 21
152
 31
0
  0
LINE
  8
1
 62
7
 10
513.9999999999998
 20
159.1432543859592
 30
0
 11
513.9999999999998
 21
152
 31
0
  0
LINE
  8
1
 62
7
 10
522.4697355521998
 20
164.6106083566001
 30
0
 11
514.5000000325648
 21
160.0092798085443
 31
0
  0
LINE
  8
1
 62
7
 10
531.4936626847289
 20
165.7763007171752
 30
0
 11
524.1198260343829
 21
165.1311731948554
 31
0
  0
LINE
  8
1
 62
3
  6
DASHDOT
 10
465
 20
200
 30
0
 11
465
 21
127
 31
0
  0
LINE
  8
1
 62
7
 10
317.8753395950914
 20
175
 30
0
 11
553.7587605972019
 21
175
 31
0
  0
LINE
  8
1
 62
7
 10
1807.708752
 20
605
 30
0
 11
1470.874854417311
 21
203.5769914973312
 31
0
  0
LINE
  8
1
 62
7
 10
1394.15321517933
 20
176.5037227680582
 30
0
 11
908.6319545753709
 21
271.9925550835133
 31
0
  0
LINE
  8
1
 62
7
 10
325.030376687719
 20
176.3120521261099
 30
0
 11
848.8970436277748
 21
272.3758971151178
 31
0
  0
LINE
  8
1
 62
7
 10
848.8970429999979
 20
272.3758969999994
 30
0
 11
553.7587605972019
 21
175
 31
0
  0
LINE
  8
1
 62
7
 10
140.740380104365
 20
586.269474348127
 30
0
 11
233.2329158621296
 21
234.6486175241298
 31
0
  0
LINE
  8
1
 62
7
 10
114.529419
 20
590
 30
0
 11
135.904221
 21
590
 31
0
  0
LINE
  8
1
 62
7
 10
537.9876071724718
 20
169.4481246876312
 30
0
 11
542.0257812928737
 21
175
 31
0
  0
LINE
  8
1
 62
7
 10
387.9742187071261
 20
175
 30
0
 11
392.012392827528
 21
169.4481246876312
 31
0
  0
LINE
  8
1
 62
7
 10
387.9742187071261
 20
175
 30
0
 11
392.012392827528
 21
169.4481246876312
 31
0
  0
LINE
  8
1
 62
7
 10
387.9742187071261
 20
175
 30
0
 11
392.012392827528
 21
169.4481246876312
 31
0
  0
LINE
  8
1
 62
7
 10
387.9742187071261
 20
175
 30
0
 11
392.012392827528
 21
169.4481246876312
 31
0
  0
LINE
  8
1
 62
7
 10
387.9742187071261
 20
175
 30
0
 11
392.012392827528
 21
169.4481246876312
 31
0
  0
LINE
  8
1
 62
7
 10
387.9742187071261
 20
175
 30
0
 11
392.012392827528
 21
169.4481246876312
 31
0
  0
LINE
  8
1
 62
7
 10
387.9742187071261
 20
175
 30
0
 11
392.012392827528
 21
169.4481246876312
 31
0
  0
LINE
  8
1
 62
7
 10
387.9742187071261
 20
175
 30
0
 11
392.012392827528
 21
169.4481246876312
 31
0
  0
LINE
  8
1
 62
7
 10
387.9742187071261
 20
175
 30
0
 11
392.012392827528
 21
169.4481246876312
 31
0
  0
LINE
  8
1
 62
7
 10
387.9742187071261
 20
175
 30
0
 11
392.012392827528
 21
169.4481246876312
 31
0
  0
LINE
  8
1
 62
7
 10
387.9742187071261
 20
175
 30
0
 11
392.012392827528
 21
169.4481246876312
 31
0
  0
LINE
  8
1
 62
7
 10
387.9742187071261
 20
175
 30
0
 11
392.012392827528
 21
169.4481246876312
 31
0
  0
LINE
  8
1
 62
7
 10
387.9742187071261
 20
175
 30
0
 11
392.012392827528
 21
169.4481246876312
 31
0
  0
LINE
  8
1
 62
7
 10
387.9742187071261
 20
175
 30
0
 11
392.012392827528
 21
169.4481246876312
 31
0
  0
LINE
  8
1
 62
7
 10
387.9742187071261
 20
175
 30
0
 11
392.012392827528
 21
169.4481246876312
 31
0
  0
LINE
  8
1
 62
7
 10
387.9742187071261
 20
175
 30
0
 11
392.012392827528
 21
169.4481246876312
 31
0
  0
LINE
  8
1
 62
7
 10
387.9742187071261
 20
175
 30
0
 11
392.012392827528
 21
169.4481246876312
 31
0
  0
LINE
  8
1
 62
7
 10
387.9742187071261
 20
175
 30
0
 11
392.012392827528
 21
169.4481246876312
 31
0
  0
LINE
  8
1
 62
7
 10
387.9742187071261
 20
175
 30
0
 11
392.012392827528
 21
169.4481246876312
 31
0
  0
LINE
  8
1
 62
7
 10
387.9742187071261
 20
175
 30
0
 11
392.012392827528
 21
169.4481246876312
 31
0
  0
LINE
  8
1
 62
7
 10
387.9742187071261
 20
175
 30
0
 11
392.012392827528
 21
169.4481246876312
 31
0
  0
LINE
  8
1
 62
7
 10
387.9742187071261
 20
175
 30
0
 11
392.012392827528
 21
169.4481246876312
 31
0
  0
LINE
  8
1
 62
7
 10
387.9742187071261
 20
175
 30
0
 11
392.012392827528
 21
169.4481246876312
 31
0
  0
LINE
  8
1
 62
7
 10
387.9742187071261
 20
175
 30
0
 11
392.012392827528
 21
169.4481246876312
 31
0
  0
LINE
  8
1
 62
7
 10
387.9742187071261
 20
175
 30
0
 11
392.012392827528
 21
169.4481246876312
 31
0
  0
LINE
  8
1
 62
7
 10
387.9742187071261
 20
175
 30
0
 11
392.012392827528
 21
169.4481246876312
 31
0
  0
LINE
  8
1
 62
7
 10
387.9742187071261
 20
175
 30
0
 11
392.012392827528
 21
169.4481246876312
 31
0
  0
LINE
  8
1
 62
7
 10
387.9742187071261
 20
175
 30
0
 11
392.012392827528
 21
169.4481246876312
 31
0
  0
LINE
  8
1
 62
7
 10
387.9742187071261
 20
175
 30
0
 11
392.012392827528
 21
169.4481246876312
 31
0
  0
LINE
  8
1
 62
7
 10
387.9742187071261
 20
175
 30
0
 11
392.012392827528
 21
169.4481246876312
 31
0
  0
LINE
  8
1
 62
7
 10
387.9742187071261
 20
175
 30
0
 11
392.012392827528
 21
169.4481246876312
 31
0
  0
LINE
  8
1
 62
7
 10
387.9742187071261
 20
175
 30
0
 11
392.012392827528
 21
169.4481246876312
 31
0
  0
LINE
  8
1
 62
7
 10
387.9742187071261
 20
175
 30
0
 11
392.012392827528
 21
169.4481246876312
 31
0
  0
LINE
  8
1
 62
7
 10
387.9742187071261
 20
175
 30
0
 11
392.012392827528
 21
169.4481246876312
 31
0
  0
LINE
  8
1
 62
7
 10
387.9742187071261
 20
175
 30
0
 11
392.012392827528
 21
169.4481246876312
 31
0
  0
LINE
  8
1
 62
7
 10
387.9742187071261
 20
175
 30
0
 11
392.012392827528
 21
169.4481246876312
 31
0
  0
LINE
  8
1
 62
7
 10
387.9742187071261
 20
175
 30
0
 11
392.012392827528
 21
169.4481246876312
 31
0
  0
LINE
  8
1
 62
7
 10
387.9742187071261
 20
175
 30
0
 11
392.012392827528
 21
169.4481246876312
 31
0
  0
LINE
  8
1
 62
7
 10
387.9742187071261
 20
175
 30
0
 11
392.012392827528
 21
169.4481246876312
 31
0
  0
LINE
  8
1
 62
7
 10
387.9742187071261
 20
175
 30
0
 11
392.012392827528
 21
169.4481246876312
 31
0
  0
LINE
  8
1
 62
7
 10
387.9742187071261
 20
175
 30
0
 11
392.012392827528
 21
169.4481246876312
 31
0
  0
ARC
  8
1
 62
7
 10
399.2907382739595
 20
174.7420523368428
 30
0
 40
8.999999021817112
 50
216.0303876696782
 51
265.0000020802081
  0
ARC
  8
1
 62
7
 10
524.4697380446908
 20
161.1465021235226
 30
0
 40
4.000005245205833
 50
95.01852832302413
 51
119.9999978455466
  0
ARC
  8
1
 62
7
 10
530.7092617260407
 20
174.7420523368428
 30
0
 40
8.999999021815896
 50
274.9999979197818
 51
323.9696120918895
  0
ARC
  8
1
 62
7
 10
405.5302619553095
 20
161.1465021235226
 30
0
 40
4.000005245498228
 50
60.00000215446255
 51
84.98147167698886
  0
ARC
  8
1
 62
7
 10
114.5357133940552
 20
605.0269031585949
 30
0
 40
15.02690447687679
 50
180.1025785629297
 51
269.9760002317806
  0
ARC
  8
1
 62
7
 10
135.9042210005407
 20
585.000000000701
 30
0
 40
4.999999999298846
 50
14.73757799380718
 51
90.0000000061959
  0
ARC
  8
1
 62
7
 10
514.9999999999998
 20
159.1432543859592
 30
0
 40
0.9999999999993346
 50
119.9999978455373
 51
180
  0
ARC
  8
1
 62
7
 10
415
 20
159.1432543859592
 30
0
 40
1
 50
0
 51
60.00000215448251
  0
ARC
  8
1
 62
7
 10
310.6010049423974
 20
255.0000005746197
 30
0
 40
80.00000000000016
 50
194.7375783619103
 51
280.3911457931067
  0
ARC
  8
1
 62
7
 10
877.7557871184179
 20
115.0000002180987
 30
0
 40
160.0000000000001
 50
78.87348593838168
 51
100.3911457931067
  0
ARC
  8
1
 62
7
 10
1409.591298907806
 20
255.0000002007655
 30
0
 40
79.99999999999997
 50
258.873485938382
 51
320.0000000668372
  0
INSERT
  8
0
  2
WANNENF_SSE
 10
499.0008860000019
 20
0
 30
0
  0
ENDBLK
  8
0
  0
ENDSEC
  0
SECTION
  2
ENTITIES
  0
TEXT
  8
1
 62
2
 10
300
 20
315
 30
0
 40
35
  1
PORTOFINO Trend Duo 335
 41
0.5993999999999999
  0
TEXT
  8
1
 62
3
 10
423.042
 20
67
 30
0
 40
35
  1
Ö 90
 41
0.5993999999999999
 72
1
 73
3
 11
465
 21
102
 31
0
  0
INSERT
  8
0
  2
DLX
 10
300
 20
390
 30
0
  0
INSERT
  8
0
  2
WANNE_PORTOFINO_TREND_DUO_335
 10
499.0008860000008
 20
399.9999999999991
 30
0
  0
ENDSEC
  0
EOF
