  0
SECTION
  2
HEADER
  9
$ACADVER
  1
AC1014
  9
$ACADMAINTVER
 70
           0
  9
$DWGCODEPAGE
  3
ANSI_1252
  9
$INSBASE
 10
0.0
 20
0.0
 30
0.0
  9
$EXTMIN
 10
1.000000000000E+20
 20
1.000000000000E+20
 30
1.000000000000E+20
  9
$EXTMAX
 10
-1.000000000000E+20
 20
-1.000000000000E+20
 30
-1.000000000000E+20
  9
$LIMMIN
 10
0.0
 20
0.0
  9
$LIMMAX
 10
0.0
 20
0.0
  9
$ORTHOMODE
 70
           0
  9
$REGENMODE
 70
           1
  9
$FILLMODE
 70
           1
  9
$QTEXTMODE
 70
           0
  9
$MIRRTEXT
 70
           1
  9
$DRAGMODE
 70
           2
  9
$LTSCALE
 40
1.0
  9
$OSMODE
 70
           0
  9
$ATTMODE
 70
           1
  9
$TEXTSIZE
 40
0.2
  9
$TRACEWID
 40
0.05
  9
$TEXTSTYLE
  7
STANDARD
  9
$CLAYER
  8
0
  9
$CELTYPE
  6
CONTINUOUS
  9
$CECOLOR
 62
         256
  9
$CELTSCALE
 40
1.0
  9
$DELOBJ
 70
           1
  9
$DISPSILH
 70
           0
  9
$DIMSCALE
 40
1.0
  9
$DIMASZ
 40
0.18
  9
$DIMEXO
 40
0.0625
  9
$DIMDLI
 40
0.38
  9
$DIMRND
 40
0.0
  9
$DIMDLE
 40
0.0
  9
$DIMEXE
 40
0.18
  9
$DIMTP
 40
0.0
  9
$DIMTM
 40
0.0
  9
$DIMTXT
 40
0.18
  9
$DIMCEN
 40
0.09
  9
$DIMTSZ
 40
0.0
  9
$DIMTOL
 70
           0
  9
$DIMLIM
 70
           0
  9
$DIMTIH
 70
           1
  9
$DIMTOH
 70
           1
  9
$DIMSE1
 70
           0
  9
$DIMSE2
 70
           0
  9
$DIMTAD
 70
           0
  9
$DIMZIN
 70
           0
  9
$DIMBLK
  1

  9
$DIMASO
 70
           1
  9
$DIMSHO
 70
           1
  9
$DIMPOST
  1

  9
$DIMAPOST
  1

  9
$DIMALT
 70
           0
  9
$DIMALTD
 70
           2
  9
$DIMALTF
 40
25.4
  9
$DIMLFAC
 40
1.0
  9
$DIMTOFL
 70
           0
  9
$DIMTVP
 40
0.0
  9
$DIMTIX
 70
           0
  9
$DIMSOXD
 70
           0
  9
$DIMSAH
 70
           0
  9
$DIMBLK1
  1

  9
$DIMBLK2
  1

  9
$DIMSTYLE
  2
STANDARD
  9
$DIMCLRD
 70
           0
  9
$DIMCLRE
 70
           0
  9
$DIMCLRT
 70
           0
  9
$DIMTFAC
 40
1.0
  9
$DIMGAP
 40
0.09
  9
$DIMJUST
 70
           0
  9
$DIMSD1
 70
           0
  9
$DIMSD2
 70
           0
  9
$DIMTOLJ
 70
           1
  9
$DIMTZIN
 70
           0
  9
$DIMALTZ
 70
           0
  9
$DIMALTTZ
 70
           0
  9
$DIMFIT
 70
           3
  9
$DIMUPT
 70
           0
  9
$DIMUNIT
 70
           2
  9
$DIMDEC
 70
           4
  9
$DIMTDEC
 70
           4
  9
$DIMALTU
 70
           2
  9
$DIMALTTD
 70
           2
  9
$DIMTXSTY
  7
STANDARD
  9
$DIMAUNIT
 70
           0
  9
$LUNITS
 70
           2
  9
$LUPREC
 70
           4
  9
$SKETCHINC
 40
0.1
  9
$FILLETRAD
 40
0.0
  9
$AUNITS
 70
           0
  9
$AUPREC
 70
           0
  9
$MENU
  1
acad
  9
$ELEVATION
 40
0.0
  9
$PELEVATION
 40
0.0
  9
$THICKNESS
 40
0.0
  9
$LIMCHECK
 70
           0
  9
$BLIPMODE
 70
           1
  9
$CHAMFERA
 40
0.0
  9
$CHAMFERB
 40
0.0
  9
$CHAMFERC
 40
0.0
  9
$CHAMFERD
 40
0.0
  9
$SKPOLY
 70
           0
  9
$TDCREATE
 40
0.000000000
  9
$TDUPDATE
 40
0.000000000
  9
$TDINDWG
 40
0.0000000000
  9
$TDUSRTIMER
 40
0.0000000000
  9
$USRTIMER
 70
           1
  9
$ANGBASE
 50
0.0
  9
$ANGDIR
 70
           0
  9
$PDMODE
 70
           0
  9
$PDSIZE
 40
0.0
  9
$PLINEWID
 40
0.0
  9
$COORDS
 70
           0
  9
$SPLFRAME
 70
           0
  9
$SPLINETYPE
 70
           6
  9
$SPLINESEGS
 70
           8
  9
$ATTDIA
 70
           0
  9
$ATTREQ
 70
           1
  9
$HANDLING
 70
           1
  9
$HANDSEED
  5
104
  9
$SURFTAB1
 70
           6
  9
$SURFTAB2
 70
           6
  9
$SURFTYPE
 70
           6
  9
$SURFU
 70
           6
  9
$SURFV
 70
           6
  9
$UCSNAME
  2

  9
$UCSORG
 10
0.0
 20
0.0
 30
0.0
  9
$UCSXDIR
 10
1.0
 20
0.0
 30
0.0
  9
$UCSYDIR
 10
0.0
 20
1.0
 30
0.0
  9
$PUCSNAME
  2

  9
$PUCSORG
 10
0.0
 20
0.0
 30
0.0
  9
$PUCSXDIR
 10
1.0
 20
0.0
 30
0.0
  9
$PUCSYDIR
 10
0.0
 20
1.0
 30
0.0
  9
$USERI1
 70
           0
  9
$USERI2
 70
           0
  9
$USERI3
 70
           0
  9
$USERI4
 70
           0
  9
$USERI5
 70
           0
  9
$USERR1
 40
0.0
  9
$USERR2
 40
0.0
  9
$USERR3
 40
0.0
  9
$USERR4
 40
0.0
  9
$USERR5
 40
0.0
  9
$WORLDVIEW
 70
           1
  9
$SHADEDGE
 70
           3
  9
$SHADEDIF
 70
          70
  9
$TILEMODE
 70
           1
  9
$MAXACTVP
 70
          16
  9
$PINSBASE
 10
0.0
 20
0.0
 30
0.0
  9
$PLIMCHECK
 70
           0
  9
$PEXTMIN
 10
1.000000000000E+20
 20
1.000000000000E+20
 30
1.000000000000E+20
  9
$PEXTMAX
 10
-1.000000000000E+20
 20
-1.000000000000E+20
 30
-1.000000000000E+20
  9
$PLIMMIN
 10
0.0
 20
0.0
  9
$PLIMMAX
 10
12.0
 20
9.0
  9
$UNITMODE
 70
           0
  9
$VISRETAIN
 70
           0
  9
$PLINEGEN
 70
           1
  9
$PSLTSCALE
 70
           0
  9
$TREEDEPTH
 70
        3020
  9
$PICKSTYLE
 70
           1
  9
$CMLSTYLE
  2
STANDARD
  9
$CMLJUST
 70
           0
  9
$CMLSCALE
 40
1.0
  9
$PROXYGRAPHICS
 70
           0
  9
$MEASUREMENT
 70
           0
  0
ENDSEC
  0
SECTION
  2
CLASSES
  0
CLASS
  1
LWPOLYLINE
  2
AcDbPolyline
  3
"AutoCAD"
 90
        0
280
           0
281
           1
  0
CLASS
  1
IMAGE
  2
AcDbRasterImage
  3
ISM
 90
      127
280
           0
281
           1
  0
CLASS
  1
OLE2FRAME
  2
AcDbOle2Frame
  3
""
 90
        0
280
           0
281
           1
  0
CLASS
  1
HATCH
  2
AcDbHatch
  3
"ACAD_SEDONA"
 90
        0
280
           0
281
           1
  0
CLASS
  1
DICTIONARYVAR
  2
AcDbDictionaryVar
  3
"AutoCAD"
 90
        0
280
           0
281
           0
  0
CLASS
  1
RASTERVARIABLES
  2
AcDbRasterVariables
  3
ISM
 90
        0
280
           0
281
           0
  0
CLASS
  1
IMAGEDEF
  2
AcDbRasterImageDef
  3
ISM
 90
        0
280
           0
281
           0
  0
CLASS
  1
IMAGEDEF_REACTOR
  2
AcDbRasterImageDefReactor
  3
ISM
 90
        1
280
           0
281
           0
  0
CLASS
  1
IDBUFFER
  2
AcDbIdBuffer
  3
"Acad"
 90
        0
280
           0
281
           0
  0
CLASS
  1
SPATIAL_FILTER
  2
AcDbSpatialFilter
  3
"Acad"
 90
        0
280
           0
281
           0
  0
CLASS
  1
XRECORD
  2
AcDbXrecord
  3
"<Built In>"
 90
        0
280
           0
281
           0
  0
CLASS
  1
SORTENTSTABLE
  2
AcDbSortentsTable
  3
"AutoCAD"
 90
        0
280
           0
281
           0
  0
CLASS
  1
LAYER_INDEX
  2
AcDbLayerIndex
  3
"Acad"
 90
        0
280
           0
281
           0
  0
CLASS
  1
SPATIAL_INDEX
  2
AcDbSpatialIndex
  3
"Acad"
 90
        0
280
           0
281
           0
  0
CLASS
  1
OBJECT_PTR
  2
CAseDLPNTableRecord
  3
"ASE-LPNTableRecord"
 90
        1
280
           0
281
           0
  0
CLASS
  1
LAYOUT
  2
AcDbLayout
  3
"AutoCAD 2000"
 90
        1
280
           0
281
           0
  0
CLASS
  1
PLOTSETTINGS
  2
AcDbPlotSettings
  3
"AutoCAD 2000"
 90
        1
280
           0
281
           0
  0
CLASS
  1
ACDBDICTIONARYWDFLT
  2
AcDbDictionaryWithDefault
  3
"AutoCAD 2000"
 90
        1
280
           0
281
           0
  0
CLASS
  1
ACDBPLACEHOLDER
  2
AcDbPlaceHolder
  3
"AutoCAD 2000"
 90
        1
280
           0
281
           0
  0
CLASS
  1
VBA_PROJECT
  2
AcDbVbaProject
  3
"acadvba"
 90
        1
280
           0
281
           0
  0
CLASS
  1
WIPEOUT
  2
AcDbWipeout
  3
WipeOut|AutoCAD Express Tool|expresstools@autodesk.com
 90
      127
280
           0
281
           1
  0
CLASS
  1
WIPEOUTVARIABLES
  2
AcDbWipeoutVariables
  3
WipeOut|AutoCAD Express Tool|expresstools@autodesk.com
 90
        0
280
           0
281
           0
  0
CLASS
  1
RTEXT
  2
RText
  3
RText|AutoCAD Express Tool|expresstools@autodesk.com
 90
        0
280
           0
281
           1
  0
CLASS
  1
ARCALIGNEDTEXT
  2
AcDbArcAlignedText
  3
ATEXT|AutoCAD Express Tool|expresstools@autodesk.com
 90
        0
280
           0
281
           1
  0
ENDSEC
  0
SECTION
  2
TABLES
  0
TABLE
  2
VPORT
  5
7
100
AcDbSymbolTable
 70
           1
  0
VPORT
  5
15
100
AcDbSymbolTableRecord
100
AcDbViewportTableRecord
  2
*ACTIVE
 70
           0
 10
0.0
 20
0.0
 11
1.0
 21
1.0
 12
6.591288
 22
4.579184
 13
0.0
 23
0.0
 14
1.0
 24
1.0
 15
0.0
 25
0.0
 16
0.0
 26
0.0
 36
1.0
 17
0.0
 27
0.0
 37
0.0
 40
9.158369
 41
0.688564
 42
50.0
 43
0.0
 44
0.0
 50
0.0
 51
0.0
 71
           0
 72
         100
 73
           1
 74
           1
 75
           0
 76
           0
 77
           0
 78
           0
  0
ENDTAB
  0
TABLE
  2
LTYPE
  5
4
100
AcDbSymbolTable
 70
          10
  0
LTYPE
  5
11
100
AcDbSymbolTableRecord
100
AcDbLinetypeTableRecord
  2
BYBLOCK
 70
          64
  3

 72
          65
 73
           0
 40
0.0
  0
LTYPE
  5
12
100
AcDbSymbolTableRecord
100
AcDbLinetypeTableRecord
  2
BYLAYER
 70
          64
  3

 72
          65
 73
           0
 40
0.0
  0
LTYPE
  5
13
100
AcDbSymbolTableRecord
100
AcDbLinetypeTableRecord
  2
CONTINUOUS
 70
          64
  3
Solid line
 72
          65
 73
           0
 40
0.0
  0
LTYPE
  5
1D
100
AcDbSymbolTableRecord
100
AcDbLinetypeTableRecord
  2
DASHED
 70
          64
  3
Dashed
 72
          65
 73
           2
 40
15.0
 49
12.0
 74
           0
 49
-3.0
 74
           0
  0
LTYPE
  5
1E
100
AcDbSymbolTableRecord
100
AcDbLinetypeTableRecord
  2
DOTTED
 70
          64
  3
Dotted
 72
          65
 73
           2
 40
3.5
 49
0.5
 74
           0
 49
-3.0
 74
           0
  0
LTYPE
  5
1F
100
AcDbSymbolTableRecord
100
AcDbLinetypeTableRecord
  2
DOT_CENTER
 70
          64
  3
Dot_Center
 72
          65
 73
           4
 40
2.0
 49
1.25
 74
           0
 49
-0.25
 74
           0
 49
0.25
 74
           0
 49
-0.25
 74
           0
  0
LTYPE
  5
20
100
AcDbSymbolTableRecord
100
AcDbLinetypeTableRecord
  2
LONG_DASHED
 70
          64
  3
Long_Dashed
 72
          65
 73
           2
 40
2.0
 49
1.5
 74
           0
 49
-0.5
 74
           0
  0
LTYPE
  5
21
100
AcDbSymbolTableRecord
100
AcDbLinetypeTableRecord
  2
DASH_CENTER
 70
          64
  3
Dash_Center
 72
          65
 73
           4
 40
36.0
 49
24.0
 74
           0
 49
-3.0
 74
           0
 49
6.0
 74
           0
 49
-3.0
 74
           0
  0
LTYPE
  5
22
100
AcDbSymbolTableRecord
100
AcDbLinetypeTableRecord
  2
PHANTOM
 70
          64
  3
Phantom
 72
          65
 73
           6
 40
2.5
 49
1.25
 74
           0
 49
-0.25
 74
           0
 49
0.25
 74
           0
 49
-0.25
 74
           0
 49
0.25
 74
           0
 49
-0.25
 74
           0
  0
LTYPE
  5
23
100
AcDbSymbolTableRecord
100
AcDbLinetypeTableRecord
  2
CENTER_DASH_DASH
 70
          64
  3
Center_Dash_Dash
 72
          65
 73
           6
 40
22.0
 49
12.0
 74
           0
 49
-3.0
 74
           0
 49
0.5
 74
           0
 49
-3.0
 74
           0
 49
0.5
 74
           0
 49
-3.0
 74
           0
  0
ENDTAB
  0
TABLE
  2
LAYER
  5
2
100
AcDbSymbolTable
 70
           4
  0
LAYER
  5
14
100
AcDbSymbolTableRecord
100
AcDbLayerTableRecord
  2
0
 70
           0
 62
           7
  6
CONTINUOUS
  0
LAYER
  5
24
100
AcDbSymbolTableRecord
100
AcDbLayerTableRecord
  2
MITTELLINIEN
 70
           0
 62
           7
  6
CONTINUOUS
  0
LAYER
  5
25
100
AcDbSymbolTableRecord
100
AcDbLayerTableRecord
  2
1
 70
           0
 62
           7
  6
CONTINUOUS
  0
LAYER
  5
26
100
AcDbSymbolTableRecord
100
AcDbLayerTableRecord
  2
WANNE
 70
           0
 62
           7
  6
CONTINUOUS
  0
ENDTAB
  0
TABLE
  2
STYLE
  5
3
100
AcDbSymbolTable
 70
           2
  0
STYLE
  5
17
100
AcDbSymbolTableRecord
100
AcDbTextStyleTableRecord
  2
STANDARD
 70
           0
 40
0.0
 41
1.0
 50
0.0
 71
           0
 42
0.0
  3
txt
  4

  0
STYLE
  5
100
100
AcDbSymbolTableRecord
100
AcDbTextStyleTableRecord
  2
CONVERTER_1
 70
           0
 40
0.0
 41
0.71262
 50
0.0
 71
           0
 42
0.0
  3
txt.shx
  4

  0
ENDTAB
  0
TABLE
  2
VIEW
  5
5
100
AcDbSymbolTable
 70
           0
  0
ENDTAB
  0
TABLE
  2
UCS
  5
6
100
AcDbSymbolTable
 70
           0
  0
ENDTAB
  0
TABLE
  2
APPID
  5
8
100
AcDbSymbolTable
 70
           1
  0
APPID
  5
16
100
AcDbSymbolTableRecord
100
AcDbRegAppTableRecord
  2
ACAD
 70
           0
  0
ENDTAB
  0
TABLE
  2
DIMSTYLE
  5
9
100
AcDbSymbolTable
 70
           1
  0
DIMSTYLE
105
18
100
AcDbSymbolTableRecord
100
AcDbDimStyleTableRecord
  2
STANDARD
 70
           0
  3

  4

  5

  6

  7

 40
1.0
 41
0.18
 42
0.0625
 43
0.38
 44
0.18
 45
0.0
 46
0.0
 47
0.0
 48
0.0
 71
           0
 72
           0
 73
           1
 74
           1
 75
           0
 76
           0
 77
           0
 78
           0
140
0.18
141
0.09
142
0.0
143
25.4
144
1.0
145
0.0
146
1.0
147
0.09
170
           0
171
           2
172
           0
173
           0
174
           0
175
           0
176
           0
177
           0
178
           0
270
           2
271
           4
272
           4
273
           2
274
           2
275
           0
280
           0
281
           0
282
           0
283
           1
284
           0
285
           0
286
           0
287
           0
288
           0
340
17
  0
ENDTAB
  0
TABLE
  2
BLOCK_RECORD
  5
1
100
AcDbSymbolTable
 70
           2
  0
BLOCK_RECORD
  5
A
100
AcDbSymbolTableRecord
100
AcDbBlockTableRecord
  2
*MODEL_SPACE
  0
BLOCK_RECORD
  5
B
100
AcDbSymbolTableRecord
100
AcDbBlockTableRecord
  2
*PAPER_SPACE
  0
BLOCK_RECORD
  5
27
100
AcDbSymbolTableRecord
100
AcDbBlockTableRecord
  2
DLX
  0
BLOCK_RECORD
  5
29
100
AcDbSymbolTableRecord
100
AcDbBlockTableRecord
  2
WANNE_PRIME_LINE_247
  0
ENDTAB
  0
ENDSEC
  0
SECTION
  2
BLOCKS
  0
BLOCK
  5
D
100
AcDbEntity
  8
0
100
AcDbBlockBegin
  2
*MODEL_SPACE
 70
           0
 10
0.0
 20
0.0
 30
0.0
  3
*MODEL_SPACE
  1

  0
ENDBLK
  5
E
100
AcDbEntity
  8
0
100
AcDbBlockEnd
  0
BLOCK
  5
F
100
AcDbEntity
 67
           1
  8
0
100
AcDbBlockBegin
  2
*PAPER_SPACE
 70
           0
 10
0.0
 20
0.0
 30
0.0
  3
*PAPER_SPACE
  1

  0
ENDBLK
  5
10
100
AcDbEntity
 67
           1
  8
0
100
AcDbBlockEnd
  0
BLOCK
  5
28
100
AcDbEntity
  8
0
100
AcDbBlockBegin
  2
DLX
 70
           0
 10
0.0
 20
0.0
 30
0.0
  3
DLX
  1

  0
CIRCLE
  5
E2
100
AcDbEntity
  8
1
  6
CONTINUOUS
 62
           3
100
AcDbCircle
 10
522.735875237937
 20
875.138629878756
 40
5.972862778755
  0
CIRCLE
  5
E1
100
AcDbEntity
  8
1
  6
CONTINUOUS
 62
           3
100
AcDbCircle
 10
522.735875237937
 20
875.138629878756
 40
5.530127989697
  0
ARC
  5
E0
100
AcDbEntity
  8
1
  6
CONTINUOUS
 62
           3
100
AcDbCircle
 10
522.942694069316
 20
876.563761921383
 40
2.009798008862
100
AcDbArc
 50
-55.929988464561
 51
86.297888718245
  0
ARC
  5
DF
100
AcDbEntity
  8
1
  6
CONTINUOUS
 62
           3
100
AcDbCircle
 10
522.864376243302
 20
876.523867930553
 40
1.257687287768
100
AcDbArc
 50
-74.800419047062
 51
80.931395238779
  0
ARC
  5
DE
100
AcDbEntity
  8
1
  6
CONTINUOUS
 62
           3
100
AcDbCircle
 10
522.789193605106
 20
873.312881389824
 40
1.155889798231
100
AcDbArc
 50
0.985058170485
 51
82.918254632943
  0
ARC
  5
DD
100
AcDbEntity
  8
1
  6
CONTINUOUS
 62
           3
100
AcDbCircle
 10
523.514586791596
 20
873.622075682227
 40
1.391870091328
100
AcDbArc
 50
-1.298612665717
 51
66.544866494049
  0
LINE
  5
DC
100
AcDbEntity
  8
1
  6
CONTINUOUS
 62
           3
100
AcDbLine
 10
415.328223469318
 20
871.239737810783
 11
415.032820381937
 21
872.238289872364
  0
LINE
  5
DB
100
AcDbEntity
  8
1
  6
CONTINUOUS
 62
           3
100
AcDbLine
 10
415.764903150884
 20
873.022046858334
 11
415.032820381937
 21
872.238289872364
  0
LINE
  5
DA
100
AcDbEntity
  8
1
  6
CONTINUOUS
 62
           3
100
AcDbLine
 10
450.795927119554
 20
842.497550784529
 11
454.180334610435
 21
856.311017145081
  0
LINE
  5
D9
100
AcDbEntity
  8
1
  6
CONTINUOUS
 62
           3
100
AcDbLine
 10
446.607772964315
 20
842.497550784529
 11
449.992180455331
 21
856.311017145081
  0
LINE
  5
D8
100
AcDbEntity
  8
1
  6
CONTINUOUS
 62
           3
100
AcDbLine
 10
446.607772964315
 20
842.497550784529
 11
450.795927119554
 21
842.497550784529
  0
LINE
  5
D7
100
AcDbEntity
  8
1
  6
CONTINUOUS
 62
           3
100
AcDbLine
 10
445.523798905146
 20
838.073308360342
 11
449.711953060334
 21
838.073308360342
  0
LINE
  5
D6
100
AcDbEntity
  8
1
  6
CONTINUOUS
 62
           3
100
AcDbLine
 10
446.327545569439
 20
824.259842000002
 11
452.609776802337
 21
824.259842000002
  0
LINE
  5
D5
100
AcDbEntity
  8
1
  6
CONTINUOUS
 62
           3
100
AcDbLine
 10
449.992180455331
 20
856.311017145081
 11
443.709949222466
 21
856.311017145081
  0
LINE
  5
D4
100
AcDbEntity
  8
1
  6
CONTINUOUS
 62
           3
100
AcDbLine
 10
481.403336619289
 20
856.311017145081
 11
473.55054757827
 21
824.259842000002
  0
LINE
  5
D3
100
AcDbEntity
  8
1
  6
CONTINUOUS
 62
           3
100
AcDbLine
 10
474.037131327292
 20
851.88677472084
 11
468.352290404568
 21
828.684084424184
  0
LINE
  5
D2
100
AcDbEntity
  8
1
  6
CONTINUOUS
 62
           3
100
AcDbLine
 10
469.848977172042
 20
851.88677472084
 11
474.037131327292
 21
851.88677472084
  0
LINE
  5
D1
100
AcDbEntity
  8
1
  6
CONTINUOUS
 62
           3
100
AcDbLine
 10
481.403336619289
 20
856.311017145081
 11
464.650719998459
 21
856.311017145081
  0
LINE
  5
D0
100
AcDbEntity
  8
1
  6
CONTINUOUS
 62
           3
100
AcDbLine
 10
464.164136249468
 20
828.684084424184
 11
469.848977172042
 21
851.88677472084
  0
LINE
  5
CF
100
AcDbEntity
  8
1
  6
CONTINUOUS
 62
           3
100
AcDbLine
 10
464.650719998459
 20
856.311017145081
 11
456.797930957462
 21
824.259842000002
  0
LINE
  5
CE
100
AcDbEntity
  8
1
  6
CONTINUOUS
 62
           3
100
AcDbLine
 10
468.352290404568
 20
828.684084424184
 11
464.164136249468
 21
828.684084424184
  0
LINE
  5
CD
100
AcDbEntity
  8
1
  6
CONTINUOUS
 62
           3
100
AcDbLine
 10
456.797930957462
 20
824.259842000002
 11
473.55054757827
 21
824.259842000002
  0
LINE
  5
CC
100
AcDbEntity
  8
1
  6
CONTINUOUS
 62
           3
100
AcDbLine
 10
460.462565843351
 20
856.311017145081
 11
454.180334610435
 21
856.311017145081
  0
LINE
  5
CB
100
AcDbEntity
  8
1
  6
CONTINUOUS
 62
           3
100
AcDbLine
 10
443.709949222466
 20
856.311017145081
 11
435.857160181473
 21
824.259842000002
  0
LINE
  5
CA
100
AcDbEntity
  8
1
  6
CONTINUOUS
 62
           3
100
AcDbLine
 10
442.139391414261
 20
824.259842000002
 11
445.523798905146
 21
838.073308360342
  0
LINE
  5
C9
100
AcDbEntity
  8
1
  6
CONTINUOUS
 62
           3
100
AcDbLine
 10
446.327545569439
 20
824.259842000002
 11
449.711953060334
 21
838.073308360342
  0
LINE
  5
C8
100
AcDbEntity
  8
1
  6
CONTINUOUS
 62
           3
100
AcDbLine
 10
452.609776802337
 20
824.259842000002
 11
460.462565843351
 21
856.311017145081
  0
LINE
  5
C7
100
AcDbEntity
  8
1
  6
CONTINUOUS
 62
           3
100
AcDbLine
 10
435.857160181473
 20
824.259842000002
 11
442.139391414261
 21
824.259842000002
  0
LINE
  5
C6
100
AcDbEntity
  8
1
  6
CONTINUOUS
 62
           3
100
AcDbLine
 10
430.529628686516
 20
845.250411084415
 11
436.811859919322
 21
845.250411084415
  0
LINE
  5
C5
100
AcDbEntity
  8
1
  6
CONTINUOUS
 62
           3
100
AcDbLine
 10
432.15558977531
 20
851.88677472084
 11
430.529628686516
 21
845.250411084415
  0
LINE
  5
C4
100
AcDbEntity
  8
1
  6
CONTINUOUS
 62
           3
100
AcDbLine
 10
427.967435620118
 20
851.88677472084
 11
432.15558977531
 21
851.88677472084
  0
LINE
  5
C3
100
AcDbEntity
  8
1
  6
CONTINUOUS
 62
           3
100
AcDbLine
 10
422.282594697488
 20
828.684084424184
 11
427.967435620118
 21
851.88677472084
  0
LINE
  5
C2
100
AcDbEntity
  8
1
  6
CONTINUOUS
 62
           3
100
AcDbLine
 10
426.470748852691
 20
828.684084424184
 11
422.282594697488
 21
828.684084424184
  0
LINE
  5
C1
100
AcDbEntity
  8
1
  6
CONTINUOUS
 62
           3
100
AcDbLine
 10
428.096709941478
 20
835.32044806061
 11
426.470748852691
 21
828.684084424184
  0
LINE
  5
C0
100
AcDbEntity
  8
1
  6
CONTINUOUS
 62
           3
100
AcDbLine
 10
434.378941174266
 20
835.32044806061
 11
428.096709941478
 21
835.32044806061
  0
LINE
  5
BF
100
AcDbEntity
  8
1
  6
CONTINUOUS
 62
           3
100
AcDbLine
 10
431.669006026292
 20
824.259842000002
 11
434.378941174266
 21
835.32044806061
  0
LINE
  5
BE
100
AcDbEntity
  8
1
  6
CONTINUOUS
 62
           3
100
AcDbLine
 10
414.916389405538
 20
824.259842000002
 11
431.669006026292
 21
824.259842000002
  0
LINE
  5
BD
100
AcDbEntity
  8
1
  6
CONTINUOUS
 62
           3
100
AcDbLine
 10
422.769178446531
 20
856.311017145081
 11
414.916389405538
 21
824.259842000002
  0
LINE
  5
BC
100
AcDbEntity
  8
1
  6
CONTINUOUS
 62
           3
100
AcDbLine
 10
439.521795067252
 20
856.311017145081
 11
422.769178446531
 21
856.311017145081
  0
LINE
  5
BB
100
AcDbEntity
  8
1
  6
CONTINUOUS
 62
           3
100
AcDbLine
 10
436.811859919322
 20
845.250411084415
 11
439.521795067252
 21
856.311017145081
  0
LINE
  5
BA
100
AcDbEntity
  8
1
  6
CONTINUOUS
 62
           3
100
AcDbLine
 10
417.497050232156
 20
851.88677472084
 11
418.581024291314
 21
856.311017145081
  0
LINE
  5
B9
100
AcDbEntity
  8
1
  6
CONTINUOUS
 62
           3
100
AcDbLine
 10
407.026664844176
 20
851.88677472084
 11
417.497050232156
 21
851.88677472084
  0
LINE
  5
B8
100
AcDbEntity
  8
1
  6
CONTINUOUS
 62
           3
100
AcDbLine
 10
404.593746099163
 20
841.956811696955
 11
407.026664844176
 21
851.88677472084
  0
LINE
  5
B7
100
AcDbEntity
  8
1
  6
CONTINUOUS
 62
           3
100
AcDbLine
 10
415.064131487226
 20
841.956811696955
 11
404.593746099163
 21
841.956811696955
  0
LINE
  5
B6
100
AcDbEntity
  8
1
  6
CONTINUOUS
 62
           3
100
AcDbLine
 10
410.728235250302
 20
824.259842000002
 11
415.064131487226
 21
841.956811696955
  0
LINE
  5
B5
100
AcDbEntity
  8
1
  6
CONTINUOUS
 62
           3
100
AcDbLine
 10
393.97561862948
 20
824.259842000002
 11
410.728235250302
 21
824.259842000002
  0
LINE
  5
B4
100
AcDbEntity
  8
1
  6
CONTINUOUS
 62
           3
100
AcDbLine
 10
395.059592688787
 20
828.684084424184
 11
393.97561862948
 21
824.259842000002
  0
LINE
  5
B3
100
AcDbEntity
  8
1
  6
CONTINUOUS
 62
           3
100
AcDbLine
 10
405.529978076698
 20
828.684084424184
 11
395.059592688787
 21
828.684084424184
  0
LINE
  5
B2
100
AcDbEntity
  8
1
  6
CONTINUOUS
 62
           3
100
AcDbLine
 10
407.697926195117
 20
837.532569272799
 11
405.529978076698
 21
828.684084424184
  0
LINE
  5
B1
100
AcDbEntity
  8
1
  6
CONTINUOUS
 62
           3
100
AcDbLine
 10
397.227540807151
 20
837.532569272799
 11
407.697926195117
 21
837.532569272799
  0
LINE
  5
B0
100
AcDbEntity
  8
1
  6
CONTINUOUS
 62
           3
100
AcDbLine
 10
401.828407670542
 20
856.311017145081
 11
397.227540807151
 21
837.532569272799
  0
LINE
  5
AF
100
AcDbEntity
  8
1
  6
CONTINUOUS
 62
           3
100
AcDbLine
 10
418.581024291314
 20
856.311017145081
 11
401.828407670542
 21
856.311017145081
  0
LINE
  5
AE
100
AcDbEntity
  8
1
  6
CONTINUOUS
 62
           3
100
AcDbLine
 10
397.640253515379
 20
856.311017145081
 11
389.787464474364
 21
824.259842000002
  0
LINE
  5
AD
100
AcDbEntity
  8
1
  6
CONTINUOUS
 62
           3
100
AcDbLine
 10
391.358022282573
 20
856.311017145081
 11
397.640253515379
 21
856.311017145081
  0
LINE
  5
AC
100
AcDbEntity
  8
1
  6
CONTINUOUS
 62
           3
100
AcDbLine
 10
389.787464474364
 20
824.259842000002
 11
371.987809314774
 21
824.259842000002
  0
LINE
  5
AB
100
AcDbEntity
  8
1
  6
CONTINUOUS
 62
           3
100
AcDbLine
 10
384.589207300767
 20
828.684084424184
 11
391.358022282573
 21
856.311017145081
  0
LINE
  5
AA
100
AcDbEntity
  8
1
  6
CONTINUOUS
 62
           3
100
AcDbLine
 10
379.354014606783
 20
828.684084424184
 11
384.589207300767
 21
828.684084424184
  0
LINE
  5
A9
100
AcDbEntity
  8
1
  6
CONTINUOUS
 62
           3
100
AcDbLine
 10
386.122829588578
 20
856.311017145081
 11
379.354014606783
 21
828.684084424184
  0
LINE
  5
A8
100
AcDbEntity
  8
1
  6
CONTINUOUS
 62
           3
100
AcDbLine
 10
379.840598355768
 20
856.311017145081
 11
386.122829588578
 21
856.311017145081
  0
LINE
  5
A7
100
AcDbEntity
  8
1
  6
CONTINUOUS
 62
           3
100
AcDbLine
 10
371.987809314774
 20
824.259842000002
 11
379.840598355768
 21
856.311017145081
  0
LINE
  5
A6
100
AcDbEntity
  8
1
  6
CONTINUOUS
 62
           3
100
AcDbLine
 10
367.799655159648
 20
824.259842000002
 11
350.0
 21
824.259842000002
  0
LINE
  5
A5
100
AcDbEntity
  8
1
  6
CONTINUOUS
 62
           3
100
AcDbLine
 10
378.362379348568
 20
867.371623205664
 11
367.799655159648
 21
824.259842000002
  0
LINE
  5
A4
100
AcDbEntity
  8
1
  6
CONTINUOUS
 62
           3
100
AcDbLine
 10
354.389052271275
 20
867.371623205664
 11
378.362379348568
 21
867.371623205664
  0
LINE
  5
A3
100
AcDbEntity
  8
1
  6
CONTINUOUS
 62
           3
100
AcDbLine
 10
353.03408469729
 20
861.841320175406
 11
354.389052271275
 21
867.371623205664
  0
LINE
  5
A2
100
AcDbEntity
  8
1
  6
CONTINUOUS
 62
           3
100
AcDbLine
 10
370.725180541824
 20
861.841320175406
 11
353.03408469729
 21
861.841320175406
  0
LINE
  5
A1
100
AcDbEntity
  8
1
  6
CONTINUOUS
 62
           3
100
AcDbLine
 10
362.601397985942
 20
828.684084424184
 11
370.725180541824
 21
861.841320175406
  0
LINE
  5
A0
100
AcDbEntity
  8
1
  6
CONTINUOUS
 62
           3
100
AcDbLine
 10
357.366205292063
 20
828.684084424184
 11
362.601397985942
 21
828.684084424184
  0
LINE
  5
9F
100
AcDbEntity
  8
1
  6
CONTINUOUS
 62
           3
100
AcDbLine
 10
364.135020273752
 20
856.311017145081
 11
357.366205292063
 21
828.684084424184
  0
LINE
  5
9E
100
AcDbEntity
  8
1
  6
CONTINUOUS
 62
           3
100
AcDbLine
 10
357.852789041055
 20
856.311017145081
 11
364.135020273752
 21
856.311017145081
  0
LINE
  5
9D
100
AcDbEntity
  8
1
  6
CONTINUOUS
 62
           3
100
AcDbLine
 10
350.0
 20
824.259842000002
 11
357.852789041055
 21
856.311017145081
  0
LINE
  5
9C
100
AcDbEntity
  8
1
  6
CONTINUOUS
 62
           3
100
AcDbLine
 10
485.119681233515
 20
830.453781393911
 11
494.164841739606
 21
867.371623205664
  0
LINE
  5
9B
100
AcDbEntity
  8
1
  6
CONTINUOUS
 62
           3
100
AcDbLine
 10
494.164841739606
 20
867.371623205664
 11
488.301425922338
 21
867.371623205664
  0
LINE
  5
9A
100
AcDbEntity
  8
1
  6
CONTINUOUS
 62
           3
100
AcDbLine
 10
488.301425922338
 20
867.371623205664
 11
477.738701733397
 21
824.259842000002
  0
LINE
  5
99
100
AcDbEntity
  8
1
  6
CONTINUOUS
 62
           3
100
AcDbLine
 10
495.643060746967
 20
856.311017145081
 11
489.958219824279
 21
833.108326848479
  0
LINE
  5
98
100
AcDbEntity
  8
1
  6
CONTINUOUS
 62
           3
100
AcDbLine
 10
489.958219824279
 20
833.108326848479
 11
505.6637979062
 21
833.108326848479
  0
LINE
  5
97
100
AcDbEntity
  8
1
  6
CONTINUOUS
 62
           3
100
AcDbLine
 10
505.6637979062
 20
833.108326848479
 11
511.348638828808
 21
856.311017145081
  0
LINE
  5
96
100
AcDbEntity
  8
1
  6
CONTINUOUS
 62
           3
100
AcDbLine
 10
511.348638828808
 20
856.311017145081
 11
506.113446134885
 21
856.311017145081
  0
LINE
  5
95
100
AcDbEntity
  8
1
  6
CONTINUOUS
 62
           3
100
AcDbLine
 10
506.113446134885
 20
856.311017145081
 11
501.51257927149
 21
837.532569272799
  0
LINE
  5
94
100
AcDbEntity
  8
1
  6
CONTINUOUS
 62
           3
100
AcDbLine
 10
501.51257927149
 20
837.532569272799
 11
496.277386577538
 21
837.532569272799
  0
LINE
  5
93
100
AcDbEntity
  8
1
  6
CONTINUOUS
 62
           3
100
AcDbLine
 10
496.277386577538
 20
837.532569272799
 11
500.878253440889
 21
856.311017145081
  0
LINE
  5
92
100
AcDbEntity
  8
1
  6
CONTINUOUS
 62
           3
100
AcDbLine
 10
500.878253440889
 20
856.311017145081
 11
495.643060746967
 21
856.311017145081
  0
LINE
  5
91
100
AcDbEntity
  8
1
  6
CONTINUOUS
 62
           3
100
AcDbLine
 10
517.906977584949
 20
856.311017145081
 11
513.861531321934
 21
856.311017145081
  0
LINE
  5
90
100
AcDbEntity
  8
1
  6
CONTINUOUS
 62
           3
100
AcDbLine
 10
513.861531321934
 20
856.311017145081
 11
517.983826844131
 21
845.675143218663
  0
LINE
  5
8F
100
AcDbEntity
  8
1
  6
CONTINUOUS
 62
           3
100
AcDbLine
 10
517.983826844131
 20
845.675143218663
 11
508.176690399341
 21
833.108326848479
  0
LINE
  5
8E
100
AcDbEntity
  8
1
  6
CONTINUOUS
 62
           3
100
AcDbLine
 10
508.176690399341
 20
833.108326848479
 11
512.222136662338
 21
833.108326848479
  0
LINE
  5
8D
100
AcDbEntity
  8
1
  6
CONTINUOUS
 62
           3
100
AcDbLine
 10
512.222136662338
 20
833.108326848479
 11
519.32626924244
 21
842.211527370504
  0
LINE
  5
8C
100
AcDbEntity
  8
1
  6
CONTINUOUS
 62
           3
100
AcDbLine
 10
519.32626924244
 20
842.211527370504
 11
522.854524937124
 21
833.108326848479
  0
LINE
  5
8B
100
AcDbEntity
  8
1
  6
CONTINUOUS
 62
           3
100
AcDbLine
 10
522.854524937124
 20
833.108326848479
 11
526.899971200172
 21
833.108326848479
  0
LINE
  5
8A
100
AcDbEntity
  8
1
  6
CONTINUOUS
 62
           3
100
AcDbLine
 10
526.899971200172
 20
833.108326848479
 11
522.029273107168
 21
845.675143218604
  0
LINE
  5
89
100
AcDbEntity
  8
1
  6
CONTINUOUS
 62
           3
100
AcDbLine
 10
522.029273107168
 20
845.675143218604
 11
530.32950315225
 21
856.311017145081
  0
LINE
  5
88
100
AcDbEntity
  8
1
  6
CONTINUOUS
 62
           3
100
AcDbLine
 10
530.32950315225
 20
856.311017145081
 11
526.284056889192
 21
856.311017145081
  0
LINE
  5
87
100
AcDbEntity
  8
1
  6
CONTINUOUS
 62
           3
100
AcDbLine
 10
526.284056889192
 20
856.311017145081
 11
520.686830708906
 21
849.138759066825
  0
LINE
  5
86
100
AcDbEntity
  8
1
  6
CONTINUOUS
 62
           3
100
AcDbLine
 10
520.686830708906
 20
849.138759066825
 11
517.906977584949
 21
856.311017145081
  0
LINE
  5
85
100
AcDbEntity
  8
1
  6
CONTINUOUS
 62
           3
100
AcDbLine
 10
527.928830785688
 20
830.453781393911
 11
530.329503152207
 21
824.259842000002
  0
LINE
  5
84
100
AcDbEntity
  8
1
  6
CONTINUOUS
 62
           3
100
AcDbLine
 10
527.928830785688
 20
830.453781393911
 11
485.119681233515
 21
830.453781393911
  0
LINE
  5
83
100
AcDbEntity
  8
1
  6
CONTINUOUS
 62
           3
100
AcDbLine
 10
530.329503152207
 20
824.259842000002
 11
477.738701733397
 21
824.259842000002
  0
LINE
  5
82
100
AcDbEntity
  8
1
  6
CONTINUOUS
 62
           3
100
AcDbLine
 10
386.738687658966
 20
867.371623205664
 11
389.990609836448
 21
880.644350478322
  0
LINE
  5
81
100
AcDbEntity
  8
1
  6
CONTINUOUS
 62
           3
100
AcDbLine
 10
389.990609836448
 20
880.644350478322
 11
402.555072302166
 21
880.644350478322
  0
LINE
  5
80
100
AcDbEntity
  8
1
  6
CONTINUOUS
 62
           3
100
AcDbLine
 10
402.555072302166
 20
880.644350478322
 11
399.303150124491
 21
867.371623205664
  0
LINE
  5
7F
100
AcDbEntity
  8
1
  6
CONTINUOUS
 62
           3
100
AcDbLine
 10
399.303150124491
 20
867.371623205664
 11
386.738687658966
 21
867.371623205664
  0
LINE
  5
7E
100
AcDbEntity
  8
1
  6
CONTINUOUS
 62
           3
100
AcDbLine
 10
397.751060076487
 20
869.583744417795
 11
389.374751766132
 21
869.583744417795
  0
LINE
  5
7D
100
AcDbEntity
  8
1
  6
CONTINUOUS
 62
           3
100
AcDbLine
 10
399.919008194964
 20
878.432229266271
 11
397.751060076487
 21
869.583744417795
  0
LINE
  5
7C
100
AcDbEntity
  8
1
  6
CONTINUOUS
 62
           3
100
AcDbLine
 10
391.542699884474
 20
878.432229266271
 11
399.919008194964
 21
878.432229266271
  0
LINE
  5
7B
100
AcDbEntity
  8
1
  6
CONTINUOUS
 62
           3
100
AcDbLine
 10
389.374751766132
 20
869.583744417795
 11
391.542699884474
 21
878.432229266271
  0
LINE
  5
7A
100
AcDbEntity
  8
1
  6
CONTINUOUS
 62
           3
100
AcDbLine
 10
405.067964795158
 20
880.644350478322
 11
401.816042617622
 21
867.371623205664
  0
LINE
  5
79
100
AcDbEntity
  8
1
  6
CONTINUOUS
 62
           3
100
AcDbLine
 10
405.067964795158
 20
880.644350478322
 11
417.632427260738
 21
880.644350478322
  0
LINE
  5
78
100
AcDbEntity
  8
1
  6
CONTINUOUS
 62
           3
100
AcDbLine
 10
417.632427260738
 20
880.644350478322
 11
415.764903150884
 21
873.022046858334
  0
LINE
  5
77
100
AcDbEntity
  8
1
  6
CONTINUOUS
 62
           3
100
AcDbLine
 10
414.380505083205
 20
867.371623205664
 11
412.286428005565
 21
867.371623205664
  0
LINE
  5
76
100
AcDbEntity
  8
1
  6
CONTINUOUS
 62
           3
100
AcDbLine
 10
412.286428005565
 20
867.371623205664
 11
413.370402064938
 21
871.795865629846
  0
LINE
  5
75
100
AcDbEntity
  8
1
  6
CONTINUOUS
 62
           3
100
AcDbLine
 10
413.370402064938
 20
871.795865629846
 11
404.994093754409
 21
871.795865629846
  0
LINE
  5
74
100
AcDbEntity
  8
1
  6
CONTINUOUS
 62
           3
100
AcDbLine
 10
405.536080784001
 20
874.007986842035
 11
413.912389094381
 21
874.007986842035
  0
LINE
  5
73
100
AcDbEntity
  8
1
  6
CONTINUOUS
 62
           3
100
AcDbLine
 10
413.912389094381
 20
874.007986842035
 11
414.996363153703
 21
878.432229266271
  0
LINE
  5
72
100
AcDbEntity
  8
1
  6
CONTINUOUS
 62
           3
100
AcDbLine
 10
414.996363153703
 20
878.432229266271
 11
406.620054843184
 21
878.432229266271
  0
LINE
  5
71
100
AcDbEntity
  8
1
  6
CONTINUOUS
 62
           3
100
AcDbLine
 10
406.620054843184
 20
878.432229266271
 11
405.536080784001
 21
874.007986842035
  0
LINE
  5
70
100
AcDbEntity
  8
1
  6
CONTINUOUS
 62
           3
100
AcDbLine
 10
415.328223469318
 20
871.239737810783
 11
414.380505083205
 21
867.371623205664
  0
LINE
  5
6F
100
AcDbEntity
  8
1
  6
CONTINUOUS
 62
           3
100
AcDbLine
 10
401.816042617622
 20
867.371623205664
 11
403.910119695298
 21
867.371623205664
  0
LINE
  5
6E
100
AcDbEntity
  8
1
  6
CONTINUOUS
 62
           3
100
AcDbLine
 10
403.910119695298
 20
867.371623205664
 11
404.994093754409
 21
871.795865629846
  0
LINE
  5
6D
100
AcDbEntity
  8
1
  6
CONTINUOUS
 62
           3
100
AcDbLine
 10
422.239396831465
 20
880.644350478322
 11
420.145319753901
 21
880.644350478322
  0
LINE
  5
6C
100
AcDbEntity
  8
1
  6
CONTINUOUS
 62
           3
100
AcDbLine
 10
420.145319753901
 20
880.644350478322
 11
416.893397576336
 21
867.371623205664
  0
LINE
  5
6B
100
AcDbEntity
  8
1
  6
CONTINUOUS
 62
           3
100
AcDbLine
 10
416.893397576336
 20
867.371623205664
 11
418.987474654055
 21
867.371623205664
  0
LINE
  5
6A
100
AcDbEntity
  8
1
  6
CONTINUOUS
 62
           3
100
AcDbLine
 10
418.987474654055
 20
867.371623205664
 11
422.239396831465
 21
880.644350478322
  0
LINE
  5
69
100
AcDbEntity
  8
1
  6
CONTINUOUS
 62
           3
100
AcDbLine
 10
421.50036714704
 20
867.371623205664
 11
424.752289324584
 21
880.644350478322
  0
LINE
  5
68
100
AcDbEntity
  8
1
  6
CONTINUOUS
 62
           3
100
AcDbLine
 10
424.752289324584
 20
880.644350478322
 11
437.316751790175
 21
880.644350478322
  0
LINE
  5
67
100
AcDbEntity
  8
1
  6
CONTINUOUS
 62
           3
100
AcDbLine
 10
437.316751790175
 20
880.644350478322
 11
436.178579028048
 21
875.998895932893
  0
LINE
  5
66
100
AcDbEntity
  8
1
  6
CONTINUOUS
 62
           3
100
AcDbLine
 10
434.064829612653
 20
867.371623205664
 11
421.50036714704
 21
867.371623205664
  0
LINE
  5
65
100
AcDbEntity
  8
1
  6
CONTINUOUS
 62
           3
100
AcDbLine
 10
432.512739564605
 20
869.583744417795
 11
424.136431254276
 21
869.583744417795
  0
LINE
  5
64
100
AcDbEntity
  8
1
  6
CONTINUOUS
 62
           3
100
AcDbLine
 10
434.6806876829
 20
878.432229266271
 11
434.084501950522
 21
875.998895932893
  0
LINE
  5
63
100
AcDbEntity
  8
1
  6
CONTINUOUS
 62
           3
100
AcDbLine
 10
426.304379372603
 20
878.432229266271
 11
434.6806876829
 21
878.432229266271
  0
LINE
  5
62
100
AcDbEntity
  8
1
  6
CONTINUOUS
 62
           3
100
AcDbLine
 10
424.136431254276
 20
869.583744417795
 11
426.304379372603
 21
878.432229266271
  0
LINE
  5
61
100
AcDbEntity
  8
1
  6
CONTINUOUS
 62
           3
100
AcDbLine
 10
435.690790701425
 20
874.007986842035
 11
429.408559468619
 21
874.007986842035
  0
LINE
  5
60
100
AcDbEntity
  8
1
  6
CONTINUOUS
 62
           3
100
AcDbLine
 10
435.690790701425
 20
874.007986842035
 11
434.064829612653
 21
867.371623205664
  0
LINE
  5
5F
100
AcDbEntity
  8
1
  6
CONTINUOUS
 62
           3
100
AcDbLine
 10
429.408559468619
 20
874.007986842035
 11
428.866572438972
 21
871.795865629846
  0
LINE
  5
5E
100
AcDbEntity
  8
1
  6
CONTINUOUS
 62
           3
100
AcDbLine
 10
428.866572438972
 20
871.795865629846
 11
433.054726594372
 21
871.795865629846
  0
LINE
  5
5D
100
AcDbEntity
  8
1
  6
CONTINUOUS
 62
           3
100
AcDbLine
 10
433.054726594372
 20
871.795865629846
 11
432.512739564605
 21
869.583744417795
  0
LINE
  5
5C
100
AcDbEntity
  8
1
  6
CONTINUOUS
 62
           3
100
AcDbLine
 10
434.084501950522
 20
875.998895932893
 11
436.178579028048
 21
875.998895932893
  0
LINE
  5
5B
100
AcDbEntity
  8
1
  6
CONTINUOUS
 62
           3
100
AcDbLine
 10
436.577722105769
 20
867.371623205664
 11
438.671799183329
 21
867.371623205664
  0
LINE
  5
5A
100
AcDbEntity
  8
1
  6
CONTINUOUS
 62
           3
100
AcDbLine
 10
438.671799183329
 20
867.371623205664
 11
441.923721360899
 21
880.644350478322
  0
LINE
  5
59
100
AcDbEntity
  8
1
  6
CONTINUOUS
 62
           3
100
AcDbLine
 10
439.829644283334
 20
880.644350478322
 11
436.577722105769
 21
867.371623205664
  0
LINE
  5
58
100
AcDbEntity
  8
1
  6
CONTINUOUS
 62
           3
100
AcDbLine
 10
441.923721360899
 20
880.644350478322
 11
439.829644283334
 21
880.644350478322
  0
LINE
  5
57
100
AcDbEntity
  8
1
  6
CONTINUOUS
 62
           3
100
AcDbLine
 10
441.184691676499
 20
867.371623205664
 11
444.436613854015
 21
880.644350478322
  0
LINE
  5
56
100
AcDbEntity
  8
1
  6
CONTINUOUS
 62
           3
100
AcDbLine
 10
444.436613854015
 20
880.644350478322
 11
447.577729470355
 21
880.644350478322
  0
LINE
  5
55
100
AcDbEntity
  8
1
  6
CONTINUOUS
 62
           3
100
AcDbLine
 10
447.577729470355
 20
880.644350478322
 11
452.06156733663
 21
869.030714114748
  0
LINE
  5
54
100
AcDbEntity
  8
1
  6
CONTINUOUS
 62
           3
100
AcDbLine
 10
452.06156733663
 20
869.030714114748
 11
454.906999241983
 21
880.644350478322
  0
LINE
  5
53
100
AcDbEntity
  8
1
  6
CONTINUOUS
 62
           3
100
AcDbLine
 10
454.906999241983
 20
880.644350478322
 11
457.001076319597
 21
880.644350478322
  0
LINE
  5
52
100
AcDbEntity
  8
1
  6
CONTINUOUS
 62
           3
100
AcDbLine
 10
457.001076319597
 20
880.644350478322
 11
453.749154141977
 21
867.371623205664
  0
LINE
  5
51
100
AcDbEntity
  8
1
  6
CONTINUOUS
 62
           3
100
AcDbLine
 10
453.749154141977
 20
867.371623205664
 11
450.506475653208
 21
867.371623205664
  0
LINE
  5
50
100
AcDbEntity
  8
1
  6
CONTINUOUS
 62
           3
100
AcDbLine
 10
450.506475653208
 20
867.371623205664
 11
446.725319317498
 21
877.165236629536
  0
LINE
  5
4F
100
AcDbEntity
  8
1
  6
CONTINUOUS
 62
           3
100
AcDbLine
 10
446.725319317498
 20
877.165236629536
 11
446.084771050988
 21
878.824327538599
  0
LINE
  5
4E
100
AcDbEntity
  8
1
  6
CONTINUOUS
 62
           3
100
AcDbLine
 10
446.084771050988
 20
878.824327538599
 11
443.27876875406
 21
867.371623205664
  0
LINE
  5
4D
100
AcDbEntity
  8
1
  6
CONTINUOUS
 62
           3
100
AcDbLine
 10
443.27876875406
 20
867.371623205664
 11
441.184691676499
 21
867.371623205664
  0
LINE
  5
4C
100
AcDbEntity
  8
1
  6
CONTINUOUS
 62
           3
100
AcDbLine
 10
456.262046635093
 20
867.371623205664
 11
463.77347691399
 21
880.644350478322
  0
LINE
  5
4B
100
AcDbEntity
  8
1
  6
CONTINUOUS
 62
           3
100
AcDbLine
 10
463.77347691399
 20
880.644350478322
 11
467.818923176965
 21
880.644350478322
  0
LINE
  5
4A
100
AcDbEntity
  8
1
  6
CONTINUOUS
 62
           3
100
AcDbLine
 10
467.818923176965
 20
880.644350478322
 11
468.826509100727
 21
867.371623205664
  0
LINE
  5
49
100
AcDbEntity
  8
1
  6
CONTINUOUS
 62
           3
100
AcDbLine
 10
468.826509100727
 20
867.371623205664
 11
466.796826937658
 21
867.371623205664
  0
LINE
  5
48
100
AcDbEntity
  8
1
  6
CONTINUOUS
 62
           3
100
AcDbLine
 10
466.796826937658
 20
867.371623205664
 11
466.628895950391
 21
869.583744417795
  0
LINE
  5
47
100
AcDbEntity
  8
1
  6
CONTINUOUS
 62
           3
100
AcDbLine
 10
466.628895950391
 20
869.583744417795
 11
459.892748670027
 21
869.583744417795
  0
LINE
  5
46
100
AcDbEntity
  8
1
  6
CONTINUOUS
 62
           3
100
AcDbLine
 10
459.892748670027
 20
869.583744417795
 11
458.640843623664
 21
867.371623205664
  0
LINE
  5
45
100
AcDbEntity
  8
1
  6
CONTINUOUS
 62
           3
100
AcDbLine
 10
458.640843623664
 20
867.371623205664
 11
456.262046635093
 21
867.371623205664
  0
LINE
  5
44
100
AcDbEntity
  8
1
  6
CONTINUOUS
 62
           3
100
AcDbLine
 10
461.144653716558
 20
871.795865629846
 11
466.460964963069
 21
871.795865629846
  0
LINE
  5
43
100
AcDbEntity
  8
1
  6
CONTINUOUS
 62
           3
100
AcDbLine
 10
466.460964963069
 20
871.795865629846
 11
465.957172001214
 21
878.432229266271
  0
LINE
  5
42
100
AcDbEntity
  8
1
  6
CONTINUOUS
 62
           3
100
AcDbLine
 10
465.957172001214
 20
878.432229266271
 11
464.900368855924
 21
878.432229266271
  0
LINE
  5
41
100
AcDbEntity
  8
1
  6
CONTINUOUS
 62
           3
100
AcDbLine
 10
461.144653716558
 20
871.795865629846
 11
464.900368855924
 21
878.432229266271
  0
LINE
  5
40
100
AcDbEntity
  8
1
  6
CONTINUOUS
 62
           3
100
AcDbLine
 10
474.591323771416
 20
880.644350478322
 11
471.339401593848
 21
867.371623205664
  0
LINE
  5
3F
100
AcDbEntity
  8
1
  6
CONTINUOUS
 62
           3
100
AcDbLine
 10
471.339401593848
 20
867.371623205664
 11
483.903864059426
 21
867.371623205664
  0
LINE
  5
3E
100
AcDbEntity
  8
1
  6
CONTINUOUS
 62
           3
100
AcDbLine
 10
483.903864059426
 20
867.371623205664
 11
484.445851089087
 21
869.583744417795
  0
LINE
  5
3D
100
AcDbEntity
  8
1
  6
CONTINUOUS
 62
           3
100
AcDbLine
 10
484.445851089087
 20
869.583744417795
 11
473.975465701067
 21
869.583744417795
  0
LINE
  5
3C
100
AcDbEntity
  8
1
  6
CONTINUOUS
 62
           3
100
AcDbLine
 10
473.975465701067
 20
869.583744417795
 11
476.68540084903
 21
880.644350478322
  0
LINE
  5
3B
100
AcDbEntity
  8
1
  6
CONTINUOUS
 62
           3
100
AcDbLine
 10
476.68540084903
 20
880.644350478322
 11
474.591323771416
 21
880.644350478322
  0
LINE
  5
3A
100
AcDbEntity
  8
1
  6
CONTINUOUS
 62
           3
100
AcDbLine
 10
521.206636135699
 20
874.459953213843
 11
521.206636135699
 21
871.710897788283
  0
LINE
  5
39
100
AcDbEntity
  8
1
  6
CONTINUOUS
 62
           3
100
AcDbLine
 10
520.334188436584
 20
871.710897788283
 11
520.334188436584
 21
878.569365963458
  0
LINE
  5
38
100
AcDbEntity
  8
1
  6
CONTINUOUS
 62
           3
100
AcDbLine
 10
520.334188436584
 20
878.569365963458
 11
522.776108295824
 21
878.569365963458
  0
LINE
  5
37
100
AcDbEntity
  8
1
  6
CONTINUOUS
 62
           3
100
AcDbLine
 10
522.776108295824
 20
878.569365963458
 11
523.072464878176
 21
878.569365963458
  0
LINE
  5
36
100
AcDbEntity
  8
1
  6
CONTINUOUS
 62
           3
100
AcDbLine
 10
524.906099392742
 20
873.590531554628
 11
524.906099392742
 21
871.710897788283
  0
LINE
  5
35
100
AcDbEntity
  8
1
  6
CONTINUOUS
 62
           3
100
AcDbLine
 10
524.906099392742
 20
871.710897788283
 11
523.944912577237
 21
871.710897788283
  0
LINE
  5
34
100
AcDbEntity
  8
1
  6
CONTINUOUS
 62
           3
100
AcDbLine
 10
523.944912577237
 20
871.710897788283
 11
523.944912577237
 21
873.332753055902
  0
LINE
  5
33
100
AcDbEntity
  8
1
  6
CONTINUOUS
 62
           3
100
AcDbLine
 10
522.931697837317
 20
874.459953213843
 11
521.206636135699
 21
874.459953213843
  0
LINE
  5
32
100
AcDbEntity
  8
1
  6
CONTINUOUS
 62
           3
100
AcDbLine
 10
521.206636135699
 20
871.710897788283
 11
520.334188436584
 21
871.710897788283
  0
LINE
  5
31
100
AcDbEntity
  8
1
  6
CONTINUOUS
 62
           3
100
AcDbLine
 10
521.206636135699
 20
875.310176541277
 11
523.194119363641
 21
875.310176541277
  0
LINE
  5
30
100
AcDbEntity
  8
1
  6
CONTINUOUS
 62
           3
100
AcDbLine
 10
523.062609127785
 20
877.76583453128
 11
521.206636135699
 21
877.76583453128
  0
LINE
  5
2F
100
AcDbEntity
  8
1
  6
CONTINUOUS
 62
           3
100
AcDbLine
 10
521.206636135699
 20
877.76583453128
 11
521.206636135699
 21
875.310176541277
  0
ENDBLK
  5
E3
100
AcDbEntity
  8
0
100
AcDbBlockEnd
  0
BLOCK
  5
2A
100
AcDbEntity
  8
0
100
AcDbBlockBegin
  2
WANNE_PRIME_LINE_247
 70
           0
 10
0.0
 20
0.0
 30
0.0
  3
WANNE_PRIME_LINE_247
  1

  0
ARC
  5
FD
100
AcDbEntity
  8
1
  6
CONTINUOUS
 62
           7
100
AcDbCircle
 10
1387.936024000058
 20
974.259842000002
 40
50.0
100
AcDbArc
 50
-9.977412589562
 51
90.0
  0
ARC
  5
FC
100
AcDbEntity
  8
1
  6
CONTINUOUS
 62
           7
100
AcDbCircle
 10
100.0
 20
974.259842000002
 40
50.0
100
AcDbArc
 50
90.0
 51
180.0
  0
ARC
  5
FB
100
AcDbEntity
  8
1
  6
CONTINUOUS
 62
           7
100
AcDbCircle
 10
100.0
 20
198.124817
 40
50.0
100
AcDbArc
 50
180.0
 51
-107.874635650993
  0
SPLINE
  5
FA
100
AcDbEntity
  8
1
  6
CONTINUOUS
 62
           7
100
AcDbSpline
210
0.0
220
0.0
230
1.0
 70
           0
 71
           3
 72
          41
 73
          38
 74
          77
 42
0.00000000001
 43
0.00000000001
 44
0.00000000001
 40
-1.8732399921272247
 40
-0.0595164133705168
 40
1.7542071653862135
 40
3.6869470082131692
 40
5.942018713916652
 40
8.638633660431978
 40
11.806927626227283
 40
15.414858725724024
 40
19.393799156019579
 40
23.652019676361665
 40
28.083253870476966
 40
32.573045222692109
 40
37.004279416808373
 40
41.26249993714957
 40
45.241440367445414
 40
48.849371466942259
 40
52.017665432737061
 40
54.714280379252642
 40
56.969352084955837
 40
58.902091927782678
 40
60.715815506539911
 40
62.648555349366546
 40
64.903627055069464
 40
67.600242001584789
 40
70.768535967379563
 40
74.376467066876984
 40
78.355407497172649
 40
82.613628017513676
 40
87.044862211629706
 40
91.534653563844259
 40
95.965887757960189
 40
100.2241082783024
 40
104.20304870859761
 40
107.81097980809429
 40
110.97927377388918
 40
113.6758887204048
 40
115.93096042610856
 40
117.86370026893496
 40
119.67742384769141
 40
121.49114742644812
 40
123.30487100520486
 10
1108.2409575377801
 20
406.59743887363601
 30
0.0
 10
1109.7967552644909
 20
405.66519070190299
 30
0.0
 10
1111.8307400639731
 20
405.39573020820211
 30
0.0
 10
1114.267460046882
 20
405.72140468351012
 30
0.0
 10
1117.0629087150251
 20
406.61514276772328
 30
0.0
 10
1120.1463969189199
 20
408.05179577925321
 30
0.0
 10
1123.430461085685
 20
409.99148903830502
 30
0.0
 10
1126.817889849847
 20
412.37814077119458
 30
0.0
 10
1130.2070194486939
 20
415.14112919381392
 30
0.0
 10
1133.4956698473629
 20
418.19776213575312
 30
0.0
 10
1136.584646994846
 20
421.456051037733
 30
0.0
 10
1139.3809867383279
 20
424.81771558083148
 30
0.0
 10
1141.8009913571691
 20
428.1813977553474
 30
0.0
 10
1143.7730380288481
 20
431.44613653745131
 30
0.0
 10
1145.240087223292
 20
434.51527942108657
 30
0.0
 10
1146.1614020259731
 20
437.30176108328328
 30
0.0
 10
1146.5111365409191
 20
439.7351443058833
 30
0.0
 10
1146.261785924612
 20
441.77169221652377
 30
0.0
 10
1145.3449552702909
 20
443.33662504940742
 30
0.0
 10
1143.789157543579
 20
444.26887322113947
 30
0.0
 10
1141.755172744098
 20
444.53833371484041
 30
0.0
 10
1139.3184527611891
 20
444.2126592395324
 30
0.0
 10
1136.523004093046
 20
443.31892115531929
 30
0.0
 10
1133.4395158891521
 20
441.88226814378987
 30
0.0
 10
1130.1554517223849
 20
439.94257488473681
 30
0.0
 10
1126.7680229582249
 20
437.55592315184811
 30
0.0
 10
1123.378893359378
 20
434.7929347292287
 30
0.0
 10
1120.090242960707
 20
431.73630178728962
 30
0.0
 10
1117.0012658132271
 20
428.47801288531031
 30
0.0
 10
1114.2049260697429
 20
425.11634834221121
 30
0.0
 10
1111.7849214509019
 20
421.752666167695
 30
0.0
 10
1109.8128747792241
 20
418.487927385592
 30
0.0
 10
1108.34582558478
 20
415.41878450195571
 30
0.0
 10
1107.424510782098
 20
412.6323028397602
 30
0.0
 10
1107.074776267151
 20
410.19891961715939
 30
0.0
 10
1107.3241268834599
 20
408.16237170651891
 30
0.0
 10
1108.2409575377801
 20
406.59743887363601
 30
0.0
 10
1109.7967552644909
 20
405.66519070190299
 30
0.0
 11
1108.9941443978078
 21
406.14612244529883
 31
0.0
 11
1109.8307814138643
 21
405.75433359070655
 31
0.0
 11
1110.7354707286677
 21
405.54083051372163
 31
0.0
 11
1111.8343523553492
 21
405.46908453384179
 31
0.0
 11
1112.9404585647828
 21
405.54404720524144
 31
0.0
 11
1114.2570381391452
 21
405.77979783341578
 31
0.0
 11
1115.5527738980327
 21
406.13233476140107
 31
0.0
 11
1117.0458041942777
 21
406.66237125190412
 31
0.0
 11
1118.504625449028
 21
407.28686471076884
 31
0.0
 11
1120.1263876179535
 21
408.09116793292645
 31
0.0
 11
1121.7081311849461
 21
408.97421546243038
 31
0.0
 11
1123.4089509032854
 21
410.0253872134291
 31
0.0
 11
1125.0667502568256
 21
411.14435531467586
 31
0.0
 11
1126.795311131903
 21
412.40819130892146
 31
0.0
 11
1128.4787145710918
 21
413.73212837862064
 31
0.0
 11
1130.1833262123762
 21
415.16845015985587
 31
0.0
 11
1131.8405513810251
 21
416.6594138731748
 31
0.0
 11
1133.4705468603311
 21
418.22313458819173
 31
0.0
 11
1135.0502963655736
 21
419.83760020808597
 31
0.0
 11
1136.5575614627151
 21
421.48001306147614
 31
0.0
 11
1138.0106554955942
 21
423.1703499623527
 31
0.0
 11
1139.3511607557866
 21
424.84059011005309
 31
0.0
 11
1140.6320140508965
 21
426.55657931619669
 31
0.0
 11
1141.767307367413
 21
428.20324181764602
 31
0.0
 11
1142.8352327044176
 21
429.89359244369257
 31
0.0
 11
1143.7338654983309
 21
431.46653387705567
 31
0.0
 11
1144.55415323121
 21
433.08026998962737
 31
0.0
 11
1145.1930300451672
 21
434.532849746495
 31
0.0
 11
1145.7377925028752
 21
436.02057015417961
 31
0.0
 11
1146.1031146997525
 21
437.31275943401596
 31
0.0
 11
1146.3518622441884
 21
438.62694541531755
 31
0.0
 11
1146.4377501047925
 21
439.73225696599081
 31
0.0
 11
1146.3768650931431
 21
440.83179383687911
 31
0.0
 11
1146.1723111928211
 21
441.73854850163912
 31
0.0
 11
1145.788807828917
 21
442.57901573662991
 31
0.0
 11
1145.2676216949405
 21
443.26005182829726
 31
0.0
 11
1144.5917684102624
 21
443.7879414777442
 31
0.0
 11
1143.7551313942056
 21
444.17973033233596
 31
0.0
 11
1142.8504420794029
 21
444.39323340932089
 31
0.0
 11
1141.7515604527216
 21
444.46497938920066
 31
0.0
 11
1140.6454542432884
 21
444.39001671780107
 31
0.0
 11
1139.3288746689261
 21
444.15426608962684
 31
0.0
 11
1138.0331389100381
 21
443.80172916164145
 31
0.0
 11
1136.5401086137936
 21
443.27169267113851
 31
0.0
 11
1135.0812873590439
 21
442.64719921227413
 31
0.0
 11
1133.4595251901183
 21
441.84289599011646
 31
0.0
 11
1131.877781623125
 21
440.95984846061197
 31
0.0
 11
1130.176961904785
 21
439.90867670961302
 31
0.0
 11
1128.5191625512452
 21
438.7897086083662
 31
0.0
 11
1126.7906016761688
 21
437.52587261412111
 31
0.0
 11
1125.1071982369804
 21
436.20193554442233
 31
0.0
 11
1123.4025865956955
 21
434.76561376318682
 31
0.0
 11
1121.7453614270457
 21
433.27465004986766
 31
0.0
 11
1120.1153659477395
 21
431.71092933485102
 31
0.0
 11
1118.5356164424982
 21
430.09646371495717
 31
0.0
 11
1117.0283513453576
 21
428.45405086156705
 31
0.0
 11
1115.5752573124778
 21
426.7637139606905
 31
0.0
 11
1114.2347520522844
 21
425.0934738129896
 31
0.0
 11
1112.9538987571741
 21
423.37748460684543
 31
0.0
 11
1111.8186054406581
 21
421.73082210539644
 31
0.0
 11
1110.7506801036541
 21
420.0404714793504
 31
0.0
 11
1109.852047309741
 21
418.46753004598742
 31
0.0
 11
1109.031759576862
 21
416.85379393341543
 31
0.0
 11
1108.3928827629045
 21
415.40121417654751
 31
0.0
 11
1107.8481203051961
 21
413.9134937688633
 31
0.0
 11
1107.4827981083185
 21
412.62130448902735
 31
0.0
 11
1107.234050563882
 21
411.30711850772565
 31
0.0
 11
1107.1481627032779
 21
410.20180695705187
 31
0.0
 11
1107.2090477149279
 21
409.10227008616334
 31
0.0
 11
1107.4136016152504
 21
408.19551542140357
 31
0.0
 11
1107.7971049791543
 21
407.35504818641306
 31
0.0
 11
1108.3244691139626
 21
406.67031018036363
 31
0.0
 11
1109.0188564011355
 21
406.1313147877695
 31
0.0
 11
1109.4078058328132
 21
405.89825274483627
 31
0.0
 11
1109.0188564011355
 21
406.1313147877695
 31
0.0
 11
1108.623728968626
 21
406.36807874508503
 31
0.0
 11
1108.9941443978078
 21
406.14612244529883
 31
0.0
  0
CIRCLE
  5
F9
100
AcDbEntity
  8
WANNE
  6
CONTINUOUS
 62
           7
100
AcDbCircle
 10
995.017554
 20
557.243980000002
 40
45.0
  0
CIRCLE
  5
F8
100
AcDbEntity
  8
WANNE
  6
CONTINUOUS
 62
           7
100
AcDbCircle
 10
995.017553999994
 20
557.243980000002
 40
26.0
  0
ARC
  5
F7
100
AcDbEntity
  8
1
  6
CONTINUOUS
 62
           7
100
AcDbCircle
 10
132.224985406489
 20
222.637331204165
 40
50.000002630848
100
AcDbArc
 50
-176.4055853333
 51
-119.470128087712
  0
ARC
  5
F6
100
AcDbEntity
  8
1
  6
CONTINUOUS
 62
           7
100
AcDbCircle
 10
105.134232000051
 20
979.416327869603
 40
45.136471924527
100
AcDbArc
 50
83.468521034679
 51
-173.716327034696
  0
ARC
  5
F5
100
AcDbEntity
  8
1
  6
CONTINUOUS
 62
           7
100
AcDbCircle
 10
11325.626514473721
 20
925.752749773375
 40
11265.462948016013
100
AcDbArc
 50
179.752193883316
 51
-176.405678332018
  0
ARC
  5
F4
100
AcDbEntity
  8
1
  6
CONTINUOUS
 62
           7
100
AcDbCircle
 10
408.388752381283
 20
711.349597540024
 40
611.34312854347
100
AcDbArc
 50
-119.470121844194
 51
-89.687748939221
  0
ARC
  5
F3
100
AcDbEntity
  8
1
  6
CONTINUOUS
 62
           7
100
AcDbCircle
 10
538.730181000212
 20
390.553998000257
 40
200.000000000229
100
AcDbArc
 50
-158.784521999946
 51
-80.048945000054
  0
ARC
  5
F2
100
AcDbEntity
  8
1
  6
CONTINUOUS
 62
           7
100
AcDbCircle
 10
406.014522000017
 20
1147.000000000028
 40
968.000000000041
100
AcDbArc
 50
-80.048944999995
 51
-20.060892
  0
ARC
  5
F1
100
AcDbEntity
  8
1
  6
CONTINUOUS
 62
           7
100
AcDbCircle
 10
1760.383023821173
 20
864.7816245328
 40
1510.46843241484
100
AcDbArc
 50
-177.239499042891
 51
-158.7845219887
  0
ARC
  5
F0
100
AcDbEntity
  8
1
  6
CONTINUOUS
 62
           7
100
AcDbCircle
 10
401.493311000076
 20
799.259841999998
 40
150.000000000004
100
AcDbArc
 50
90.000000000028
 51
-177.239499000001
  0
ARC
  5
EF
100
AcDbEntity
  8
1
  6
CONTINUOUS
 62
           7
100
AcDbCircle
 10
1221.351750999728
 20
849.259841999746
 40
100.000000000256
100
AcDbArc
 50
-20.06089199979
 51
89.999999999843
  0
ARC
  5
EE
100
AcDbEntity
  8
1
  6
CONTINUOUS
 62
           7
100
AcDbCircle
 10
406.014530494782
 20
1146.999988943231
 40
1046.99998885336
100
AcDbArc
 50
-89.389629695908
 51
-9.977412589562
  0
ARC
  5
ED
100
AcDbEntity
  8
1
  6
CONTINUOUS
 62
           7
100
AcDbCircle
 10
406.014523043249
 20
1147.000012990296
 40
1047.00001297844
100
AcDbArc
 50
-107.874635650993
 51
-89.389629302173
  0
ARC
  5
EC
100
AcDbEntity
  8
1
  6
CONTINUOUS
 62
           7
100
AcDbCircle
 10
405.664533942003
 20
1146.627039314634
 40
1146.627092728531
100
AcDbArc
 50
-89.982511455514
 51
-3.61851957915
  0
ARC
  5
EB
100
AcDbEntity
  8
1
  6
CONTINUOUS
 62
           7
100
AcDbCircle
 10
406.014514074403
 20
1146.99992109323
 40
1146.99992109323
100
AcDbArc
 50
-110.73091622055
 51
-89.99999960409
  0
LINE
  5
EA
100
AcDbEntity
  8
1
  6
CONTINUOUS
 62
           7
100
AcDbLine
 10
401.493311000002
 20
949.259842000002
 11
1221.351751000002
 21
949.259842000002
  0
LINE
  5
E9
100
AcDbEntity
  8
1
  6
CONTINUOUS
 62
           7
100
AcDbLine
 10
50.0
 20
198.124817
 11
50.0
 21
974.259842000002
  0
LINE
  5
E8
100
AcDbEntity
  8
1
  6
CONTINUOUS
 62
           7
100
AcDbLine
 10
1387.936024000058
 20
1024.259842000002
 11
100.0
 21
1024.259842000002
  0
LINE
  5
E7
100
AcDbEntity
  8
WANNE
  6
CONTINUOUS
 62
           7
100
AcDbLine
 10
1550.005688725798
 20
1074.259842000002
 11
0.0
 21
1074.259842000002
  0
LINE
  5
E6
100
AcDbEntity
  8
WANNE
  6
CONTINUOUS
 62
           7
100
AcDbLine
 10
0.0
 20
74.264616673355
 11
0.0
 21
1074.259842000002
  0
LINE
  5
E5
100
AcDbEntity
  8
MITTELLINIEN
  6
DOT_CENTER
 62
           3
100
AcDbLine
 10
1059.007508999998
 20
557.243980000002
 11
929.339534999987
 21
557.243980000002
  0
LINE
  5
E4
100
AcDbEntity
  8
MITTELLINIEN
  6
DOT_CENTER
 62
           3
100
AcDbLine
 10
995.017554
 20
621.233935
 11
995.017554
 21
491.565961000001
  0
ENDBLK
  5
FE
100
AcDbEntity
  8
0
100
AcDbBlockEnd
  0
ENDSEC
  0
SECTION
  2
ENTITIES
  0
MTEXT
  5
102
100
AcDbEntity
  8
1
 62
           3
100
AcDbMText
 10
945.017554
 20
607.243980000002
 30
0.0
 40
35.0
 41
0.0
 71
           9
 72
           1
  1
ø 52
  7
CONVERTER_1
  0
TEXT
  5
101
100
AcDbEntity
  8
1
 62
           2
100
AcDbText
 10
350.0
 20
734.259842000002
 40
35.0
  1
Prime-line 247
 41
0.71262
  7
CONVERTER_1
100
AcDbText
  0
INSERT
  5
2D
100
AcDbEntity
  8
0
100
AcDbBlockReference
  2
DLX
 10
0.0
 20
0.0
  0
INSERT
  5
2E
100
AcDbEntity
  8
0
100
AcDbBlockReference
  2
WANNE_PRIME_LINE_247
 10
0.0
 20
0.0
  0
ENDSEC
  0
SECTION
  2
OBJECTS
  0
DICTIONARY
  5
19
100
AcDbDictionary
  3
ACAD_GROUP
350
1A
  3
ACAD_MLINESTYLE
350
1B
  0
DICTIONARY
  5
1A
102
{ACAD_REACTORS
330
19
102
}
100
AcDbDictionary
  0
DICTIONARY
  5
1B
102
{ACAD_REACTORS
330
19
102
}
100
AcDbDictionary
  3
STANDARD
350
1C
  0
MLINESTYLE
  5
1C
102
{ACAD_REACTORS
330
1B
102
}
100
AcDbMlineStyle
  2
STANDARD
 70
           0
  3

 62
           0
 51
90.0
 52
90.0
 71
           2
 49
0.5
 62
         256
  6
BYLAYER
 49
-0.5
 62
         256
  6
BYLAYER
  0
ENDSEC
  0
EOF
