  0
SECTION
  2
HEADER
  9
$ACADVER
  1
AC1014
  9
$ACADMAINTVER
 70
           0
  9
$DWGCODEPAGE
  3
ANSI_1252
  9
$INSBASE
 10
0.0
 20
0.0
 30
0.0
  9
$EXTMIN
 10
1.000000000000E+20
 20
1.000000000000E+20
 30
1.000000000000E+20
  9
$EXTMAX
 10
-1.000000000000E+20
 20
-1.000000000000E+20
 30
-1.000000000000E+20
  9
$LIMMIN
 10
0.0
 20
0.0
  9
$LIMMAX
 10
0.0
 20
0.0
  9
$ORTHOMODE
 70
           0
  9
$REGENMODE
 70
           1
  9
$FILLMODE
 70
           1
  9
$QTEXTMODE
 70
           0
  9
$MIRRTEXT
 70
           1
  9
$DRAGMODE
 70
           2
  9
$LTSCALE
 40
1.0
  9
$OSMODE
 70
           0
  9
$ATTMODE
 70
           1
  9
$TEXTSIZE
 40
0.2
  9
$TRACEWID
 40
0.05
  9
$TEXTSTYLE
  7
STANDARD
  9
$CLAYER
  8
0
  9
$CELTYPE
  6
CONTINUOUS
  9
$CECOLOR
 62
         256
  9
$CELTSCALE
 40
1.0
  9
$DELOBJ
 70
           1
  9
$DISPSILH
 70
           0
  9
$DIMSCALE
 40
1.0
  9
$DIMASZ
 40
0.18
  9
$DIMEXO
 40
0.0625
  9
$DIMDLI
 40
0.38
  9
$DIMRND
 40
0.0
  9
$DIMDLE
 40
0.0
  9
$DIMEXE
 40
0.18
  9
$DIMTP
 40
0.0
  9
$DIMTM
 40
0.0
  9
$DIMTXT
 40
0.18
  9
$DIMCEN
 40
0.09
  9
$DIMTSZ
 40
0.0
  9
$DIMTOL
 70
           0
  9
$DIMLIM
 70
           0
  9
$DIMTIH
 70
           1
  9
$DIMTOH
 70
           1
  9
$DIMSE1
 70
           0
  9
$DIMSE2
 70
           0
  9
$DIMTAD
 70
           0
  9
$DIMZIN
 70
           0
  9
$DIMBLK
  1

  9
$DIMASO
 70
           1
  9
$DIMSHO
 70
           1
  9
$DIMPOST
  1

  9
$DIMAPOST
  1

  9
$DIMALT
 70
           0
  9
$DIMALTD
 70
           2
  9
$DIMALTF
 40
25.4
  9
$DIMLFAC
 40
1.0
  9
$DIMTOFL
 70
           0
  9
$DIMTVP
 40
0.0
  9
$DIMTIX
 70
           0
  9
$DIMSOXD
 70
           0
  9
$DIMSAH
 70
           0
  9
$DIMBLK1
  1

  9
$DIMBLK2
  1

  9
$DIMSTYLE
  2
STANDARD
  9
$DIMCLRD
 70
           0
  9
$DIMCLRE
 70
           0
  9
$DIMCLRT
 70
           0
  9
$DIMTFAC
 40
1.0
  9
$DIMGAP
 40
0.09
  9
$DIMJUST
 70
           0
  9
$DIMSD1
 70
           0
  9
$DIMSD2
 70
           0
  9
$DIMTOLJ
 70
           1
  9
$DIMTZIN
 70
           0
  9
$DIMALTZ
 70
           0
  9
$DIMALTTZ
 70
           0
  9
$DIMFIT
 70
           3
  9
$DIMUPT
 70
           0
  9
$DIMUNIT
 70
           2
  9
$DIMDEC
 70
           4
  9
$DIMTDEC
 70
           4
  9
$DIMALTU
 70
           2
  9
$DIMALTTD
 70
           2
  9
$DIMTXSTY
  7
STANDARD
  9
$DIMAUNIT
 70
           0
  9
$LUNITS
 70
           2
  9
$LUPREC
 70
           4
  9
$SKETCHINC
 40
0.1
  9
$FILLETRAD
 40
0.0
  9
$AUNITS
 70
           0
  9
$AUPREC
 70
           0
  9
$MENU
  1
acad
  9
$ELEVATION
 40
0.0
  9
$PELEVATION
 40
0.0
  9
$THICKNESS
 40
0.0
  9
$LIMCHECK
 70
           0
  9
$BLIPMODE
 70
           1
  9
$CHAMFERA
 40
0.0
  9
$CHAMFERB
 40
0.0
  9
$CHAMFERC
 40
0.0
  9
$CHAMFERD
 40
0.0
  9
$SKPOLY
 70
           0
  9
$TDCREATE
 40
0.000000000
  9
$TDUPDATE
 40
0.000000000
  9
$TDINDWG
 40
0.0000000000
  9
$TDUSRTIMER
 40
0.0000000000
  9
$USRTIMER
 70
           1
  9
$ANGBASE
 50
0.0
  9
$ANGDIR
 70
           0
  9
$PDMODE
 70
           0
  9
$PDSIZE
 40
0.0
  9
$PLINEWID
 40
0.0
  9
$COORDS
 70
           0
  9
$SPLFRAME
 70
           0
  9
$SPLINETYPE
 70
           6
  9
$SPLINESEGS
 70
           8
  9
$ATTDIA
 70
           0
  9
$ATTREQ
 70
           1
  9
$HANDLING
 70
           1
  9
$HANDSEED
  5
104
  9
$SURFTAB1
 70
           6
  9
$SURFTAB2
 70
           6
  9
$SURFTYPE
 70
           6
  9
$SURFU
 70
           6
  9
$SURFV
 70
           6
  9
$UCSNAME
  2

  9
$UCSORG
 10
0.0
 20
0.0
 30
0.0
  9
$UCSXDIR
 10
1.0
 20
0.0
 30
0.0
  9
$UCSYDIR
 10
0.0
 20
1.0
 30
0.0
  9
$PUCSNAME
  2

  9
$PUCSORG
 10
0.0
 20
0.0
 30
0.0
  9
$PUCSXDIR
 10
1.0
 20
0.0
 30
0.0
  9
$PUCSYDIR
 10
0.0
 20
1.0
 30
0.0
  9
$USERI1
 70
           0
  9
$USERI2
 70
           0
  9
$USERI3
 70
           0
  9
$USERI4
 70
           0
  9
$USERI5
 70
           0
  9
$USERR1
 40
0.0
  9
$USERR2
 40
0.0
  9
$USERR3
 40
0.0
  9
$USERR4
 40
0.0
  9
$USERR5
 40
0.0
  9
$WORLDVIEW
 70
           1
  9
$SHADEDGE
 70
           3
  9
$SHADEDIF
 70
          70
  9
$TILEMODE
 70
           1
  9
$MAXACTVP
 70
          16
  9
$PINSBASE
 10
0.0
 20
0.0
 30
0.0
  9
$PLIMCHECK
 70
           0
  9
$PEXTMIN
 10
1.000000000000E+20
 20
1.000000000000E+20
 30
1.000000000000E+20
  9
$PEXTMAX
 10
-1.000000000000E+20
 20
-1.000000000000E+20
 30
-1.000000000000E+20
  9
$PLIMMIN
 10
0.0
 20
0.0
  9
$PLIMMAX
 10
12.0
 20
9.0
  9
$UNITMODE
 70
           0
  9
$VISRETAIN
 70
           0
  9
$PLINEGEN
 70
           1
  9
$PSLTSCALE
 70
           0
  9
$TREEDEPTH
 70
        3020
  9
$PICKSTYLE
 70
           1
  9
$CMLSTYLE
  2
STANDARD
  9
$CMLJUST
 70
           0
  9
$CMLSCALE
 40
1.0
  9
$PROXYGRAPHICS
 70
           0
  9
$MEASUREMENT
 70
           0
  0
ENDSEC
  0
SECTION
  2
CLASSES
  0
CLASS
  1
LWPOLYLINE
  2
AcDbPolyline
  3
"AutoCAD"
 90
        0
280
           0
281
           1
  0
CLASS
  1
IMAGE
  2
AcDbRasterImage
  3
ISM
 90
      127
280
           0
281
           1
  0
CLASS
  1
OLE2FRAME
  2
AcDbOle2Frame
  3
""
 90
        0
280
           0
281
           1
  0
CLASS
  1
HATCH
  2
AcDbHatch
  3
"ACAD_SEDONA"
 90
        0
280
           0
281
           1
  0
CLASS
  1
DICTIONARYVAR
  2
AcDbDictionaryVar
  3
"AutoCAD"
 90
        0
280
           0
281
           0
  0
CLASS
  1
RASTERVARIABLES
  2
AcDbRasterVariables
  3
ISM
 90
        0
280
           0
281
           0
  0
CLASS
  1
IMAGEDEF
  2
AcDbRasterImageDef
  3
ISM
 90
        0
280
           0
281
           0
  0
CLASS
  1
IMAGEDEF_REACTOR
  2
AcDbRasterImageDefReactor
  3
ISM
 90
        1
280
           0
281
           0
  0
CLASS
  1
IDBUFFER
  2
AcDbIdBuffer
  3
"Acad"
 90
        0
280
           0
281
           0
  0
CLASS
  1
SPATIAL_FILTER
  2
AcDbSpatialFilter
  3
"Acad"
 90
        0
280
           0
281
           0
  0
CLASS
  1
XRECORD
  2
AcDbXrecord
  3
"<Built In>"
 90
        0
280
           0
281
           0
  0
CLASS
  1
SORTENTSTABLE
  2
AcDbSortentsTable
  3
"AutoCAD"
 90
        0
280
           0
281
           0
  0
CLASS
  1
LAYER_INDEX
  2
AcDbLayerIndex
  3
"Acad"
 90
        0
280
           0
281
           0
  0
CLASS
  1
SPATIAL_INDEX
  2
AcDbSpatialIndex
  3
"Acad"
 90
        0
280
           0
281
           0
  0
CLASS
  1
OBJECT_PTR
  2
CAseDLPNTableRecord
  3
"ASE-LPNTableRecord"
 90
        1
280
           0
281
           0
  0
CLASS
  1
LAYOUT
  2
AcDbLayout
  3
"AutoCAD 2000"
 90
        1
280
           0
281
           0
  0
CLASS
  1
PLOTSETTINGS
  2
AcDbPlotSettings
  3
"AutoCAD 2000"
 90
        1
280
           0
281
           0
  0
CLASS
  1
ACDBDICTIONARYWDFLT
  2
AcDbDictionaryWithDefault
  3
"AutoCAD 2000"
 90
        1
280
           0
281
           0
  0
CLASS
  1
ACDBPLACEHOLDER
  2
AcDbPlaceHolder
  3
"AutoCAD 2000"
 90
        1
280
           0
281
           0
  0
CLASS
  1
VBA_PROJECT
  2
AcDbVbaProject
  3
"acadvba"
 90
        1
280
           0
281
           0
  0
CLASS
  1
WIPEOUT
  2
AcDbWipeout
  3
WipeOut|AutoCAD Express Tool|expresstools@autodesk.com
 90
      127
280
           0
281
           1
  0
CLASS
  1
WIPEOUTVARIABLES
  2
AcDbWipeoutVariables
  3
WipeOut|AutoCAD Express Tool|expresstools@autodesk.com
 90
        0
280
           0
281
           0
  0
CLASS
  1
RTEXT
  2
RText
  3
RText|AutoCAD Express Tool|expresstools@autodesk.com
 90
        0
280
           0
281
           1
  0
CLASS
  1
ARCALIGNEDTEXT
  2
AcDbArcAlignedText
  3
ATEXT|AutoCAD Express Tool|expresstools@autodesk.com
 90
        0
280
           0
281
           1
  0
ENDSEC
  0
SECTION
  2
TABLES
  0
TABLE
  2
VPORT
  5
7
100
AcDbSymbolTable
 70
           1
  0
VPORT
  5
15
100
AcDbSymbolTableRecord
100
AcDbViewportTableRecord
  2
*ACTIVE
 70
           0
 10
0.0
 20
0.0
 11
1.0
 21
1.0
 12
6.591288
 22
4.579184
 13
0.0
 23
0.0
 14
1.0
 24
1.0
 15
0.0
 25
0.0
 16
0.0
 26
0.0
 36
1.0
 17
0.0
 27
0.0
 37
0.0
 40
9.158369
 41
0.688564
 42
50.0
 43
0.0
 44
0.0
 50
0.0
 51
0.0
 71
           0
 72
         100
 73
           1
 74
           1
 75
           0
 76
           0
 77
           0
 78
           0
  0
ENDTAB
  0
TABLE
  2
LTYPE
  5
4
100
AcDbSymbolTable
 70
          10
  0
LTYPE
  5
11
100
AcDbSymbolTableRecord
100
AcDbLinetypeTableRecord
  2
BYBLOCK
 70
          64
  3

 72
          65
 73
           0
 40
0.0
  0
LTYPE
  5
12
100
AcDbSymbolTableRecord
100
AcDbLinetypeTableRecord
  2
BYLAYER
 70
          64
  3

 72
          65
 73
           0
 40
0.0
  0
LTYPE
  5
13
100
AcDbSymbolTableRecord
100
AcDbLinetypeTableRecord
  2
CONTINUOUS
 70
          64
  3
Solid line
 72
          65
 73
           0
 40
0.0
  0
LTYPE
  5
1D
100
AcDbSymbolTableRecord
100
AcDbLinetypeTableRecord
  2
DASHED
 70
          64
  3
Dashed
 72
          65
 73
           2
 40
15.0
 49
12.0
 74
           0
 49
-3.0
 74
           0
  0
LTYPE
  5
1E
100
AcDbSymbolTableRecord
100
AcDbLinetypeTableRecord
  2
DOTTED
 70
          64
  3
Dotted
 72
          65
 73
           2
 40
3.5
 49
0.5
 74
           0
 49
-3.0
 74
           0
  0
LTYPE
  5
1F
100
AcDbSymbolTableRecord
100
AcDbLinetypeTableRecord
  2
DOT_CENTER
 70
          64
  3
Dot_Center
 72
          65
 73
           4
 40
2.0
 49
1.25
 74
           0
 49
-0.25
 74
           0
 49
0.25
 74
           0
 49
-0.25
 74
           0
  0
LTYPE
  5
20
100
AcDbSymbolTableRecord
100
AcDbLinetypeTableRecord
  2
LONG_DASHED
 70
          64
  3
Long_Dashed
 72
          65
 73
           2
 40
2.0
 49
1.5
 74
           0
 49
-0.5
 74
           0
  0
LTYPE
  5
21
100
AcDbSymbolTableRecord
100
AcDbLinetypeTableRecord
  2
DASH_CENTER
 70
          64
  3
Dash_Center
 72
          65
 73
           4
 40
36.0
 49
24.0
 74
           0
 49
-3.0
 74
           0
 49
6.0
 74
           0
 49
-3.0
 74
           0
  0
LTYPE
  5
22
100
AcDbSymbolTableRecord
100
AcDbLinetypeTableRecord
  2
PHANTOM
 70
          64
  3
Phantom
 72
          65
 73
           6
 40
2.5
 49
1.25
 74
           0
 49
-0.25
 74
           0
 49
0.25
 74
           0
 49
-0.25
 74
           0
 49
0.25
 74
           0
 49
-0.25
 74
           0
  0
LTYPE
  5
23
100
AcDbSymbolTableRecord
100
AcDbLinetypeTableRecord
  2
CENTER_DASH_DASH
 70
          64
  3
Center_Dash_Dash
 72
          65
 73
           6
 40
22.0
 49
12.0
 74
           0
 49
-3.0
 74
           0
 49
0.5
 74
           0
 49
-3.0
 74
           0
 49
0.5
 74
           0
 49
-3.0
 74
           0
  0
ENDTAB
  0
TABLE
  2
LAYER
  5
2
100
AcDbSymbolTable
 70
           4
  0
LAYER
  5
14
100
AcDbSymbolTableRecord
100
AcDbLayerTableRecord
  2
0
 70
           0
 62
           7
  6
CONTINUOUS
  0
LAYER
  5
24
100
AcDbSymbolTableRecord
100
AcDbLayerTableRecord
  2
MITTELLINIEN
 70
           0
 62
           7
  6
CONTINUOUS
  0
LAYER
  5
25
100
AcDbSymbolTableRecord
100
AcDbLayerTableRecord
  2
1
 70
           0
 62
           7
  6
CONTINUOUS
  0
LAYER
  5
26
100
AcDbSymbolTableRecord
100
AcDbLayerTableRecord
  2
WANNE
 70
           0
 62
           7
  6
CONTINUOUS
  0
ENDTAB
  0
TABLE
  2
STYLE
  5
3
100
AcDbSymbolTable
 70
           2
  0
STYLE
  5
17
100
AcDbSymbolTableRecord
100
AcDbTextStyleTableRecord
  2
STANDARD
 70
           0
 40
0.0
 41
1.0
 50
0.0
 71
           0
 42
0.0
  3
txt
  4

  0
STYLE
  5
100
100
AcDbSymbolTableRecord
100
AcDbTextStyleTableRecord
  2
CONVERTER_1
 70
           0
 40
0.0
 41
0.71262
 50
0.0
 71
           0
 42
0.0
  3
txt.shx
  4

  0
ENDTAB
  0
TABLE
  2
VIEW
  5
5
100
AcDbSymbolTable
 70
           0
  0
ENDTAB
  0
TABLE
  2
UCS
  5
6
100
AcDbSymbolTable
 70
           0
  0
ENDTAB
  0
TABLE
  2
APPID
  5
8
100
AcDbSymbolTable
 70
           1
  0
APPID
  5
16
100
AcDbSymbolTableRecord
100
AcDbRegAppTableRecord
  2
ACAD
 70
           0
  0
ENDTAB
  0
TABLE
  2
DIMSTYLE
  5
9
100
AcDbSymbolTable
 70
           1
  0
DIMSTYLE
105
18
100
AcDbSymbolTableRecord
100
AcDbDimStyleTableRecord
  2
STANDARD
 70
           0
  3

  4

  5

  6

  7

 40
1.0
 41
0.18
 42
0.0625
 43
0.38
 44
0.18
 45
0.0
 46
0.0
 47
0.0
 48
0.0
 71
           0
 72
           0
 73
           1
 74
           1
 75
           0
 76
           0
 77
           0
 78
           0
140
0.18
141
0.09
142
0.0
143
25.4
144
1.0
145
0.0
146
1.0
147
0.09
170
           0
171
           2
172
           0
173
           0
174
           0
175
           0
176
           0
177
           0
178
           0
270
           2
271
           4
272
           4
273
           2
274
           2
275
           0
280
           0
281
           0
282
           0
283
           1
284
           0
285
           0
286
           0
287
           0
288
           0
340
17
  0
ENDTAB
  0
TABLE
  2
BLOCK_RECORD
  5
1
100
AcDbSymbolTable
 70
           2
  0
BLOCK_RECORD
  5
A
100
AcDbSymbolTableRecord
100
AcDbBlockTableRecord
  2
*MODEL_SPACE
  0
BLOCK_RECORD
  5
B
100
AcDbSymbolTableRecord
100
AcDbBlockTableRecord
  2
*PAPER_SPACE
  0
BLOCK_RECORD
  5
27
100
AcDbSymbolTableRecord
100
AcDbBlockTableRecord
  2
WANNE_PRIME_LINE_248
  0
BLOCK_RECORD
  5
29
100
AcDbSymbolTableRecord
100
AcDbBlockTableRecord
  2
DLX
  0
ENDTAB
  0
ENDSEC
  0
SECTION
  2
BLOCKS
  0
BLOCK
  5
D
100
AcDbEntity
  8
0
100
AcDbBlockBegin
  2
*MODEL_SPACE
 70
           0
 10
0.0
 20
0.0
 30
0.0
  3
*MODEL_SPACE
  1

  0
ENDBLK
  5
E
100
AcDbEntity
  8
0
100
AcDbBlockEnd
  0
BLOCK
  5
F
100
AcDbEntity
 67
           1
  8
0
100
AcDbBlockBegin
  2
*PAPER_SPACE
 70
           0
 10
0.0
 20
0.0
 30
0.0
  3
*PAPER_SPACE
  1

  0
ENDBLK
  5
10
100
AcDbEntity
 67
           1
  8
0
100
AcDbBlockEnd
  0
BLOCK
  5
28
100
AcDbEntity
  8
0
100
AcDbBlockBegin
  2
WANNE_PRIME_LINE_248
 70
           0
 10
0.0
 20
0.0
 30
0.0
  3
WANNE_PRIME_LINE_248
  1

  0
ARC
  5
48
100
AcDbEntity
  8
1
  6
CONTINUOUS
 62
           7
100
AcDbCircle
 10
162.06966472574
 20
974.259842000002
 40
50.0
100
AcDbArc
 50
90.0
 51
-170.022587410437
  0
ARC
  5
47
100
AcDbEntity
  8
1
  6
CONTINUOUS
 62
           7
100
AcDbCircle
 10
1450.005688725798
 20
974.259842000002
 40
50.0
100
AcDbArc
 50
0.0
 51
90.0
  0
ARC
  5
46
100
AcDbEntity
  8
1
  6
CONTINUOUS
 62
           7
100
AcDbCircle
 10
1450.005688725798
 20
198.124817
 40
50.0
100
AcDbArc
 50
-72.125364349008
 51
0.0
  0
SPLINE
  5
45
100
AcDbEntity
  8
1
  6
CONTINUOUS
 62
           7
100
AcDbSpline
210
0.0
220
0.0
230
1.0
 70
           0
 71
           3
 72
          41
 73
          38
 74
          77
 42
0.00000000001
 43
0.00000000001
 44
0.00000000001
 40
-1.8732399921274379
 40
-0.0595164133705879
 40
1.7542071653862867
 40
3.686947008213203
 40
5.9420187139167133
 40
8.6386336604320455
 40
11.806927626227345
 40
15.414858725724116
 40
19.393799156019618
 40
23.652019676361771
 40
28.083253870477094
 40
32.573045222692201
 40
37.004279416808458
 40
41.262499937149641
 40
45.241440367445449
 40
48.849371466942316
 40
52.017665432737118
 40
54.714280379252685
 40
56.969352084955872
 40
58.90209192778272
 40
60.71581550653994
 40
62.648555349366546
 40
64.903627055069506
 40
67.600242001584817
 40
70.768535967379648
 40
74.376467066877012
 40
78.355407497172621
 40
82.613628017513747
 40
87.044862211629706
 40
91.53465356384423
 40
95.965887757960161
 40
100.22410827830231
 40
104.20304870859758
 40
107.81097980809426
 40
110.9792737738891
 40
113.67588872040474
 40
115.93096042610853
 40
117.86370026893488
 40
119.67742384769133
 40
121.49114742644818
 40
123.30487100520506
 10
441.764731188018
 20
406.59743887363601
 30
0.0
 10
440.20893346130703
 20
405.66519070190299
 30
0.0
 10
438.17494866182511
 20
405.39573020820211
 30
0.0
 10
435.7382286789159
 20
405.72140468351012
 30
0.0
 10
432.94278001077311
 20
406.61514276772328
 30
0.0
 10
429.85929180687799
 20
408.05179577925321
 30
0.0
 10
426.5752276401131
 20
409.99148903830502
 30
0.0
 10
423.18779887595099
 20
412.37814077119458
 30
0.0
 10
419.79866927710401
 20
415.14112919381392
 30
0.0
 10
416.51001887843501
 20
418.19776213575312
 30
0.0
 10
413.42104173095203
 20
421.456051037733
 30
0.0
 10
410.62470198747002
 20
424.81771558083148
 30
0.0
 10
408.20469736862901
 20
428.1813977553474
 30
0.0
 10
406.23265069694997
 20
431.44613653745131
 30
0.0
 10
404.765601502506
 20
434.51527942108657
 30
0.0
 10
403.84428669982498
 20
437.30176108328328
 30
0.0
 10
403.49455218487901
 20
439.7351443058833
 30
0.0
 10
403.74390280118598
 20
441.77169221652377
 30
0.0
 10
404.66073345550711
 20
443.33662504940742
 30
0.0
 10
406.216531182219
 20
444.26887322113947
 30
0.0
 10
408.2505159817
 20
444.53833371484041
 30
0.0
 10
410.68723596460899
 20
444.2126592395324
 30
0.0
 10
413.48268463275201
 20
443.31892115531929
 30
0.0
 10
416.5661728366461
 20
441.88226814378987
 30
0.0
 10
419.85023700341299
 20
439.94257488473681
 30
0.0
 10
423.23766576757311
 20
437.55592315184811
 30
0.0
 10
426.62679536642008
 20
434.7929347292287
 30
0.0
 10
429.91544576509091
 20
431.73630178728962
 30
0.0
 10
433.00442291257099
 20
428.47801288531031
 30
0.0
 10
435.80076265605499
 20
425.11634834221121
 30
0.0
 10
438.22076727489588
 20
421.752666167695
 30
0.0
 10
440.19281394657401
 20
418.487927385592
 30
0.0
 10
441.65986314101792
 20
415.41878450195571
 30
0.0
 10
442.58117794369991
 20
412.6323028397602
 30
0.0
 10
442.93091245864707
 20
410.19891961715939
 30
0.0
 10
442.68156184233789
 20
408.16237170651891
 30
0.0
 10
441.764731188018
 20
406.59743887363601
 30
0.0
 10
440.20893346130703
 20
405.66519070190299
 30
0.0
 11
441.01154432799012
 21
406.14612244529883
 31
0.0
 11
440.17490731193368
 21
405.75433359070655
 31
0.0
 11
439.27021799713043
 21
405.54083051372157
 31
0.0
 11
438.1713363704489
 21
405.46908453384174
 31
0.0
 11
437.06523016101517
 21
405.54404720524144
 31
0.0
 11
435.74865058665307
 21
405.77979783341567
 31
0.0
 11
434.4529148277652
 21
406.13233476140113
 31
0.0
 11
432.9598845315204
 21
406.66237125190412
 31
0.0
 11
431.50106327677014
 21
407.28686471076878
 31
0.0
 11
429.87930110784453
 21
408.0911679329264
 31
0.0
 11
428.29755754085193
 21
408.97421546243044
 31
0.0
 11
426.59673782251269
 21
410.02538721342916
 31
0.0
 11
424.93893846897254
 21
411.14435531467586
 31
0.0
 11
423.21037759389515
 21
412.40819130892135
 31
0.0
 11
421.52697415470607
 21
413.73212837862064
 31
0.0
 11
419.82236251342175
 21
415.16845015985587
 31
0.0
 11
418.1651373447728
 21
416.6594138731748
 31
0.0
 11
416.53514186546681
 21
418.22313458819173
 31
0.0
 11
414.95539236022466
 21
419.83760020808597
 31
0.0
 11
413.44812726308311
 21
421.48001306147614
 31
0.0
 11
411.99503323020372
 21
423.1703499623527
 31
0.0
 11
410.65452797001132
 21
424.84059011005309
 31
0.0
 11
409.37367467490157
 21
426.55657931619675
 31
0.0
 11
408.23838135838503
 21
428.20324181764602
 31
0.0
 11
407.17045602138052
 21
429.89359244369251
 31
0.0
 11
406.27182322746705
 21
431.46653387705561
 31
0.0
 11
405.45153549458792
 21
433.08026998962742
 31
0.0
 11
404.81265868063065
 21
434.53284974649506
 31
0.0
 11
404.26789622292279
 21
436.02057015417961
 31
0.0
 11
403.90257402604556
 21
437.31275943401596
 31
0.0
 11
403.6538264816096
 21
438.62694541531755
 31
0.0
 11
403.56793862100562
 21
439.73225696599081
 31
0.0
 11
403.62882363265481
 21
440.83179383687911
 31
0.0
 11
403.8333775329769
 21
441.73854850163917
 31
0.0
 11
404.21688089688087
 21
442.57901573662991
 31
0.0
 11
404.73806703085768
 21
443.26005182829726
 31
0.0
 11
405.41392031553562
 21
443.7879414777442
 31
0.0
 11
406.25055733159218
 21
444.17973033233602
 31
0.0
 11
407.15524664639526
 21
444.39323340932094
 31
0.0
 11
408.25412827307622
 21
444.46497938920066
 31
0.0
 11
409.36023448250967
 21
444.39001671780102
 31
0.0
 11
410.67681405687188
 21
444.15426608962684
 31
0.0
 11
411.97254981575998
 21
443.80172916164145
 31
0.0
 11
413.46558011200449
 21
443.27169267113851
 31
0.0
 11
414.9244013667543
 21
442.64719921227407
 31
0.0
 11
416.54616353567985
 21
441.8428959901164
 31
0.0
 11
418.12790710267319
 21
440.95984846061197
 31
0.0
 11
419.82872682101299
 21
439.90867670961291
 31
0.0
 11
421.48652617455286
 21
438.7897086083662
 31
0.0
 11
423.21508704962918
 21
437.52587261412111
 31
0.0
 11
424.89849048881769
 21
436.20193554442227
 31
0.0
 11
426.60310213010257
 21
434.76561376318688
 31
0.0
 11
428.26032729875237
 21
433.27465004986766
 31
0.0
 11
429.89032277805848
 21
431.71092933485102
 31
0.0
 11
431.47007228329983
 21
430.09646371495717
 31
0.0
 11
432.97733738044047
 21
428.45405086156705
 31
0.0
 11
434.43043141332009
 21
426.76371396069055
 31
0.0
 11
435.7709366735134
 21
425.0934738129896
 31
0.0
 11
437.05178996862355
 21
423.37748460684543
 31
0.0
 11
438.18708328513969
 21
421.73082210539644
 31
0.0
 11
439.25500862214386
 21
420.0404714793504
 31
0.0
 11
440.15364141605698
 21
418.46753004598753
 31
0.0
 11
440.97392914893601
 21
416.85379393341543
 31
0.0
 11
441.61280596289339
 21
415.40121417654751
 31
0.0
 11
442.15756842060171
 21
413.9134937688633
 31
0.0
 11
442.52289061747933
 21
412.62130448902741
 31
0.0
 11
442.77163816191592
 21
411.30711850772565
 31
0.0
 11
442.85752602252001
 21
410.20180695705193
 31
0.0
 11
442.79664101087008
 21
409.10227008616334
 31
0.0
 11
442.59208711054737
 21
408.19551542140351
 31
0.0
 11
442.20858374664357
 21
407.35504818641311
 31
0.0
 11
441.68121961183556
 21
406.67031018036369
 31
0.0
 11
440.9868323246626
 21
406.13131478776955
 31
0.0
 11
440.59788289298484
 21
405.89825274483627
 31
0.0
 11
440.98683232466249
 21
406.1313147877695
 31
0.0
 11
441.38195975717213
 21
406.36807874508509
 31
0.0
 11
441.01154432799012
 21
406.14612244529883
 31
0.0
  0
CIRCLE
  5
44
100
AcDbEntity
  8
WANNE
  6
CONTINUOUS
 62
           7
100
AcDbCircle
 10
554.988134725798
 20
557.243980000002
 40
45.0
  0
CIRCLE
  5
43
100
AcDbEntity
  8
WANNE
  6
CONTINUOUS
 62
           7
100
AcDbCircle
 10
554.988134725804
 20
557.243980000002
 40
26.0
  0
ARC
  5
42
100
AcDbEntity
  8
1
  6
CONTINUOUS
 62
           7
100
AcDbCircle
 10
1417.780703319309
 20
222.637331204165
 40
50.000002630848
100
AcDbArc
 50
-60.529871912288
 51
-3.594414666699
  0
ARC
  5
41
100
AcDbEntity
  8
1
  6
CONTINUOUS
 62
           7
100
AcDbCircle
 10
1444.871456725747
 20
979.416327869603
 40
45.136471924528
100
AcDbArc
 50
-6.283672965304
 51
96.531478965321
  0
ARC
  5
40
100
AcDbEntity
  8
1
  6
CONTINUOUS
 62
           7
100
AcDbCircle
 10
-9775.620825747923
 20
925.752749773375
 40
11265.462948016013
100
AcDbArc
 50
-3.594321667982
 51
0.247806116684
  0
ARC
  5
3F
100
AcDbEntity
  8
1
  6
CONTINUOUS
 62
           7
100
AcDbCircle
 10
1141.616936344515
 20
711.349597540024
 40
611.34312854347
100
AcDbArc
 50
-90.312251060778
 51
-60.529878155805
  0
ARC
  5
3E
100
AcDbEntity
  8
1
  6
CONTINUOUS
 62
           7
100
AcDbCircle
 10
1011.275507725586
 20
390.553998000257
 40
200.000000000229
100
AcDbArc
 50
-99.951054999945
 51
-21.215478000053
  0
ARC
  5
3D
100
AcDbEntity
  8
1
  6
CONTINUOUS
 62
           7
100
AcDbCircle
 10
1143.991166725781
 20
1147.000000000028
 40
968.000000000041
100
AcDbArc
 50
-159.939108
 51
-99.951055000005
  0
ARC
  5
3C
100
AcDbEntity
  8
1
  6
CONTINUOUS
 62
           7
100
AcDbCircle
 10
-210.377335095375
 20
864.7816245328
 40
1510.46843241484
100
AcDbArc
 50
-21.215478011299
 51
-2.760500957109
  0
ARC
  5
3B
100
AcDbEntity
  8
1
  6
CONTINUOUS
 62
           7
100
AcDbCircle
 10
1148.512377725722
 20
799.259841999998
 40
150.000000000004
100
AcDbArc
 50
-2.760500999999
 51
89.999999999972
  0
ARC
  5
3A
100
AcDbEntity
  8
1
  6
CONTINUOUS
 62
           7
100
AcDbCircle
 10
328.65393772607
 20
849.259841999746
 40
100.000000000256
100
AcDbArc
 50
90.000000000157
 51
-159.93910800021
  0
ARC
  5
39
100
AcDbEntity
  8
1
  6
CONTINUOUS
 62
           7
100
AcDbCircle
 10
1143.991158231016
 20
1146.999988943231
 40
1046.99998885336
100
AcDbArc
 50
-170.022587410438
 51
-90.610370304092
  0
ARC
  5
38
100
AcDbEntity
  8
1
  6
CONTINUOUS
 62
           7
100
AcDbCircle
 10
1143.991165682549
 20
1147.000012990296
 40
1047.00001297844
100
AcDbArc
 50
-90.610370697826
 51
-72.125364349007
  0
ARC
  5
37
100
AcDbEntity
  8
1
  6
CONTINUOUS
 62
           7
100
AcDbCircle
 10
1144.341154783795
 20
1146.627039314634
 40
1146.627092728531
100
AcDbArc
 50
-176.38148042085
 51
-90.017488544486
  0
ARC
  5
36
100
AcDbEntity
  8
1
  6
CONTINUOUS
 62
           7
100
AcDbCircle
 10
1143.991174651395
 20
1146.99992109323
 40
1146.99992109323
100
AcDbArc
 50
-90.00000039591
 51
-69.269083779449
  0
LINE
  5
35
100
AcDbEntity
  8
1
  6
CONTINUOUS
 62
           7
100
AcDbLine
 10
328.653937725796
 20
949.259842000002
 11
1148.512377725796
 21
949.259842000002
  0
LINE
  5
34
100
AcDbEntity
  8
1
  6
CONTINUOUS
 62
           7
100
AcDbLine
 10
1500.005688725798
 20
974.259842000002
 11
1500.005688725798
 21
198.124817
  0
LINE
  5
33
100
AcDbEntity
  8
1
  6
CONTINUOUS
 62
           7
100
AcDbLine
 10
1450.005688725798
 20
1024.259842000002
 11
162.06966472574
 21
1024.259842000002
  0
LINE
  5
32
100
AcDbEntity
  8
WANNE
  6
CONTINUOUS
 62
           7
100
AcDbLine
 10
1550.005688725798
 20
1074.259842000002
 11
0.0
 21
1074.259842000002
  0
LINE
  5
31
100
AcDbEntity
  8
WANNE
  6
CONTINUOUS
 62
           7
100
AcDbLine
 10
1550.005688725798
 20
1074.259842000002
 11
1550.005688725798
 21
74.264616673355
  0
LINE
  5
30
100
AcDbEntity
  8
MITTELLINIEN
  6
DOT_CENTER
 62
           3
100
AcDbLine
 10
620.666153725811
 20
557.243980000002
 11
490.9981797258
 21
557.243980000002
  0
LINE
  5
2F
100
AcDbEntity
  8
MITTELLINIEN
  6
DOT_CENTER
 62
           3
100
AcDbLine
 10
554.988134725798
 20
491.565961000001
 11
554.988134725798
 21
621.233935
  0
ENDBLK
  5
49
100
AcDbEntity
  8
0
100
AcDbBlockEnd
  0
BLOCK
  5
2A
100
AcDbEntity
  8
0
100
AcDbBlockBegin
  2
DLX
 70
           0
 10
0.0
 20
0.0
 30
0.0
  3
DLX
  1

  0
CIRCLE
  5
FD
100
AcDbEntity
  8
1
  6
CONTINUOUS
 62
           3
100
AcDbCircle
 10
1192.412060811528
 20
875.138629878756
 40
5.972862778755
  0
CIRCLE
  5
FC
100
AcDbEntity
  8
1
  6
CONTINUOUS
 62
           3
100
AcDbCircle
 10
1192.412060811528
 20
875.138629878756
 40
5.530127989697
  0
ARC
  5
FB
100
AcDbEntity
  8
1
  6
CONTINUOUS
 62
           3
100
AcDbCircle
 10
1192.618879642907
 20
876.563761921383
 40
2.009798008862
100
AcDbArc
 50
-55.929988464572
 51
86.297888718258
  0
ARC
  5
FA
100
AcDbEntity
  8
1
  6
CONTINUOUS
 62
           3
100
AcDbCircle
 10
1192.540561816893
 20
876.523867930553
 40
1.257687287768
100
AcDbArc
 50
-74.800419047022
 51
80.931395238749
  0
ARC
  5
F9
100
AcDbEntity
  8
1
  6
CONTINUOUS
 62
           3
100
AcDbCircle
 10
1192.465379178698
 20
873.312881389824
 40
1.155889798231
100
AcDbArc
 50
0.985058170486
 51
82.918254632932
  0
ARC
  5
F8
100
AcDbEntity
  8
1
  6
CONTINUOUS
 62
           3
100
AcDbCircle
 10
1193.190772365188
 20
873.622075682227
 40
1.391870091328
100
AcDbArc
 50
-1.298612665717
 51
66.544866494083
  0
LINE
  5
F7
100
AcDbEntity
  8
1
  6
CONTINUOUS
 62
           3
100
AcDbLine
 10
1085.004409042909
 20
871.239737810783
 11
1084.709005955529
 21
872.238289872364
  0
LINE
  5
F6
100
AcDbEntity
  8
1
  6
CONTINUOUS
 62
           3
100
AcDbLine
 10
1085.441088724476
 20
873.022046858334
 11
1084.709005955529
 21
872.238289872364
  0
LINE
  5
F5
100
AcDbEntity
  8
1
  6
CONTINUOUS
 62
           3
100
AcDbLine
 10
1120.472112693145
 20
842.497550784529
 11
1123.856520184027
 21
856.311017145081
  0
LINE
  5
F4
100
AcDbEntity
  8
1
  6
CONTINUOUS
 62
           3
100
AcDbLine
 10
1116.283958537906
 20
842.497550784529
 11
1119.668366028923
 21
856.311017145081
  0
LINE
  5
F3
100
AcDbEntity
  8
1
  6
CONTINUOUS
 62
           3
100
AcDbLine
 10
1116.283958537906
 20
842.497550784529
 11
1120.472112693145
 21
842.497550784529
  0
LINE
  5
F2
100
AcDbEntity
  8
1
  6
CONTINUOUS
 62
           3
100
AcDbLine
 10
1115.199984478737
 20
838.073308360343
 11
1119.388138633925
 21
838.073308360343
  0
LINE
  5
F1
100
AcDbEntity
  8
1
  6
CONTINUOUS
 62
           3
100
AcDbLine
 10
1116.003731143031
 20
824.259842000002
 11
1122.285962375928
 21
824.259842000002
  0
LINE
  5
F0
100
AcDbEntity
  8
1
  6
CONTINUOUS
 62
           3
100
AcDbLine
 10
1119.668366028923
 20
856.311017145081
 11
1113.386134796057
 21
856.311017145081
  0
LINE
  5
EF
100
AcDbEntity
  8
1
  6
CONTINUOUS
 62
           3
100
AcDbLine
 10
1151.07952219288
 20
856.311017145081
 11
1143.226733151862
 21
824.259842000002
  0
LINE
  5
EE
100
AcDbEntity
  8
1
  6
CONTINUOUS
 62
           3
100
AcDbLine
 10
1143.713316900883
 20
851.88677472084
 11
1138.028475978159
 21
828.684084424184
  0
LINE
  5
ED
100
AcDbEntity
  8
1
  6
CONTINUOUS
 62
           3
100
AcDbLine
 10
1139.525162745634
 20
851.88677472084
 11
1143.713316900883
 21
851.88677472084
  0
LINE
  5
EC
100
AcDbEntity
  8
1
  6
CONTINUOUS
 62
           3
100
AcDbLine
 10
1151.07952219288
 20
856.311017145081
 11
1134.32690557205
 21
856.311017145081
  0
LINE
  5
EB
100
AcDbEntity
  8
1
  6
CONTINUOUS
 62
           3
100
AcDbLine
 10
1133.840321823059
 20
828.684084424184
 11
1139.525162745634
 21
851.88677472084
  0
LINE
  5
EA
100
AcDbEntity
  8
1
  6
CONTINUOUS
 62
           3
100
AcDbLine
 10
1134.32690557205
 20
856.311017145081
 11
1126.474116531053
 21
824.259842000002
  0
LINE
  5
E9
100
AcDbEntity
  8
1
  6
CONTINUOUS
 62
           3
100
AcDbLine
 10
1138.028475978159
 20
828.684084424184
 11
1133.840321823059
 21
828.684084424184
  0
LINE
  5
E8
100
AcDbEntity
  8
1
  6
CONTINUOUS
 62
           3
100
AcDbLine
 10
1126.474116531053
 20
824.259842000002
 11
1143.226733151862
 21
824.259842000002
  0
LINE
  5
E7
100
AcDbEntity
  8
1
  6
CONTINUOUS
 62
           3
100
AcDbLine
 10
1130.138751416942
 20
856.311017145081
 11
1123.856520184027
 21
856.311017145081
  0
LINE
  5
E6
100
AcDbEntity
  8
1
  6
CONTINUOUS
 62
           3
100
AcDbLine
 10
1113.386134796057
 20
856.311017145081
 11
1105.533345755064
 21
824.259842000002
  0
LINE
  5
E5
100
AcDbEntity
  8
1
  6
CONTINUOUS
 62
           3
100
AcDbLine
 10
1111.815576987852
 20
824.259842000002
 11
1115.199984478737
 21
838.073308360343
  0
LINE
  5
E4
100
AcDbEntity
  8
1
  6
CONTINUOUS
 62
           3
100
AcDbLine
 10
1116.003731143031
 20
824.259842000002
 11
1119.388138633925
 21
838.073308360343
  0
LINE
  5
E3
100
AcDbEntity
  8
1
  6
CONTINUOUS
 62
           3
100
AcDbLine
 10
1122.285962375928
 20
824.259842000002
 11
1130.138751416942
 21
856.311017145081
  0
LINE
  5
E2
100
AcDbEntity
  8
1
  6
CONTINUOUS
 62
           3
100
AcDbLine
 10
1105.533345755064
 20
824.259842000002
 11
1111.815576987852
 21
824.259842000002
  0
LINE
  5
E1
100
AcDbEntity
  8
1
  6
CONTINUOUS
 62
           3
100
AcDbLine
 10
1100.205814260107
 20
845.250411084415
 11
1106.488045492913
 21
845.250411084415
  0
LINE
  5
E0
100
AcDbEntity
  8
1
  6
CONTINUOUS
 62
           3
100
AcDbLine
 10
1101.831775348901
 20
851.88677472084
 11
1100.205814260107
 21
845.250411084415
  0
LINE
  5
DF
100
AcDbEntity
  8
1
  6
CONTINUOUS
 62
           3
100
AcDbLine
 10
1097.643621193709
 20
851.88677472084
 11
1101.831775348901
 21
851.88677472084
  0
LINE
  5
DE
100
AcDbEntity
  8
1
  6
CONTINUOUS
 62
           3
100
AcDbLine
 10
1091.958780271079
 20
828.684084424184
 11
1097.643621193709
 21
851.88677472084
  0
LINE
  5
DD
100
AcDbEntity
  8
1
  6
CONTINUOUS
 62
           3
100
AcDbLine
 10
1096.146934426282
 20
828.684084424184
 11
1091.958780271079
 21
828.684084424184
  0
LINE
  5
DC
100
AcDbEntity
  8
1
  6
CONTINUOUS
 62
           3
100
AcDbLine
 10
1097.77289551507
 20
835.32044806061
 11
1096.146934426282
 21
828.684084424184
  0
LINE
  5
DB
100
AcDbEntity
  8
1
  6
CONTINUOUS
 62
           3
100
AcDbLine
 10
1104.055126747858
 20
835.32044806061
 11
1097.77289551507
 21
835.32044806061
  0
LINE
  5
DA
100
AcDbEntity
  8
1
  6
CONTINUOUS
 62
           3
100
AcDbLine
 10
1101.345191599883
 20
824.259842000002
 11
1104.055126747858
 21
835.32044806061
  0
LINE
  5
D9
100
AcDbEntity
  8
1
  6
CONTINUOUS
 62
           3
100
AcDbLine
 10
1084.59257497913
 20
824.259842000002
 11
1101.345191599883
 21
824.259842000002
  0
LINE
  5
D8
100
AcDbEntity
  8
1
  6
CONTINUOUS
 62
           3
100
AcDbLine
 10
1092.445364020123
 20
856.311017145081
 11
1084.59257497913
 21
824.259842000002
  0
LINE
  5
D7
100
AcDbEntity
  8
1
  6
CONTINUOUS
 62
           3
100
AcDbLine
 10
1109.197980640844
 20
856.311017145081
 11
1092.445364020123
 21
856.311017145081
  0
LINE
  5
D6
100
AcDbEntity
  8
1
  6
CONTINUOUS
 62
           3
100
AcDbLine
 10
1106.488045492913
 20
845.250411084415
 11
1109.197980640844
 21
856.311017145081
  0
LINE
  5
D5
100
AcDbEntity
  8
1
  6
CONTINUOUS
 62
           3
100
AcDbLine
 10
1087.173235805747
 20
851.88677472084
 11
1088.257209864905
 21
856.311017145081
  0
LINE
  5
D4
100
AcDbEntity
  8
1
  6
CONTINUOUS
 62
           3
100
AcDbLine
 10
1076.702850417767
 20
851.88677472084
 11
1087.173235805747
 21
851.88677472084
  0
LINE
  5
D3
100
AcDbEntity
  8
1
  6
CONTINUOUS
 62
           3
100
AcDbLine
 10
1074.269931672754
 20
841.956811696955
 11
1076.702850417767
 21
851.88677472084
  0
LINE
  5
D2
100
AcDbEntity
  8
1
  6
CONTINUOUS
 62
           3
100
AcDbLine
 10
1084.740317060818
 20
841.956811696955
 11
1074.269931672754
 21
841.956811696955
  0
LINE
  5
D1
100
AcDbEntity
  8
1
  6
CONTINUOUS
 62
           3
100
AcDbLine
 10
1080.404420823894
 20
824.259842000002
 11
1084.740317060818
 21
841.956811696955
  0
LINE
  5
D0
100
AcDbEntity
  8
1
  6
CONTINUOUS
 62
           3
100
AcDbLine
 10
1063.651804203071
 20
824.259842000002
 11
1080.404420823894
 21
824.259842000002
  0
LINE
  5
CF
100
AcDbEntity
  8
1
  6
CONTINUOUS
 62
           3
100
AcDbLine
 10
1064.735778262379
 20
828.684084424184
 11
1063.651804203071
 21
824.259842000002
  0
LINE
  5
CE
100
AcDbEntity
  8
1
  6
CONTINUOUS
 62
           3
100
AcDbLine
 10
1075.20616365029
 20
828.684084424184
 11
1064.735778262379
 21
828.684084424184
  0
LINE
  5
CD
100
AcDbEntity
  8
1
  6
CONTINUOUS
 62
           3
100
AcDbLine
 10
1077.374111768708
 20
837.532569272799
 11
1075.20616365029
 21
828.684084424184
  0
LINE
  5
CC
100
AcDbEntity
  8
1
  6
CONTINUOUS
 62
           3
100
AcDbLine
 10
1066.903726380742
 20
837.532569272799
 11
1077.374111768708
 21
837.532569272799
  0
LINE
  5
CB
100
AcDbEntity
  8
1
  6
CONTINUOUS
 62
           3
100
AcDbLine
 10
1071.504593244134
 20
856.311017145081
 11
1066.903726380742
 21
837.532569272799
  0
LINE
  5
CA
100
AcDbEntity
  8
1
  6
CONTINUOUS
 62
           3
100
AcDbLine
 10
1088.257209864905
 20
856.311017145081
 11
1071.504593244134
 21
856.311017145081
  0
LINE
  5
C9
100
AcDbEntity
  8
1
  6
CONTINUOUS
 62
           3
100
AcDbLine
 10
1067.316439088971
 20
856.311017145081
 11
1059.463650047956
 21
824.259842000002
  0
LINE
  5
C8
100
AcDbEntity
  8
1
  6
CONTINUOUS
 62
           3
100
AcDbLine
 10
1061.034207856164
 20
856.311017145081
 11
1067.316439088971
 21
856.311017145081
  0
LINE
  5
C7
100
AcDbEntity
  8
1
  6
CONTINUOUS
 62
           3
100
AcDbLine
 10
1059.463650047956
 20
824.259842000002
 11
1041.663994888366
 21
824.259842000002
  0
LINE
  5
C6
100
AcDbEntity
  8
1
  6
CONTINUOUS
 62
           3
100
AcDbLine
 10
1054.265392874358
 20
828.684084424184
 11
1061.034207856164
 21
856.311017145081
  0
LINE
  5
C5
100
AcDbEntity
  8
1
  6
CONTINUOUS
 62
           3
100
AcDbLine
 10
1049.030200180374
 20
828.684084424184
 11
1054.265392874358
 21
828.684084424184
  0
LINE
  5
C4
100
AcDbEntity
  8
1
  6
CONTINUOUS
 62
           3
100
AcDbLine
 10
1055.799015162169
 20
856.311017145081
 11
1049.030200180374
 21
828.684084424184
  0
LINE
  5
C3
100
AcDbEntity
  8
1
  6
CONTINUOUS
 62
           3
100
AcDbLine
 10
1049.516783929359
 20
856.311017145081
 11
1055.799015162169
 21
856.311017145081
  0
LINE
  5
C2
100
AcDbEntity
  8
1
  6
CONTINUOUS
 62
           3
100
AcDbLine
 10
1041.663994888366
 20
824.259842000002
 11
1049.516783929359
 21
856.311017145081
  0
LINE
  5
C1
100
AcDbEntity
  8
1
  6
CONTINUOUS
 62
           3
100
AcDbLine
 10
1037.475840733239
 20
824.259842000002
 11
1019.676185573591
 21
824.259842000002
  0
LINE
  5
C0
100
AcDbEntity
  8
1
  6
CONTINUOUS
 62
           3
100
AcDbLine
 10
1048.038564922159
 20
867.371623205664
 11
1037.475840733239
 21
824.259842000002
  0
LINE
  5
BF
100
AcDbEntity
  8
1
  6
CONTINUOUS
 62
           3
100
AcDbLine
 10
1024.065237844867
 20
867.371623205664
 11
1048.038564922159
 21
867.371623205664
  0
LINE
  5
BE
100
AcDbEntity
  8
1
  6
CONTINUOUS
 62
           3
100
AcDbLine
 10
1022.710270270882
 20
861.841320175406
 11
1024.065237844867
 21
867.371623205664
  0
LINE
  5
BD
100
AcDbEntity
  8
1
  6
CONTINUOUS
 62
           3
100
AcDbLine
 10
1040.401366115415
 20
861.841320175406
 11
1022.710270270882
 21
861.841320175406
  0
LINE
  5
BC
100
AcDbEntity
  8
1
  6
CONTINUOUS
 62
           3
100
AcDbLine
 10
1032.277583559533
 20
828.684084424184
 11
1040.401366115415
 21
861.841320175406
  0
LINE
  5
BB
100
AcDbEntity
  8
1
  6
CONTINUOUS
 62
           3
100
AcDbLine
 10
1027.042390865654
 20
828.684084424184
 11
1032.277583559533
 21
828.684084424184
  0
LINE
  5
BA
100
AcDbEntity
  8
1
  6
CONTINUOUS
 62
           3
100
AcDbLine
 10
1033.811205847343
 20
856.311017145081
 11
1027.042390865654
 21
828.684084424184
  0
LINE
  5
B9
100
AcDbEntity
  8
1
  6
CONTINUOUS
 62
           3
100
AcDbLine
 10
1027.528974614646
 20
856.311017145081
 11
1033.811205847343
 21
856.311017145081
  0
LINE
  5
B8
100
AcDbEntity
  8
1
  6
CONTINUOUS
 62
           3
100
AcDbLine
 10
1019.676185573591
 20
824.259842000002
 11
1027.528974614646
 21
856.311017145081
  0
LINE
  5
B7
100
AcDbEntity
  8
1
  6
CONTINUOUS
 62
           3
100
AcDbLine
 10
1154.795866807106
 20
830.453781393911
 11
1163.841027313198
 21
867.371623205664
  0
LINE
  5
B6
100
AcDbEntity
  8
1
  6
CONTINUOUS
 62
           3
100
AcDbLine
 10
1163.841027313198
 20
867.371623205664
 11
1157.97761149593
 21
867.371623205664
  0
LINE
  5
B5
100
AcDbEntity
  8
1
  6
CONTINUOUS
 62
           3
100
AcDbLine
 10
1157.97761149593
 20
867.371623205664
 11
1147.414887306988
 21
824.259842000002
  0
LINE
  5
B4
100
AcDbEntity
  8
1
  6
CONTINUOUS
 62
           3
100
AcDbLine
 10
1165.319246320559
 20
856.311017145081
 11
1159.63440539787
 21
833.108326848479
  0
LINE
  5
B3
100
AcDbEntity
  8
1
  6
CONTINUOUS
 62
           3
100
AcDbLine
 10
1159.63440539787
 20
833.108326848479
 11
1175.339983479791
 21
833.108326848479
  0
LINE
  5
B2
100
AcDbEntity
  8
1
  6
CONTINUOUS
 62
           3
100
AcDbLine
 10
1175.339983479791
 20
833.108326848479
 11
1181.0248244024
 21
856.311017145081
  0
LINE
  5
B1
100
AcDbEntity
  8
1
  6
CONTINUOUS
 62
           3
100
AcDbLine
 10
1181.0248244024
 20
856.311017145081
 11
1175.789631708476
 21
856.311017145081
  0
LINE
  5
B0
100
AcDbEntity
  8
1
  6
CONTINUOUS
 62
           3
100
AcDbLine
 10
1175.789631708476
 20
856.311017145081
 11
1171.188764845081
 21
837.532569272799
  0
LINE
  5
AF
100
AcDbEntity
  8
1
  6
CONTINUOUS
 62
           3
100
AcDbLine
 10
1171.188764845081
 20
837.532569272799
 11
1165.953572151129
 21
837.532569272799
  0
LINE
  5
AE
100
AcDbEntity
  8
1
  6
CONTINUOUS
 62
           3
100
AcDbLine
 10
1165.953572151129
 20
837.532569272799
 11
1170.554439014481
 21
856.311017145081
  0
LINE
  5
AD
100
AcDbEntity
  8
1
  6
CONTINUOUS
 62
           3
100
AcDbLine
 10
1170.554439014481
 20
856.311017145081
 11
1165.319246320559
 21
856.311017145081
  0
LINE
  5
AC
100
AcDbEntity
  8
1
  6
CONTINUOUS
 62
           3
100
AcDbLine
 10
1187.583163158541
 20
856.311017145081
 11
1183.537716895526
 21
856.311017145081
  0
LINE
  5
AB
100
AcDbEntity
  8
1
  6
CONTINUOUS
 62
           3
100
AcDbLine
 10
1183.537716895526
 20
856.311017145081
 11
1187.660012417722
 21
845.675143218663
  0
LINE
  5
AA
100
AcDbEntity
  8
1
  6
CONTINUOUS
 62
           3
100
AcDbLine
 10
1187.660012417722
 20
845.675143218663
 11
1177.852875972933
 21
833.108326848479
  0
LINE
  5
A9
100
AcDbEntity
  8
1
  6
CONTINUOUS
 62
           3
100
AcDbLine
 10
1177.852875972933
 20
833.108326848479
 11
1181.898322235929
 21
833.108326848479
  0
LINE
  5
A8
100
AcDbEntity
  8
1
  6
CONTINUOUS
 62
           3
100
AcDbLine
 10
1181.898322235929
 20
833.108326848479
 11
1189.002454816031
 21
842.211527370504
  0
LINE
  5
A7
100
AcDbEntity
  8
1
  6
CONTINUOUS
 62
           3
100
AcDbLine
 10
1189.002454816031
 20
842.211527370504
 11
1192.530710510715
 21
833.108326848479
  0
LINE
  5
A6
100
AcDbEntity
  8
1
  6
CONTINUOUS
 62
           3
100
AcDbLine
 10
1192.530710510715
 20
833.108326848479
 11
1196.576156773764
 21
833.108326848479
  0
LINE
  5
A5
100
AcDbEntity
  8
1
  6
CONTINUOUS
 62
           3
100
AcDbLine
 10
1196.576156773764
 20
833.108326848479
 11
1191.705458680759
 21
845.675143218604
  0
LINE
  5
A4
100
AcDbEntity
  8
1
  6
CONTINUOUS
 62
           3
100
AcDbLine
 10
1191.705458680759
 20
845.675143218604
 11
1200.005688725842
 21
856.311017145081
  0
LINE
  5
A3
100
AcDbEntity
  8
1
  6
CONTINUOUS
 62
           3
100
AcDbLine
 10
1200.005688725842
 20
856.311017145081
 11
1195.960242462784
 21
856.311017145081
  0
LINE
  5
A2
100
AcDbEntity
  8
1
  6
CONTINUOUS
 62
           3
100
AcDbLine
 10
1195.960242462784
 20
856.311017145081
 11
1190.363016282498
 21
849.138759066825
  0
LINE
  5
A1
100
AcDbEntity
  8
1
  6
CONTINUOUS
 62
           3
100
AcDbLine
 10
1190.363016282498
 20
849.138759066825
 11
1187.583163158541
 21
856.311017145081
  0
LINE
  5
A0
100
AcDbEntity
  8
1
  6
CONTINUOUS
 62
           3
100
AcDbLine
 10
1197.605016359279
 20
830.453781393911
 11
1200.005688725798
 21
824.259842000002
  0
LINE
  5
9F
100
AcDbEntity
  8
1
  6
CONTINUOUS
 62
           3
100
AcDbLine
 10
1197.605016359279
 20
830.453781393911
 11
1154.795866807106
 21
830.453781393911
  0
LINE
  5
9E
100
AcDbEntity
  8
1
  6
CONTINUOUS
 62
           3
100
AcDbLine
 10
1200.005688725798
 20
824.259842000002
 11
1147.414887306988
 21
824.259842000002
  0
LINE
  5
9D
100
AcDbEntity
  8
1
  6
CONTINUOUS
 62
           3
100
AcDbLine
 10
1056.414873232558
 20
867.371623205664
 11
1059.666795410039
 21
880.644350478322
  0
LINE
  5
9C
100
AcDbEntity
  8
1
  6
CONTINUOUS
 62
           3
100
AcDbLine
 10
1059.666795410039
 20
880.644350478322
 11
1072.231257875757
 21
880.644350478322
  0
LINE
  5
9B
100
AcDbEntity
  8
1
  6
CONTINUOUS
 62
           3
100
AcDbLine
 10
1072.231257875757
 20
880.644350478322
 11
1068.979335698083
 21
867.371623205664
  0
LINE
  5
9A
100
AcDbEntity
  8
1
  6
CONTINUOUS
 62
           3
100
AcDbLine
 10
1068.979335698083
 20
867.371623205664
 11
1056.414873232558
 21
867.371623205664
  0
LINE
  5
99
100
AcDbEntity
  8
1
  6
CONTINUOUS
 62
           3
100
AcDbLine
 10
1067.427245650079
 20
869.583744417795
 11
1059.050937339724
 21
869.583744417795
  0
LINE
  5
98
100
AcDbEntity
  8
1
  6
CONTINUOUS
 62
           3
100
AcDbLine
 10
1069.595193768555
 20
878.432229266271
 11
1067.427245650079
 21
869.583744417795
  0
LINE
  5
97
100
AcDbEntity
  8
1
  6
CONTINUOUS
 62
           3
100
AcDbLine
 10
1061.218885458065
 20
878.432229266271
 11
1069.595193768555
 21
878.432229266271
  0
LINE
  5
96
100
AcDbEntity
  8
1
  6
CONTINUOUS
 62
           3
100
AcDbLine
 10
1059.050937339724
 20
869.583744417795
 11
1061.218885458065
 21
878.432229266271
  0
LINE
  5
95
100
AcDbEntity
  8
1
  6
CONTINUOUS
 62
           3
100
AcDbLine
 10
1074.74415036875
 20
880.644350478322
 11
1071.492228191213
 21
867.371623205664
  0
LINE
  5
94
100
AcDbEntity
  8
1
  6
CONTINUOUS
 62
           3
100
AcDbLine
 10
1074.74415036875
 20
880.644350478322
 11
1087.308612834329
 21
880.644350478322
  0
LINE
  5
93
100
AcDbEntity
  8
1
  6
CONTINUOUS
 62
           3
100
AcDbLine
 10
1087.308612834329
 20
880.644350478322
 11
1085.441088724476
 21
873.022046858334
  0
LINE
  5
92
100
AcDbEntity
  8
1
  6
CONTINUOUS
 62
           3
100
AcDbLine
 10
1084.056690656797
 20
867.371623205664
 11
1081.962613579157
 21
867.371623205664
  0
LINE
  5
91
100
AcDbEntity
  8
1
  6
CONTINUOUS
 62
           3
100
AcDbLine
 10
1081.962613579157
 20
867.371623205664
 11
1083.04658763853
 21
871.795865629846
  0
LINE
  5
90
100
AcDbEntity
  8
1
  6
CONTINUOUS
 62
           3
100
AcDbLine
 10
1083.04658763853
 20
871.795865629846
 11
1074.670279328
 21
871.795865629846
  0
LINE
  5
8F
100
AcDbEntity
  8
1
  6
CONTINUOUS
 62
           3
100
AcDbLine
 10
1075.212266357592
 20
874.007986842035
 11
1083.588574667972
 21
874.007986842035
  0
LINE
  5
8E
100
AcDbEntity
  8
1
  6
CONTINUOUS
 62
           3
100
AcDbLine
 10
1083.588574667972
 20
874.007986842035
 11
1084.672548727294
 21
878.432229266271
  0
LINE
  5
8D
100
AcDbEntity
  8
1
  6
CONTINUOUS
 62
           3
100
AcDbLine
 10
1084.672548727294
 20
878.432229266271
 11
1076.296240416776
 21
878.432229266271
  0
LINE
  5
8C
100
AcDbEntity
  8
1
  6
CONTINUOUS
 62
           3
100
AcDbLine
 10
1076.296240416776
 20
878.432229266271
 11
1075.212266357592
 21
874.007986842035
  0
LINE
  5
8B
100
AcDbEntity
  8
1
  6
CONTINUOUS
 62
           3
100
AcDbLine
 10
1085.004409042909
 20
871.239737810783
 11
1084.056690656797
 21
867.371623205664
  0
LINE
  5
8A
100
AcDbEntity
  8
1
  6
CONTINUOUS
 62
           3
100
AcDbLine
 10
1071.492228191213
 20
867.371623205664
 11
1073.586305268889
 21
867.371623205664
  0
LINE
  5
89
100
AcDbEntity
  8
1
  6
CONTINUOUS
 62
           3
100
AcDbLine
 10
1073.586305268889
 20
867.371623205664
 11
1074.670279328
 21
871.795865629846
  0
LINE
  5
88
100
AcDbEntity
  8
1
  6
CONTINUOUS
 62
           3
100
AcDbLine
 10
1091.915582405056
 20
880.644350478322
 11
1089.821505327493
 21
880.644350478322
  0
LINE
  5
87
100
AcDbEntity
  8
1
  6
CONTINUOUS
 62
           3
100
AcDbLine
 10
1089.821505327493
 20
880.644350478322
 11
1086.569583149927
 21
867.371623205664
  0
LINE
  5
86
100
AcDbEntity
  8
1
  6
CONTINUOUS
 62
           3
100
AcDbLine
 10
1086.569583149927
 20
867.371623205664
 11
1088.663660227647
 21
867.371623205664
  0
LINE
  5
85
100
AcDbEntity
  8
1
  6
CONTINUOUS
 62
           3
100
AcDbLine
 10
1088.663660227647
 20
867.371623205664
 11
1091.915582405056
 21
880.644350478322
  0
LINE
  5
84
100
AcDbEntity
  8
1
  6
CONTINUOUS
 62
           3
100
AcDbLine
 10
1091.176552720632
 20
867.371623205664
 11
1094.428474898175
 21
880.644350478322
  0
LINE
  5
83
100
AcDbEntity
  8
1
  6
CONTINUOUS
 62
           3
100
AcDbLine
 10
1094.428474898175
 20
880.644350478322
 11
1106.992937363766
 21
880.644350478322
  0
LINE
  5
82
100
AcDbEntity
  8
1
  6
CONTINUOUS
 62
           3
100
AcDbLine
 10
1106.992937363766
 20
880.644350478322
 11
1105.85476460164
 21
875.998895932893
  0
LINE
  5
81
100
AcDbEntity
  8
1
  6
CONTINUOUS
 62
           3
100
AcDbLine
 10
1103.741015186244
 20
867.371623205664
 11
1091.176552720632
 21
867.371623205664
  0
LINE
  5
80
100
AcDbEntity
  8
1
  6
CONTINUOUS
 62
           3
100
AcDbLine
 10
1102.188925138196
 20
869.583744417795
 11
1093.812616827867
 21
869.583744417795
  0
LINE
  5
7F
100
AcDbEntity
  8
1
  6
CONTINUOUS
 62
           3
100
AcDbLine
 10
1104.356873256491
 20
878.432229266271
 11
1103.760687524114
 21
875.998895932893
  0
LINE
  5
7E
100
AcDbEntity
  8
1
  6
CONTINUOUS
 62
           3
100
AcDbLine
 10
1095.980564946194
 20
878.432229266271
 11
1104.356873256491
 21
878.432229266271
  0
LINE
  5
7D
100
AcDbEntity
  8
1
  6
CONTINUOUS
 62
           3
100
AcDbLine
 10
1093.812616827867
 20
869.583744417795
 11
1095.980564946194
 21
878.432229266271
  0
LINE
  5
7C
100
AcDbEntity
  8
1
  6
CONTINUOUS
 62
           3
100
AcDbLine
 10
1105.366976275016
 20
874.007986842035
 11
1099.084745042211
 21
874.007986842035
  0
LINE
  5
7B
100
AcDbEntity
  8
1
  6
CONTINUOUS
 62
           3
100
AcDbLine
 10
1105.366976275016
 20
874.007986842035
 11
1103.741015186244
 21
867.371623205664
  0
LINE
  5
7A
100
AcDbEntity
  8
1
  6
CONTINUOUS
 62
           3
100
AcDbLine
 10
1099.084745042211
 20
874.007986842035
 11
1098.542758012563
 21
871.795865629846
  0
LINE
  5
79
100
AcDbEntity
  8
1
  6
CONTINUOUS
 62
           3
100
AcDbLine
 10
1098.542758012563
 20
871.795865629846
 11
1102.730912167964
 21
871.795865629846
  0
LINE
  5
78
100
AcDbEntity
  8
1
  6
CONTINUOUS
 62
           3
100
AcDbLine
 10
1102.730912167964
 20
871.795865629846
 11
1102.188925138196
 21
869.583744417795
  0
LINE
  5
77
100
AcDbEntity
  8
1
  6
CONTINUOUS
 62
           3
100
AcDbLine
 10
1103.760687524114
 20
875.998895932893
 11
1105.85476460164
 21
875.998895932893
  0
LINE
  5
76
100
AcDbEntity
  8
1
  6
CONTINUOUS
 62
           3
100
AcDbLine
 10
1106.25390767936
 20
867.371623205664
 11
1108.347984756921
 21
867.371623205664
  0
LINE
  5
75
100
AcDbEntity
  8
1
  6
CONTINUOUS
 62
           3
100
AcDbLine
 10
1108.347984756921
 20
867.371623205664
 11
1111.59990693449
 21
880.644350478322
  0
LINE
  5
74
100
AcDbEntity
  8
1
  6
CONTINUOUS
 62
           3
100
AcDbLine
 10
1109.505829856926
 20
880.644350478322
 11
1106.25390767936
 21
867.371623205664
  0
LINE
  5
73
100
AcDbEntity
  8
1
  6
CONTINUOUS
 62
           3
100
AcDbLine
 10
1111.59990693449
 20
880.644350478322
 11
1109.505829856926
 21
880.644350478322
  0
LINE
  5
72
100
AcDbEntity
  8
1
  6
CONTINUOUS
 62
           3
100
AcDbLine
 10
1110.86087725009
 20
867.371623205664
 11
1114.112799427606
 21
880.644350478322
  0
LINE
  5
71
100
AcDbEntity
  8
1
  6
CONTINUOUS
 62
           3
100
AcDbLine
 10
1114.112799427606
 20
880.644350478322
 11
1117.253915043946
 21
880.644350478322
  0
LINE
  5
70
100
AcDbEntity
  8
1
  6
CONTINUOUS
 62
           3
100
AcDbLine
 10
1117.253915043946
 20
880.644350478322
 11
1121.737752910221
 21
869.030714114748
  0
LINE
  5
6F
100
AcDbEntity
  8
1
  6
CONTINUOUS
 62
           3
100
AcDbLine
 10
1121.737752910221
 20
869.030714114748
 11
1124.583184815574
 21
880.644350478322
  0
LINE
  5
6E
100
AcDbEntity
  8
1
  6
CONTINUOUS
 62
           3
100
AcDbLine
 10
1124.583184815574
 20
880.644350478322
 11
1126.677261893188
 21
880.644350478322
  0
LINE
  5
6D
100
AcDbEntity
  8
1
  6
CONTINUOUS
 62
           3
100
AcDbLine
 10
1126.677261893188
 20
880.644350478322
 11
1123.425339715568
 21
867.371623205664
  0
LINE
  5
6C
100
AcDbEntity
  8
1
  6
CONTINUOUS
 62
           3
100
AcDbLine
 10
1123.425339715568
 20
867.371623205664
 11
1120.1826612268
 21
867.371623205664
  0
LINE
  5
6B
100
AcDbEntity
  8
1
  6
CONTINUOUS
 62
           3
100
AcDbLine
 10
1120.1826612268
 20
867.371623205664
 11
1116.40150489109
 21
877.165236629536
  0
LINE
  5
6A
100
AcDbEntity
  8
1
  6
CONTINUOUS
 62
           3
100
AcDbLine
 10
1116.40150489109
 20
877.165236629536
 11
1115.760956624579
 21
878.824327538599
  0
LINE
  5
69
100
AcDbEntity
  8
1
  6
CONTINUOUS
 62
           3
100
AcDbLine
 10
1115.760956624579
 20
878.824327538599
 11
1112.954954327651
 21
867.371623205664
  0
LINE
  5
68
100
AcDbEntity
  8
1
  6
CONTINUOUS
 62
           3
100
AcDbLine
 10
1112.954954327651
 20
867.371623205664
 11
1110.86087725009
 21
867.371623205664
  0
LINE
  5
67
100
AcDbEntity
  8
1
  6
CONTINUOUS
 62
           3
100
AcDbLine
 10
1125.938232208684
 20
867.371623205664
 11
1133.449662487581
 21
880.644350478322
  0
LINE
  5
66
100
AcDbEntity
  8
1
  6
CONTINUOUS
 62
           3
100
AcDbLine
 10
1133.449662487581
 20
880.644350478322
 11
1137.495108750556
 21
880.644350478322
  0
LINE
  5
65
100
AcDbEntity
  8
1
  6
CONTINUOUS
 62
           3
100
AcDbLine
 10
1137.495108750556
 20
880.644350478322
 11
1138.502694674318
 21
867.371623205664
  0
LINE
  5
64
100
AcDbEntity
  8
1
  6
CONTINUOUS
 62
           3
100
AcDbLine
 10
1138.502694674318
 20
867.371623205664
 11
1136.473012511249
 21
867.371623205664
  0
LINE
  5
63
100
AcDbEntity
  8
1
  6
CONTINUOUS
 62
           3
100
AcDbLine
 10
1136.473012511249
 20
867.371623205664
 11
1136.305081523982
 21
869.583744417795
  0
LINE
  5
62
100
AcDbEntity
  8
1
  6
CONTINUOUS
 62
           3
100
AcDbLine
 10
1136.305081523982
 20
869.583744417795
 11
1129.568934243618
 21
869.583744417795
  0
LINE
  5
61
100
AcDbEntity
  8
1
  6
CONTINUOUS
 62
           3
100
AcDbLine
 10
1129.568934243618
 20
869.583744417795
 11
1128.317029197256
 21
867.371623205664
  0
LINE
  5
60
100
AcDbEntity
  8
1
  6
CONTINUOUS
 62
           3
100
AcDbLine
 10
1128.317029197256
 20
867.371623205664
 11
1125.938232208684
 21
867.371623205664
  0
LINE
  5
5F
100
AcDbEntity
  8
1
  6
CONTINUOUS
 62
           3
100
AcDbLine
 10
1130.82083929015
 20
871.795865629846
 11
1136.137150536661
 21
871.795865629846
  0
LINE
  5
5E
100
AcDbEntity
  8
1
  6
CONTINUOUS
 62
           3
100
AcDbLine
 10
1136.137150536661
 20
871.795865629846
 11
1135.633357574805
 21
878.432229266271
  0
LINE
  5
5D
100
AcDbEntity
  8
1
  6
CONTINUOUS
 62
           3
100
AcDbLine
 10
1135.633357574805
 20
878.432229266271
 11
1134.576554429516
 21
878.432229266271
  0
LINE
  5
5C
100
AcDbEntity
  8
1
  6
CONTINUOUS
 62
           3
100
AcDbLine
 10
1130.82083929015
 20
871.795865629846
 11
1134.576554429516
 21
878.432229266271
  0
LINE
  5
5B
100
AcDbEntity
  8
1
  6
CONTINUOUS
 62
           3
100
AcDbLine
 10
1144.267509345007
 20
880.644350478322
 11
1141.015587167439
 21
867.371623205664
  0
LINE
  5
5A
100
AcDbEntity
  8
1
  6
CONTINUOUS
 62
           3
100
AcDbLine
 10
1141.015587167439
 20
867.371623205664
 11
1153.580049633018
 21
867.371623205664
  0
LINE
  5
59
100
AcDbEntity
  8
1
  6
CONTINUOUS
 62
           3
100
AcDbLine
 10
1153.580049633018
 20
867.371623205664
 11
1154.122036662679
 21
869.583744417795
  0
LINE
  5
58
100
AcDbEntity
  8
1
  6
CONTINUOUS
 62
           3
100
AcDbLine
 10
1154.122036662679
 20
869.583744417795
 11
1143.651651274658
 21
869.583744417795
  0
LINE
  5
57
100
AcDbEntity
  8
1
  6
CONTINUOUS
 62
           3
100
AcDbLine
 10
1143.651651274658
 20
869.583744417795
 11
1146.361586422621
 21
880.644350478322
  0
LINE
  5
56
100
AcDbEntity
  8
1
  6
CONTINUOUS
 62
           3
100
AcDbLine
 10
1146.361586422621
 20
880.644350478322
 11
1144.267509345007
 21
880.644350478322
  0
LINE
  5
55
100
AcDbEntity
  8
1
  6
CONTINUOUS
 62
           3
100
AcDbLine
 10
1190.882821709291
 20
874.459953213843
 11
1190.882821709291
 21
871.710897788283
  0
LINE
  5
54
100
AcDbEntity
  8
1
  6
CONTINUOUS
 62
           3
100
AcDbLine
 10
1190.010374010175
 20
871.710897788283
 11
1190.010374010175
 21
878.569365963458
  0
LINE
  5
53
100
AcDbEntity
  8
1
  6
CONTINUOUS
 62
           3
100
AcDbLine
 10
1190.010374010175
 20
878.569365963458
 11
1192.452293869415
 21
878.569365963458
  0
LINE
  5
52
100
AcDbEntity
  8
1
  6
CONTINUOUS
 62
           3
100
AcDbLine
 10
1192.452293869415
 20
878.569365963458
 11
1192.748650451767
 21
878.569365963458
  0
LINE
  5
51
100
AcDbEntity
  8
1
  6
CONTINUOUS
 62
           3
100
AcDbLine
 10
1194.582284966334
 20
873.590531554628
 11
1194.582284966334
 21
871.710897788283
  0
LINE
  5
50
100
AcDbEntity
  8
1
  6
CONTINUOUS
 62
           3
100
AcDbLine
 10
1194.582284966334
 20
871.710897788283
 11
1193.621098150828
 21
871.710897788283
  0
LINE
  5
4F
100
AcDbEntity
  8
1
  6
CONTINUOUS
 62
           3
100
AcDbLine
 10
1193.621098150828
 20
871.710897788283
 11
1193.621098150828
 21
873.332753055902
  0
LINE
  5
4E
100
AcDbEntity
  8
1
  6
CONTINUOUS
 62
           3
100
AcDbLine
 10
1192.607883410909
 20
874.459953213843
 11
1190.882821709291
 21
874.459953213843
  0
LINE
  5
4D
100
AcDbEntity
  8
1
  6
CONTINUOUS
 62
           3
100
AcDbLine
 10
1190.882821709291
 20
871.710897788283
 11
1190.010374010175
 21
871.710897788283
  0
LINE
  5
4C
100
AcDbEntity
  8
1
  6
CONTINUOUS
 62
           3
100
AcDbLine
 10
1190.882821709291
 20
875.310176541277
 11
1192.870304937233
 21
875.310176541277
  0
LINE
  5
4B
100
AcDbEntity
  8
1
  6
CONTINUOUS
 62
           3
100
AcDbLine
 10
1192.738794701377
 20
877.76583453128
 11
1190.882821709291
 21
877.76583453128
  0
LINE
  5
4A
100
AcDbEntity
  8
1
  6
CONTINUOUS
 62
           3
100
AcDbLine
 10
1190.882821709291
 20
877.76583453128
 11
1190.882821709291
 21
875.310176541277
  0
ENDBLK
  5
FE
100
AcDbEntity
  8
0
100
AcDbBlockEnd
  0
ENDSEC
  0
SECTION
  2
ENTITIES
  0
MTEXT
  5
102
100
AcDbEntity
  8
1
 62
           2
100
AcDbMText
 10
1200.005688725797
 20
734.259842000003
 30
0.0
 40
35.0
 41
0.0
 71
           9
 72
           1
  1
Prime-line 248
  7
CONVERTER_1
  0
TEXT
  5
101
100
AcDbEntity
  8
1
 62
           3
100
AcDbText
 10
604.988134725798
 20
607.243980000002
 40
35.0
  1
ø 52
 41
0.71262
  7
CONVERTER_1
100
AcDbText
  0
INSERT
  5
2D
100
AcDbEntity
  8
0
100
AcDbBlockReference
  2
WANNE_PRIME_LINE_248
 10
0.0
 20
0.0
  0
INSERT
  5
2E
100
AcDbEntity
  8
0
100
AcDbBlockReference
  2
DLX
 10
0.0
 20
0.0
  0
ENDSEC
  0
SECTION
  2
OBJECTS
  0
DICTIONARY
  5
19
100
AcDbDictionary
  3
ACAD_GROUP
350
1A
  3
ACAD_MLINESTYLE
350
1B
  0
DICTIONARY
  5
1A
102
{ACAD_REACTORS
330
19
102
}
100
AcDbDictionary
  0
DICTIONARY
  5
1B
102
{ACAD_REACTORS
330
19
102
}
100
AcDbDictionary
  3
STANDARD
350
1C
  0
MLINESTYLE
  5
1C
102
{ACAD_REACTORS
330
1B
102
}
100
AcDbMlineStyle
  2
STANDARD
 70
           0
  3

 62
           0
 51
90.0
 52
90.0
 71
           2
 49
0.5
 62
         256
  6
BYLAYER
 49
-0.5
 62
         256
  6
BYLAYER
  0
ENDSEC
  0
EOF
