  0
SECTION
  2
HEADER
  9
$ACADVER
  1
AC1014
  9
$ACADMAINTVER
 70
           0
  9
$DWGCODEPAGE
  3
ANSI_1252
  9
$INSBASE
 10
0.0
 20
0.0
 30
0.0
  9
$EXTMIN
 10
1.000000000000E+20
 20
1.000000000000E+20
 30
1.000000000000E+20
  9
$EXTMAX
 10
-1.000000000000E+20
 20
-1.000000000000E+20
 30
-1.000000000000E+20
  9
$LIMMIN
 10
0.0
 20
0.0
  9
$LIMMAX
 10
0.0
 20
0.0
  9
$ORTHOMODE
 70
           0
  9
$REGENMODE
 70
           1
  9
$FILLMODE
 70
           1
  9
$QTEXTMODE
 70
           0
  9
$MIRRTEXT
 70
           1
  9
$DRAGMODE
 70
           2
  9
$LTSCALE
 40
1.0
  9
$OSMODE
 70
           0
  9
$ATTMODE
 70
           1
  9
$TEXTSIZE
 40
0.2
  9
$TRACEWID
 40
0.05
  9
$TEXTSTYLE
  7
STANDARD
  9
$CLAYER
  8
0
  9
$CELTYPE
  6
CONTINUOUS
  9
$CECOLOR
 62
         256
  9
$CELTSCALE
 40
1.0
  9
$DELOBJ
 70
           1
  9
$DISPSILH
 70
           0
  9
$DIMSCALE
 40
1.0
  9
$DIMASZ
 40
0.18
  9
$DIMEXO
 40
0.0625
  9
$DIMDLI
 40
0.38
  9
$DIMRND
 40
0.0
  9
$DIMDLE
 40
0.0
  9
$DIMEXE
 40
0.18
  9
$DIMTP
 40
0.0
  9
$DIMTM
 40
0.0
  9
$DIMTXT
 40
0.18
  9
$DIMCEN
 40
0.09
  9
$DIMTSZ
 40
0.0
  9
$DIMTOL
 70
           0
  9
$DIMLIM
 70
           0
  9
$DIMTIH
 70
           1
  9
$DIMTOH
 70
           1
  9
$DIMSE1
 70
           0
  9
$DIMSE2
 70
           0
  9
$DIMTAD
 70
           0
  9
$DIMZIN
 70
           0
  9
$DIMBLK
  1

  9
$DIMASO
 70
           1
  9
$DIMSHO
 70
           1
  9
$DIMPOST
  1

  9
$DIMAPOST
  1

  9
$DIMALT
 70
           0
  9
$DIMALTD
 70
           2
  9
$DIMALTF
 40
25.4
  9
$DIMLFAC
 40
1.0
  9
$DIMTOFL
 70
           0
  9
$DIMTVP
 40
0.0
  9
$DIMTIX
 70
           0
  9
$DIMSOXD
 70
           0
  9
$DIMSAH
 70
           0
  9
$DIMBLK1
  1

  9
$DIMBLK2
  1

  9
$DIMSTYLE
  2
STANDARD
  9
$DIMCLRD
 70
           0
  9
$DIMCLRE
 70
           0
  9
$DIMCLRT
 70
           0
  9
$DIMTFAC
 40
1.0
  9
$DIMGAP
 40
0.09
  9
$DIMJUST
 70
           0
  9
$DIMSD1
 70
           0
  9
$DIMSD2
 70
           0
  9
$DIMTOLJ
 70
           1
  9
$DIMTZIN
 70
           0
  9
$DIMALTZ
 70
           0
  9
$DIMALTTZ
 70
           0
  9
$DIMFIT
 70
           3
  9
$DIMUPT
 70
           0
  9
$DIMUNIT
 70
           2
  9
$DIMDEC
 70
           4
  9
$DIMTDEC
 70
           4
  9
$DIMALTU
 70
           2
  9
$DIMALTTD
 70
           2
  9
$DIMTXSTY
  7
STANDARD
  9
$DIMAUNIT
 70
           0
  9
$LUNITS
 70
           2
  9
$LUPREC
 70
           4
  9
$SKETCHINC
 40
0.1
  9
$FILLETRAD
 40
0.0
  9
$AUNITS
 70
           0
  9
$AUPREC
 70
           0
  9
$MENU
  1
acad
  9
$ELEVATION
 40
0.0
  9
$PELEVATION
 40
0.0
  9
$THICKNESS
 40
0.0
  9
$LIMCHECK
 70
           0
  9
$BLIPMODE
 70
           1
  9
$CHAMFERA
 40
0.0
  9
$CHAMFERB
 40
0.0
  9
$CHAMFERC
 40
0.0
  9
$CHAMFERD
 40
0.0
  9
$SKPOLY
 70
           0
  9
$TDCREATE
 40
0.000000000
  9
$TDUPDATE
 40
0.000000000
  9
$TDINDWG
 40
0.0000000000
  9
$TDUSRTIMER
 40
0.0000000000
  9
$USRTIMER
 70
           1
  9
$ANGBASE
 50
0.0
  9
$ANGDIR
 70
           0
  9
$PDMODE
 70
           0
  9
$PDSIZE
 40
0.0
  9
$PLINEWID
 40
0.0
  9
$COORDS
 70
           0
  9
$SPLFRAME
 70
           0
  9
$SPLINETYPE
 70
           6
  9
$SPLINESEGS
 70
           8
  9
$ATTDIA
 70
           0
  9
$ATTREQ
 70
           1
  9
$HANDLING
 70
           1
  9
$HANDSEED
  5
107
  9
$SURFTAB1
 70
           6
  9
$SURFTAB2
 70
           6
  9
$SURFTYPE
 70
           6
  9
$SURFU
 70
           6
  9
$SURFV
 70
           6
  9
$UCSNAME
  2

  9
$UCSORG
 10
0.0
 20
0.0
 30
0.0
  9
$UCSXDIR
 10
1.0
 20
0.0
 30
0.0
  9
$UCSYDIR
 10
0.0
 20
1.0
 30
0.0
  9
$PUCSNAME
  2

  9
$PUCSORG
 10
0.0
 20
0.0
 30
0.0
  9
$PUCSXDIR
 10
1.0
 20
0.0
 30
0.0
  9
$PUCSYDIR
 10
0.0
 20
1.0
 30
0.0
  9
$USERI1
 70
           0
  9
$USERI2
 70
           0
  9
$USERI3
 70
           0
  9
$USERI4
 70
           0
  9
$USERI5
 70
           0
  9
$USERR1
 40
0.0
  9
$USERR2
 40
0.0
  9
$USERR3
 40
0.0
  9
$USERR4
 40
0.0
  9
$USERR5
 40
0.0
  9
$WORLDVIEW
 70
           1
  9
$SHADEDGE
 70
           3
  9
$SHADEDIF
 70
          70
  9
$TILEMODE
 70
           1
  9
$MAXACTVP
 70
          16
  9
$PINSBASE
 10
0.0
 20
0.0
 30
0.0
  9
$PLIMCHECK
 70
           0
  9
$PEXTMIN
 10
1.000000000000E+20
 20
1.000000000000E+20
 30
1.000000000000E+20
  9
$PEXTMAX
 10
-1.000000000000E+20
 20
-1.000000000000E+20
 30
-1.000000000000E+20
  9
$PLIMMIN
 10
0.0
 20
0.0
  9
$PLIMMAX
 10
12.0
 20
9.0
  9
$UNITMODE
 70
           0
  9
$VISRETAIN
 70
           0
  9
$PLINEGEN
 70
           1
  9
$PSLTSCALE
 70
           0
  9
$TREEDEPTH
 70
        3020
  9
$PICKSTYLE
 70
           1
  9
$CMLSTYLE
  2
STANDARD
  9
$CMLJUST
 70
           0
  9
$CMLSCALE
 40
1.0
  9
$PROXYGRAPHICS
 70
           0
  9
$MEASUREMENT
 70
           0
  0
ENDSEC
  0
SECTION
  2
CLASSES
  0
CLASS
  1
LWPOLYLINE
  2
AcDbPolyline
  3
"AutoCAD"
 90
        0
280
           0
281
           1
  0
CLASS
  1
IMAGE
  2
AcDbRasterImage
  3
ISM
 90
      127
280
           0
281
           1
  0
CLASS
  1
OLE2FRAME
  2
AcDbOle2Frame
  3
""
 90
        0
280
           0
281
           1
  0
CLASS
  1
HATCH
  2
AcDbHatch
  3
"ACAD_SEDONA"
 90
        0
280
           0
281
           1
  0
CLASS
  1
DICTIONARYVAR
  2
AcDbDictionaryVar
  3
"AutoCAD"
 90
        0
280
           0
281
           0
  0
CLASS
  1
RASTERVARIABLES
  2
AcDbRasterVariables
  3
ISM
 90
        0
280
           0
281
           0
  0
CLASS
  1
IMAGEDEF
  2
AcDbRasterImageDef
  3
ISM
 90
        0
280
           0
281
           0
  0
CLASS
  1
IMAGEDEF_REACTOR
  2
AcDbRasterImageDefReactor
  3
ISM
 90
        1
280
           0
281
           0
  0
CLASS
  1
IDBUFFER
  2
AcDbIdBuffer
  3
"Acad"
 90
        0
280
           0
281
           0
  0
CLASS
  1
SPATIAL_FILTER
  2
AcDbSpatialFilter
  3
"Acad"
 90
        0
280
           0
281
           0
  0
CLASS
  1
XRECORD
  2
AcDbXrecord
  3
"<Built In>"
 90
        0
280
           0
281
           0
  0
CLASS
  1
SORTENTSTABLE
  2
AcDbSortentsTable
  3
"AutoCAD"
 90
        0
280
           0
281
           0
  0
CLASS
  1
LAYER_INDEX
  2
AcDbLayerIndex
  3
"Acad"
 90
        0
280
           0
281
           0
  0
CLASS
  1
SPATIAL_INDEX
  2
AcDbSpatialIndex
  3
"Acad"
 90
        0
280
           0
281
           0
  0
CLASS
  1
OBJECT_PTR
  2
CAseDLPNTableRecord
  3
"ASE-LPNTableRecord"
 90
        1
280
           0
281
           0
  0
CLASS
  1
LAYOUT
  2
AcDbLayout
  3
"AutoCAD 2000"
 90
        1
280
           0
281
           0
  0
CLASS
  1
PLOTSETTINGS
  2
AcDbPlotSettings
  3
"AutoCAD 2000"
 90
        1
280
           0
281
           0
  0
CLASS
  1
ACDBDICTIONARYWDFLT
  2
AcDbDictionaryWithDefault
  3
"AutoCAD 2000"
 90
        1
280
           0
281
           0
  0
CLASS
  1
ACDBPLACEHOLDER
  2
AcDbPlaceHolder
  3
"AutoCAD 2000"
 90
        1
280
           0
281
           0
  0
CLASS
  1
VBA_PROJECT
  2
AcDbVbaProject
  3
"acadvba"
 90
        1
280
           0
281
           0
  0
CLASS
  1
WIPEOUT
  2
AcDbWipeout
  3
WipeOut|AutoCAD Express Tool|expresstools@autodesk.com
 90
      127
280
           0
281
           1
  0
CLASS
  1
WIPEOUTVARIABLES
  2
AcDbWipeoutVariables
  3
WipeOut|AutoCAD Express Tool|expresstools@autodesk.com
 90
        0
280
           0
281
           0
  0
CLASS
  1
RTEXT
  2
RText
  3
RText|AutoCAD Express Tool|expresstools@autodesk.com
 90
        0
280
           0
281
           1
  0
CLASS
  1
ARCALIGNEDTEXT
  2
AcDbArcAlignedText
  3
ATEXT|AutoCAD Express Tool|expresstools@autodesk.com
 90
        0
280
           0
281
           1
  0
ENDSEC
  0
SECTION
  2
TABLES
  0
TABLE
  2
VPORT
  5
7
100
AcDbSymbolTable
 70
           1
  0
VPORT
  5
15
100
AcDbSymbolTableRecord
100
AcDbViewportTableRecord
  2
*ACTIVE
 70
           0
 10
0.0
 20
0.0
 11
1.0
 21
1.0
 12
6.591288
 22
4.579184
 13
0.0
 23
0.0
 14
1.0
 24
1.0
 15
0.0
 25
0.0
 16
0.0
 26
0.0
 36
1.0
 17
0.0
 27
0.0
 37
0.0
 40
9.158369
 41
0.688564
 42
50.0
 43
0.0
 44
0.0
 50
0.0
 51
0.0
 71
           0
 72
         100
 73
           1
 74
           1
 75
           0
 76
           0
 77
           0
 78
           0
  0
ENDTAB
  0
TABLE
  2
LTYPE
  5
4
100
AcDbSymbolTable
 70
          10
  0
LTYPE
  5
11
100
AcDbSymbolTableRecord
100
AcDbLinetypeTableRecord
  2
BYBLOCK
 70
          64
  3

 72
          65
 73
           0
 40
0.0
  0
LTYPE
  5
12
100
AcDbSymbolTableRecord
100
AcDbLinetypeTableRecord
  2
BYLAYER
 70
          64
  3

 72
          65
 73
           0
 40
0.0
  0
LTYPE
  5
13
100
AcDbSymbolTableRecord
100
AcDbLinetypeTableRecord
  2
CONTINUOUS
 70
          64
  3
Solid line
 72
          65
 73
           0
 40
0.0
  0
LTYPE
  5
1D
100
AcDbSymbolTableRecord
100
AcDbLinetypeTableRecord
  2
DASHED
 70
          64
  3
Dashed
 72
          65
 73
           2
 40
15.0
 49
12.0
 74
           0
 49
-3.0
 74
           0
  0
LTYPE
  5
1E
100
AcDbSymbolTableRecord
100
AcDbLinetypeTableRecord
  2
DOTTED
 70
          64
  3
Dotted
 72
          65
 73
           2
 40
3.5
 49
0.5
 74
           0
 49
-3.0
 74
           0
  0
LTYPE
  5
1F
100
AcDbSymbolTableRecord
100
AcDbLinetypeTableRecord
  2
DOT_CENTER
 70
          64
  3
Dot_Center
 72
          65
 73
           4
 40
2.0
 49
1.25
 74
           0
 49
-0.25
 74
           0
 49
0.25
 74
           0
 49
-0.25
 74
           0
  0
LTYPE
  5
20
100
AcDbSymbolTableRecord
100
AcDbLinetypeTableRecord
  2
LONG_DASHED
 70
          64
  3
Long_Dashed
 72
          65
 73
           2
 40
2.0
 49
1.5
 74
           0
 49
-0.5
 74
           0
  0
LTYPE
  5
21
100
AcDbSymbolTableRecord
100
AcDbLinetypeTableRecord
  2
DASH_CENTER
 70
          64
  3
Dash_Center
 72
          65
 73
           4
 40
36.0
 49
24.0
 74
           0
 49
-3.0
 74
           0
 49
6.0
 74
           0
 49
-3.0
 74
           0
  0
LTYPE
  5
22
100
AcDbSymbolTableRecord
100
AcDbLinetypeTableRecord
  2
PHANTOM
 70
          64
  3
Phantom
 72
          65
 73
           6
 40
2.5
 49
1.25
 74
           0
 49
-0.25
 74
           0
 49
0.25
 74
           0
 49
-0.25
 74
           0
 49
0.25
 74
           0
 49
-0.25
 74
           0
  0
LTYPE
  5
23
100
AcDbSymbolTableRecord
100
AcDbLinetypeTableRecord
  2
CENTER_DASH_DASH
 70
          64
  3
Center_Dash_Dash
 72
          65
 73
           6
 40
22.0
 49
12.0
 74
           0
 49
-3.0
 74
           0
 49
0.5
 74
           0
 49
-3.0
 74
           0
 49
0.5
 74
           0
 49
-3.0
 74
           0
  0
ENDTAB
  0
TABLE
  2
LAYER
  5
2
100
AcDbSymbolTable
 70
           4
  0
LAYER
  5
14
100
AcDbSymbolTableRecord
100
AcDbLayerTableRecord
  2
0
 70
           0
 62
           7
  6
CONTINUOUS
  0
LAYER
  5
24
100
AcDbSymbolTableRecord
100
AcDbLayerTableRecord
  2
MITTELLINIEN
 70
           0
 62
           7
  6
CONTINUOUS
  0
LAYER
  5
25
100
AcDbSymbolTableRecord
100
AcDbLayerTableRecord
  2
1
 70
           0
 62
           7
  6
CONTINUOUS
  0
LAYER
  5
26
100
AcDbSymbolTableRecord
100
AcDbLayerTableRecord
  2
WANNE
 70
           0
 62
           7
  6
CONTINUOUS
  0
ENDTAB
  0
TABLE
  2
STYLE
  5
3
100
AcDbSymbolTable
 70
           2
  0
STYLE
  5
17
100
AcDbSymbolTableRecord
100
AcDbTextStyleTableRecord
  2
STANDARD
 70
           0
 40
0.0
 41
1.0
 50
0.0
 71
           0
 42
0.0
  3
txt
  4

  0
STYLE
  5
103
100
AcDbSymbolTableRecord
100
AcDbTextStyleTableRecord
  2
CONVERTER_1
 70
           0
 40
0.0
 41
0.71262
 50
0.0
 71
           0
 42
0.0
  3
txt.shx
  4

  0
ENDTAB
  0
TABLE
  2
VIEW
  5
5
100
AcDbSymbolTable
 70
           0
  0
ENDTAB
  0
TABLE
  2
UCS
  5
6
100
AcDbSymbolTable
 70
           0
  0
ENDTAB
  0
TABLE
  2
APPID
  5
8
100
AcDbSymbolTable
 70
           1
  0
APPID
  5
16
100
AcDbSymbolTableRecord
100
AcDbRegAppTableRecord
  2
ACAD
 70
           0
  0
ENDTAB
  0
TABLE
  2
DIMSTYLE
  5
9
100
AcDbSymbolTable
 70
           1
  0
DIMSTYLE
105
18
100
AcDbSymbolTableRecord
100
AcDbDimStyleTableRecord
  2
STANDARD
 70
           0
  3

  4

  5

  6

  7

 40
1.0
 41
0.18
 42
0.0625
 43
0.38
 44
0.18
 45
0.0
 46
0.0
 47
0.0
 48
0.0
 71
           0
 72
           0
 73
           1
 74
           1
 75
           0
 76
           0
 77
           0
 78
           0
140
0.18
141
0.09
142
0.0
143
25.4
144
1.0
145
0.0
146
1.0
147
0.09
170
           0
171
           2
172
           0
173
           0
174
           0
175
           0
176
           0
177
           0
178
           0
270
           2
271
           4
272
           4
273
           2
274
           2
275
           0
280
           0
281
           0
282
           0
283
           1
284
           0
285
           0
286
           0
287
           0
288
           0
340
17
  0
ENDTAB
  0
TABLE
  2
BLOCK_RECORD
  5
1
100
AcDbSymbolTable
 70
           2
  0
BLOCK_RECORD
  5
A
100
AcDbSymbolTableRecord
100
AcDbBlockTableRecord
  2
*MODEL_SPACE
  0
BLOCK_RECORD
  5
B
100
AcDbSymbolTableRecord
100
AcDbBlockTableRecord
  2
*PAPER_SPACE
  0
BLOCK_RECORD
  5
27
100
AcDbSymbolTableRecord
100
AcDbBlockTableRecord
  2
DLX
  0
BLOCK_RECORD
  5
29
100
AcDbSymbolTableRecord
100
AcDbBlockTableRecord
  2
WANNE_PRIME_LINE_249
  0
ENDTAB
  0
ENDSEC
  0
SECTION
  2
BLOCKS
  0
BLOCK
  5
D
100
AcDbEntity
  8
0
100
AcDbBlockBegin
  2
*MODEL_SPACE
 70
           0
 10
0.0
 20
0.0
 30
0.0
  3
*MODEL_SPACE
  1

  0
ENDBLK
  5
E
100
AcDbEntity
  8
0
100
AcDbBlockEnd
  0
BLOCK
  5
F
100
AcDbEntity
 67
           1
  8
0
100
AcDbBlockBegin
  2
*PAPER_SPACE
 70
           0
 10
0.0
 20
0.0
 30
0.0
  3
*PAPER_SPACE
  1

  0
ENDBLK
  5
10
100
AcDbEntity
 67
           1
  8
0
100
AcDbBlockEnd
  0
BLOCK
  5
28
100
AcDbEntity
  8
0
100
AcDbBlockBegin
  2
DLX
 70
           0
 10
0.0
 20
0.0
 30
0.0
  3
DLX
  1

  0
CIRCLE
  5
E2
100
AcDbEntity
  8
1
  6
CONTINUOUS
 62
           3
100
AcDbCircle
 10
547.735875237937
 20
1076.866330878755
 40
5.530127989696
  0
CIRCLE
  5
E1
100
AcDbEntity
  8
1
  6
CONTINUOUS
 62
           3
100
AcDbCircle
 10
547.735875237937
 20
1076.866330878755
 40
5.972862778754
  0
ARC
  5
E0
100
AcDbEntity
  8
1
  6
CONTINUOUS
 62
           3
100
AcDbCircle
 10
548.514586791596
 20
1075.349776682226
 40
1.391870091328
100
AcDbArc
 50
-1.298612665726
 51
66.544866494042
  0
ARC
  5
DF
100
AcDbEntity
  8
1
  6
CONTINUOUS
 62
           3
100
AcDbCircle
 10
547.789193605106
 20
1075.040582389822
 40
1.155889798231
100
AcDbArc
 50
0.985058170485
 51
82.918254632944
  0
ARC
  5
DE
100
AcDbEntity
  8
1
  6
CONTINUOUS
 62
           3
100
AcDbCircle
 10
547.864376243302
 20
1078.251568930551
 40
1.257687287767
100
AcDbArc
 50
-74.800419047057
 51
80.931395238778
  0
ARC
  5
DD
100
AcDbEntity
  8
1
  6
CONTINUOUS
 62
           3
100
AcDbCircle
 10
547.942694069316
 20
1078.291462921381
 40
2.009798008862
100
AcDbArc
 50
-55.929988464561
 51
86.297888718245
  0
LINE
  5
DC
100
AcDbEntity
  8
1
  6
CONTINUOUS
 62
           3
100
AcDbLine
 10
546.206636135699
 20
1079.493535531278
 11
546.206636135699
 21
1077.037877541276
  0
LINE
  5
DB
100
AcDbEntity
  8
1
  6
CONTINUOUS
 62
           3
100
AcDbLine
 10
548.062609127785
 20
1079.493535531278
 11
546.206636135699
 21
1079.493535531278
  0
LINE
  5
DA
100
AcDbEntity
  8
1
  6
CONTINUOUS
 62
           3
100
AcDbLine
 10
546.206636135699
 20
1077.037877541276
 11
548.194119363641
 21
1077.037877541276
  0
LINE
  5
D9
100
AcDbEntity
  8
1
  6
CONTINUOUS
 62
           3
100
AcDbLine
 10
546.206636135699
 20
1073.438598788282
 11
545.334188436584
 21
1073.438598788282
  0
LINE
  5
D8
100
AcDbEntity
  8
1
  6
CONTINUOUS
 62
           3
100
AcDbLine
 10
547.931697837317
 20
1076.187654213842
 11
546.206636135699
 21
1076.187654213842
  0
LINE
  5
D7
100
AcDbEntity
  8
1
  6
CONTINUOUS
 62
           3
100
AcDbLine
 10
548.944912577237
 20
1073.438598788282
 11
548.944912577237
 21
1075.0604540559
  0
LINE
  5
D6
100
AcDbEntity
  8
1
  6
CONTINUOUS
 62
           3
100
AcDbLine
 10
549.906099392742
 20
1073.438598788282
 11
548.944912577237
 21
1073.438598788282
  0
LINE
  5
D5
100
AcDbEntity
  8
1
  6
CONTINUOUS
 62
           3
100
AcDbLine
 10
549.906099392742
 20
1075.318232554626
 11
549.906099392742
 21
1073.438598788282
  0
LINE
  5
D4
100
AcDbEntity
  8
1
  6
CONTINUOUS
 62
           3
100
AcDbLine
 10
547.776108295824
 20
1080.297066963456
 11
548.072464878176
 21
1080.297066963456
  0
LINE
  5
D3
100
AcDbEntity
  8
1
  6
CONTINUOUS
 62
           3
100
AcDbLine
 10
545.334188436584
 20
1080.297066963456
 11
547.776108295824
 21
1080.297066963456
  0
LINE
  5
D2
100
AcDbEntity
  8
1
  6
CONTINUOUS
 62
           3
100
AcDbLine
 10
545.334188436584
 20
1073.438598788282
 11
545.334188436584
 21
1080.297066963456
  0
LINE
  5
D1
100
AcDbEntity
  8
1
  6
CONTINUOUS
 62
           3
100
AcDbLine
 10
546.206636135699
 20
1076.187654213842
 11
546.206636135699
 21
1073.438598788282
  0
LINE
  5
D0
100
AcDbEntity
  8
1
  6
CONTINUOUS
 62
           3
100
AcDbLine
 10
501.68540084903
 20
1082.37205147832
 11
499.591323771416
 21
1082.37205147832
  0
LINE
  5
CF
100
AcDbEntity
  8
1
  6
CONTINUOUS
 62
           3
100
AcDbLine
 10
498.975465701067
 20
1071.311445417793
 11
501.68540084903
 21
1082.37205147832
  0
LINE
  5
CE
100
AcDbEntity
  8
1
  6
CONTINUOUS
 62
           3
100
AcDbLine
 10
509.445851089087
 20
1071.311445417793
 11
498.975465701067
 21
1071.311445417793
  0
LINE
  5
CD
100
AcDbEntity
  8
1
  6
CONTINUOUS
 62
           3
100
AcDbLine
 10
508.903864059426
 20
1069.099324205662
 11
509.445851089087
 21
1071.311445417793
  0
LINE
  5
CC
100
AcDbEntity
  8
1
  6
CONTINUOUS
 62
           3
100
AcDbLine
 10
496.339401593848
 20
1069.099324205662
 11
508.903864059426
 21
1069.099324205662
  0
LINE
  5
CB
100
AcDbEntity
  8
1
  6
CONTINUOUS
 62
           3
100
AcDbLine
 10
499.591323771416
 20
1082.37205147832
 11
496.339401593848
 21
1069.099324205662
  0
LINE
  5
CA
100
AcDbEntity
  8
1
  6
CONTINUOUS
 62
           3
100
AcDbLine
 10
486.144653716558
 20
1073.523566629844
 11
489.900368855924
 21
1080.159930266269
  0
LINE
  5
C9
100
AcDbEntity
  8
1
  6
CONTINUOUS
 62
           3
100
AcDbLine
 10
490.957172001214
 20
1080.159930266269
 11
489.900368855924
 21
1080.159930266269
  0
LINE
  5
C8
100
AcDbEntity
  8
1
  6
CONTINUOUS
 62
           3
100
AcDbLine
 10
491.460964963069
 20
1073.523566629844
 11
490.957172001214
 21
1080.159930266269
  0
LINE
  5
C7
100
AcDbEntity
  8
1
  6
CONTINUOUS
 62
           3
100
AcDbLine
 10
486.144653716558
 20
1073.523566629844
 11
491.460964963069
 21
1073.523566629844
  0
LINE
  5
C6
100
AcDbEntity
  8
1
  6
CONTINUOUS
 62
           3
100
AcDbLine
 10
483.640843623664
 20
1069.099324205662
 11
481.262046635093
 21
1069.099324205662
  0
LINE
  5
C5
100
AcDbEntity
  8
1
  6
CONTINUOUS
 62
           3
100
AcDbLine
 10
484.892748670027
 20
1071.311445417793
 11
483.640843623664
 21
1069.099324205662
  0
LINE
  5
C4
100
AcDbEntity
  8
1
  6
CONTINUOUS
 62
           3
100
AcDbLine
 10
491.628895950391
 20
1071.311445417793
 11
484.892748670027
 21
1071.311445417793
  0
LINE
  5
C3
100
AcDbEntity
  8
1
  6
CONTINUOUS
 62
           3
100
AcDbLine
 10
491.796826937658
 20
1069.099324205662
 11
491.628895950391
 21
1071.311445417793
  0
LINE
  5
C2
100
AcDbEntity
  8
1
  6
CONTINUOUS
 62
           3
100
AcDbLine
 10
493.826509100727
 20
1069.099324205662
 11
491.796826937658
 21
1069.099324205662
  0
LINE
  5
C1
100
AcDbEntity
  8
1
  6
CONTINUOUS
 62
           3
100
AcDbLine
 10
492.818923176965
 20
1082.37205147832
 11
493.826509100727
 21
1069.099324205662
  0
LINE
  5
C0
100
AcDbEntity
  8
1
  6
CONTINUOUS
 62
           3
100
AcDbLine
 10
488.77347691399
 20
1082.37205147832
 11
492.818923176965
 21
1082.37205147832
  0
LINE
  5
BF
100
AcDbEntity
  8
1
  6
CONTINUOUS
 62
           3
100
AcDbLine
 10
481.262046635093
 20
1069.099324205662
 11
488.77347691399
 21
1082.37205147832
  0
LINE
  5
BE
100
AcDbEntity
  8
1
  6
CONTINUOUS
 62
           3
100
AcDbLine
 10
468.27876875406
 20
1069.099324205662
 11
466.184691676499
 21
1069.099324205662
  0
LINE
  5
BD
100
AcDbEntity
  8
1
  6
CONTINUOUS
 62
           3
100
AcDbLine
 10
471.084771050988
 20
1080.552028538597
 11
468.27876875406
 21
1069.099324205662
  0
LINE
  5
BC
100
AcDbEntity
  8
1
  6
CONTINUOUS
 62
           3
100
AcDbLine
 10
471.725319317498
 20
1078.892937629535
 11
471.084771050988
 21
1080.552028538597
  0
LINE
  5
BB
100
AcDbEntity
  8
1
  6
CONTINUOUS
 62
           3
100
AcDbLine
 10
475.506475653208
 20
1069.099324205662
 11
471.725319317498
 21
1078.892937629535
  0
LINE
  5
BA
100
AcDbEntity
  8
1
  6
CONTINUOUS
 62
           3
100
AcDbLine
 10
478.749154141977
 20
1069.099324205662
 11
475.506475653208
 21
1069.099324205662
  0
LINE
  5
B9
100
AcDbEntity
  8
1
  6
CONTINUOUS
 62
           3
100
AcDbLine
 10
482.001076319597
 20
1082.37205147832
 11
478.749154141977
 21
1069.099324205662
  0
LINE
  5
B8
100
AcDbEntity
  8
1
  6
CONTINUOUS
 62
           3
100
AcDbLine
 10
479.906999241983
 20
1082.37205147832
 11
482.001076319597
 21
1082.37205147832
  0
LINE
  5
B7
100
AcDbEntity
  8
1
  6
CONTINUOUS
 62
           3
100
AcDbLine
 10
477.06156733663
 20
1070.758415114746
 11
479.906999241983
 21
1082.37205147832
  0
LINE
  5
B6
100
AcDbEntity
  8
1
  6
CONTINUOUS
 62
           3
100
AcDbLine
 10
472.577729470355
 20
1082.37205147832
 11
477.06156733663
 21
1070.758415114746
  0
LINE
  5
B5
100
AcDbEntity
  8
1
  6
CONTINUOUS
 62
           3
100
AcDbLine
 10
469.436613854015
 20
1082.37205147832
 11
472.577729470355
 21
1082.37205147832
  0
LINE
  5
B4
100
AcDbEntity
  8
1
  6
CONTINUOUS
 62
           3
100
AcDbLine
 10
466.184691676499
 20
1069.099324205662
 11
469.436613854015
 21
1082.37205147832
  0
LINE
  5
B3
100
AcDbEntity
  8
1
  6
CONTINUOUS
 62
           3
100
AcDbLine
 10
466.923721360899
 20
1082.37205147832
 11
464.829644283334
 21
1082.37205147832
  0
LINE
  5
B2
100
AcDbEntity
  8
1
  6
CONTINUOUS
 62
           3
100
AcDbLine
 10
464.829644283334
 20
1082.37205147832
 11
461.577722105769
 21
1069.099324205662
  0
LINE
  5
B1
100
AcDbEntity
  8
1
  6
CONTINUOUS
 62
           3
100
AcDbLine
 10
463.671799183329
 20
1069.099324205662
 11
466.923721360899
 21
1082.37205147832
  0
LINE
  5
B0
100
AcDbEntity
  8
1
  6
CONTINUOUS
 62
           3
100
AcDbLine
 10
461.577722105769
 20
1069.099324205662
 11
463.671799183329
 21
1069.099324205662
  0
LINE
  5
AF
100
AcDbEntity
  8
1
  6
CONTINUOUS
 62
           3
100
AcDbLine
 10
459.084501950522
 20
1077.726596932891
 11
461.178579028048
 21
1077.726596932891
  0
LINE
  5
AE
100
AcDbEntity
  8
1
  6
CONTINUOUS
 62
           3
100
AcDbLine
 10
458.054726594372
 20
1073.523566629844
 11
457.512739564605
 21
1071.311445417793
  0
LINE
  5
AD
100
AcDbEntity
  8
1
  6
CONTINUOUS
 62
           3
100
AcDbLine
 10
453.866572438972
 20
1073.523566629844
 11
458.054726594372
 21
1073.523566629844
  0
LINE
  5
AC
100
AcDbEntity
  8
1
  6
CONTINUOUS
 62
           3
100
AcDbLine
 10
454.408559468619
 20
1075.735687842033
 11
453.866572438972
 21
1073.523566629844
  0
LINE
  5
AB
100
AcDbEntity
  8
1
  6
CONTINUOUS
 62
           3
100
AcDbLine
 10
460.690790701425
 20
1075.735687842033
 11
459.064829612653
 21
1069.099324205662
  0
LINE
  5
AA
100
AcDbEntity
  8
1
  6
CONTINUOUS
 62
           3
100
AcDbLine
 10
460.690790701425
 20
1075.735687842033
 11
454.408559468619
 21
1075.735687842033
  0
LINE
  5
A9
100
AcDbEntity
  8
1
  6
CONTINUOUS
 62
           3
100
AcDbLine
 10
449.136431254276
 20
1071.311445417793
 11
451.304379372603
 21
1080.159930266269
  0
LINE
  5
A8
100
AcDbEntity
  8
1
  6
CONTINUOUS
 62
           3
100
AcDbLine
 10
451.304379372603
 20
1080.159930266269
 11
459.6806876829
 21
1080.159930266269
  0
LINE
  5
A7
100
AcDbEntity
  8
1
  6
CONTINUOUS
 62
           3
100
AcDbLine
 10
459.6806876829
 20
1080.159930266269
 11
459.084501950522
 21
1077.726596932891
  0
LINE
  5
A6
100
AcDbEntity
  8
1
  6
CONTINUOUS
 62
           3
100
AcDbLine
 10
457.512739564605
 20
1071.311445417793
 11
449.136431254276
 21
1071.311445417793
  0
LINE
  5
A5
100
AcDbEntity
  8
1
  6
CONTINUOUS
 62
           3
100
AcDbLine
 10
459.064829612653
 20
1069.099324205662
 11
446.50036714704
 21
1069.099324205662
  0
LINE
  5
A4
100
AcDbEntity
  8
1
  6
CONTINUOUS
 62
           3
100
AcDbLine
 10
462.316751790175
 20
1082.37205147832
 11
461.178579028048
 21
1077.726596932891
  0
LINE
  5
A3
100
AcDbEntity
  8
1
  6
CONTINUOUS
 62
           3
100
AcDbLine
 10
449.752289324584
 20
1082.37205147832
 11
462.316751790175
 21
1082.37205147832
  0
LINE
  5
A2
100
AcDbEntity
  8
1
  6
CONTINUOUS
 62
           3
100
AcDbLine
 10
446.50036714704
 20
1069.099324205662
 11
449.752289324584
 21
1082.37205147832
  0
LINE
  5
A1
100
AcDbEntity
  8
1
  6
CONTINUOUS
 62
           3
100
AcDbLine
 10
443.987474654055
 20
1069.099324205662
 11
447.239396831465
 21
1082.37205147832
  0
LINE
  5
A0
100
AcDbEntity
  8
1
  6
CONTINUOUS
 62
           3
100
AcDbLine
 10
441.893397576336
 20
1069.099324205662
 11
443.987474654055
 21
1069.099324205662
  0
LINE
  5
9F
100
AcDbEntity
  8
1
  6
CONTINUOUS
 62
           3
100
AcDbLine
 10
445.145319753901
 20
1082.37205147832
 11
441.893397576336
 21
1069.099324205662
  0
LINE
  5
9E
100
AcDbEntity
  8
1
  6
CONTINUOUS
 62
           3
100
AcDbLine
 10
447.239396831465
 20
1082.37205147832
 11
445.145319753901
 21
1082.37205147832
  0
LINE
  5
9D
100
AcDbEntity
  8
1
  6
CONTINUOUS
 62
           3
100
AcDbLine
 10
428.910119695298
 20
1069.099324205662
 11
429.994093754409
 21
1073.523566629844
  0
LINE
  5
9C
100
AcDbEntity
  8
1
  6
CONTINUOUS
 62
           3
100
AcDbLine
 10
426.816042617622
 20
1069.099324205662
 11
428.910119695298
 21
1069.099324205662
  0
LINE
  5
9B
100
AcDbEntity
  8
1
  6
CONTINUOUS
 62
           3
100
AcDbLine
 10
440.328223469318
 20
1072.967438810782
 11
439.380505083205
 21
1069.099324205662
  0
LINE
  5
9A
100
AcDbEntity
  8
1
  6
CONTINUOUS
 62
           3
100
AcDbLine
 10
431.620054843184
 20
1080.159930266269
 11
430.536080784001
 21
1075.735687842033
  0
LINE
  5
99
100
AcDbEntity
  8
1
  6
CONTINUOUS
 62
           3
100
AcDbLine
 10
439.996363153703
 20
1080.159930266269
 11
431.620054843184
 21
1080.159930266269
  0
LINE
  5
98
100
AcDbEntity
  8
1
  6
CONTINUOUS
 62
           3
100
AcDbLine
 10
438.912389094381
 20
1075.735687842033
 11
439.996363153703
 21
1080.159930266269
  0
LINE
  5
97
100
AcDbEntity
  8
1
  6
CONTINUOUS
 62
           3
100
AcDbLine
 10
430.536080784001
 20
1075.735687842033
 11
438.912389094381
 21
1075.735687842033
  0
LINE
  5
96
100
AcDbEntity
  8
1
  6
CONTINUOUS
 62
           3
100
AcDbLine
 10
438.370402064938
 20
1073.523566629844
 11
429.994093754409
 21
1073.523566629844
  0
LINE
  5
95
100
AcDbEntity
  8
1
  6
CONTINUOUS
 62
           3
100
AcDbLine
 10
437.286428005565
 20
1069.099324205662
 11
438.370402064938
 21
1073.523566629844
  0
LINE
  5
94
100
AcDbEntity
  8
1
  6
CONTINUOUS
 62
           3
100
AcDbLine
 10
439.380505083205
 20
1069.099324205662
 11
437.286428005565
 21
1069.099324205662
  0
LINE
  5
93
100
AcDbEntity
  8
1
  6
CONTINUOUS
 62
           3
100
AcDbLine
 10
442.632427260738
 20
1082.37205147832
 11
440.764903150884
 21
1074.749747858332
  0
LINE
  5
92
100
AcDbEntity
  8
1
  6
CONTINUOUS
 62
           3
100
AcDbLine
 10
430.067964795158
 20
1082.37205147832
 11
442.632427260738
 21
1082.37205147832
  0
LINE
  5
91
100
AcDbEntity
  8
1
  6
CONTINUOUS
 62
           3
100
AcDbLine
 10
430.067964795158
 20
1082.37205147832
 11
426.816042617622
 21
1069.099324205662
  0
LINE
  5
90
100
AcDbEntity
  8
1
  6
CONTINUOUS
 62
           3
100
AcDbLine
 10
414.374751766132
 20
1071.311445417793
 11
416.542699884474
 21
1080.159930266269
  0
LINE
  5
8F
100
AcDbEntity
  8
1
  6
CONTINUOUS
 62
           3
100
AcDbLine
 10
416.542699884474
 20
1080.159930266269
 11
424.919008194964
 21
1080.159930266269
  0
LINE
  5
8E
100
AcDbEntity
  8
1
  6
CONTINUOUS
 62
           3
100
AcDbLine
 10
424.919008194964
 20
1080.159930266269
 11
422.751060076487
 21
1071.311445417793
  0
LINE
  5
8D
100
AcDbEntity
  8
1
  6
CONTINUOUS
 62
           3
100
AcDbLine
 10
422.751060076487
 20
1071.311445417793
 11
414.374751766132
 21
1071.311445417793
  0
LINE
  5
8C
100
AcDbEntity
  8
1
  6
CONTINUOUS
 62
           3
100
AcDbLine
 10
424.303150124491
 20
1069.099324205662
 11
411.738687658966
 21
1069.099324205662
  0
LINE
  5
8B
100
AcDbEntity
  8
1
  6
CONTINUOUS
 62
           3
100
AcDbLine
 10
427.555072302166
 20
1082.37205147832
 11
424.303150124491
 21
1069.099324205662
  0
LINE
  5
8A
100
AcDbEntity
  8
1
  6
CONTINUOUS
 62
           3
100
AcDbLine
 10
414.990609836448
 20
1082.37205147832
 11
427.555072302166
 21
1082.37205147832
  0
LINE
  5
89
100
AcDbEntity
  8
1
  6
CONTINUOUS
 62
           3
100
AcDbLine
 10
411.738687658966
 20
1069.099324205662
 11
414.990609836448
 21
1082.37205147832
  0
LINE
  5
88
100
AcDbEntity
  8
1
  6
CONTINUOUS
 62
           3
100
AcDbLine
 10
555.329503152207
 20
1025.987543
 11
502.738701733397
 21
1025.987543
  0
LINE
  5
87
100
AcDbEntity
  8
1
  6
CONTINUOUS
 62
           3
100
AcDbLine
 10
552.928830785688
 20
1032.181482393909
 11
510.119681233515
 21
1032.181482393909
  0
LINE
  5
86
100
AcDbEntity
  8
1
  6
CONTINUOUS
 62
           3
100
AcDbLine
 10
552.928830785688
 20
1032.181482393909
 11
555.329503152207
 21
1025.987543
  0
LINE
  5
85
100
AcDbEntity
  8
1
  6
CONTINUOUS
 62
           3
100
AcDbLine
 10
545.686830708906
 20
1050.866460066824
 11
542.906977584949
 21
1058.038718145079
  0
LINE
  5
84
100
AcDbEntity
  8
1
  6
CONTINUOUS
 62
           3
100
AcDbLine
 10
551.284056889192
 20
1058.038718145079
 11
545.686830708906
 21
1050.866460066824
  0
LINE
  5
83
100
AcDbEntity
  8
1
  6
CONTINUOUS
 62
           3
100
AcDbLine
 10
555.32950315225
 20
1058.038718145079
 11
551.284056889192
 21
1058.038718145079
  0
LINE
  5
82
100
AcDbEntity
  8
1
  6
CONTINUOUS
 62
           3
100
AcDbLine
 10
547.029273107168
 20
1047.402844218603
 11
555.32950315225
 21
1058.038718145079
  0
LINE
  5
81
100
AcDbEntity
  8
1
  6
CONTINUOUS
 62
           3
100
AcDbLine
 10
551.899971200172
 20
1034.836027848477
 11
547.029273107168
 21
1047.402844218603
  0
LINE
  5
80
100
AcDbEntity
  8
1
  6
CONTINUOUS
 62
           3
100
AcDbLine
 10
547.854524937124
 20
1034.836027848477
 11
551.899971200172
 21
1034.836027848477
  0
LINE
  5
7F
100
AcDbEntity
  8
1
  6
CONTINUOUS
 62
           3
100
AcDbLine
 10
544.32626924244
 20
1043.939228370502
 11
547.854524937124
 21
1034.836027848477
  0
LINE
  5
7E
100
AcDbEntity
  8
1
  6
CONTINUOUS
 62
           3
100
AcDbLine
 10
537.222136662338
 20
1034.836027848477
 11
544.32626924244
 21
1043.939228370502
  0
LINE
  5
7D
100
AcDbEntity
  8
1
  6
CONTINUOUS
 62
           3
100
AcDbLine
 10
533.176690399341
 20
1034.836027848477
 11
537.222136662338
 21
1034.836027848477
  0
LINE
  5
7C
100
AcDbEntity
  8
1
  6
CONTINUOUS
 62
           3
100
AcDbLine
 10
542.983826844131
 20
1047.402844218661
 11
533.176690399341
 21
1034.836027848477
  0
LINE
  5
7B
100
AcDbEntity
  8
1
  6
CONTINUOUS
 62
           3
100
AcDbLine
 10
538.861531321934
 20
1058.038718145079
 11
542.983826844131
 21
1047.402844218661
  0
LINE
  5
7A
100
AcDbEntity
  8
1
  6
CONTINUOUS
 62
           3
100
AcDbLine
 10
542.906977584949
 20
1058.038718145079
 11
538.861531321934
 21
1058.038718145079
  0
LINE
  5
79
100
AcDbEntity
  8
1
  6
CONTINUOUS
 62
           3
100
AcDbLine
 10
525.878253440889
 20
1058.038718145079
 11
520.643060746967
 21
1058.038718145079
  0
LINE
  5
78
100
AcDbEntity
  8
1
  6
CONTINUOUS
 62
           3
100
AcDbLine
 10
521.277386577538
 20
1039.260270272797
 11
525.878253440889
 21
1058.038718145079
  0
LINE
  5
77
100
AcDbEntity
  8
1
  6
CONTINUOUS
 62
           3
100
AcDbLine
 10
526.51257927149
 20
1039.260270272797
 11
521.277386577538
 21
1039.260270272797
  0
LINE
  5
76
100
AcDbEntity
  8
1
  6
CONTINUOUS
 62
           3
100
AcDbLine
 10
531.113446134885
 20
1058.038718145079
 11
526.51257927149
 21
1039.260270272797
  0
LINE
  5
75
100
AcDbEntity
  8
1
  6
CONTINUOUS
 62
           3
100
AcDbLine
 10
536.348638828808
 20
1058.038718145079
 11
531.113446134885
 21
1058.038718145079
  0
LINE
  5
74
100
AcDbEntity
  8
1
  6
CONTINUOUS
 62
           3
100
AcDbLine
 10
530.6637979062
 20
1034.836027848477
 11
536.348638828808
 21
1058.038718145079
  0
LINE
  5
73
100
AcDbEntity
  8
1
  6
CONTINUOUS
 62
           3
100
AcDbLine
 10
514.958219824279
 20
1034.836027848477
 11
530.6637979062
 21
1034.836027848477
  0
LINE
  5
72
100
AcDbEntity
  8
1
  6
CONTINUOUS
 62
           3
100
AcDbLine
 10
520.643060746967
 20
1058.038718145079
 11
514.958219824279
 21
1034.836027848477
  0
LINE
  5
71
100
AcDbEntity
  8
1
  6
CONTINUOUS
 62
           3
100
AcDbLine
 10
513.301425922338
 20
1069.099324205662
 11
502.738701733397
 21
1025.987543
  0
LINE
  5
70
100
AcDbEntity
  8
1
  6
CONTINUOUS
 62
           3
100
AcDbLine
 10
519.164841739606
 20
1069.099324205662
 11
513.301425922338
 21
1069.099324205662
  0
LINE
  5
6F
100
AcDbEntity
  8
1
  6
CONTINUOUS
 62
           3
100
AcDbLine
 10
510.119681233515
 20
1032.181482393909
 11
519.164841739606
 21
1069.099324205662
  0
LINE
  5
6E
100
AcDbEntity
  8
1
  6
CONTINUOUS
 62
           3
100
AcDbLine
 10
375.0
 20
1025.987543
 11
382.852789041055
 21
1058.038718145079
  0
LINE
  5
6D
100
AcDbEntity
  8
1
  6
CONTINUOUS
 62
           3
100
AcDbLine
 10
382.852789041055
 20
1058.038718145079
 11
389.135020273752
 21
1058.038718145079
  0
LINE
  5
6C
100
AcDbEntity
  8
1
  6
CONTINUOUS
 62
           3
100
AcDbLine
 10
389.135020273752
 20
1058.038718145079
 11
382.366205292063
 21
1030.411785424182
  0
LINE
  5
6B
100
AcDbEntity
  8
1
  6
CONTINUOUS
 62
           3
100
AcDbLine
 10
382.366205292063
 20
1030.411785424182
 11
387.601397985942
 21
1030.411785424182
  0
LINE
  5
6A
100
AcDbEntity
  8
1
  6
CONTINUOUS
 62
           3
100
AcDbLine
 10
387.601397985942
 20
1030.411785424182
 11
395.725180541824
 21
1063.569021175405
  0
LINE
  5
69
100
AcDbEntity
  8
1
  6
CONTINUOUS
 62
           3
100
AcDbLine
 10
395.725180541824
 20
1063.569021175405
 11
378.03408469729
 21
1063.569021175405
  0
LINE
  5
68
100
AcDbEntity
  8
1
  6
CONTINUOUS
 62
           3
100
AcDbLine
 10
378.03408469729
 20
1063.569021175405
 11
379.389052271275
 21
1069.099324205662
  0
LINE
  5
67
100
AcDbEntity
  8
1
  6
CONTINUOUS
 62
           3
100
AcDbLine
 10
379.389052271275
 20
1069.099324205662
 11
403.362379348568
 21
1069.099324205662
  0
LINE
  5
66
100
AcDbEntity
  8
1
  6
CONTINUOUS
 62
           3
100
AcDbLine
 10
403.362379348568
 20
1069.099324205662
 11
392.799655159648
 21
1025.987543
  0
LINE
  5
65
100
AcDbEntity
  8
1
  6
CONTINUOUS
 62
           3
100
AcDbLine
 10
392.799655159648
 20
1025.987543
 11
375.0
 21
1025.987543
  0
LINE
  5
64
100
AcDbEntity
  8
1
  6
CONTINUOUS
 62
           3
100
AcDbLine
 10
396.987809314774
 20
1025.987543
 11
404.840598355768
 21
1058.038718145079
  0
LINE
  5
63
100
AcDbEntity
  8
1
  6
CONTINUOUS
 62
           3
100
AcDbLine
 10
404.840598355768
 20
1058.038718145079
 11
411.122829588578
 21
1058.038718145079
  0
LINE
  5
62
100
AcDbEntity
  8
1
  6
CONTINUOUS
 62
           3
100
AcDbLine
 10
411.122829588578
 20
1058.038718145079
 11
404.354014606783
 21
1030.411785424182
  0
LINE
  5
61
100
AcDbEntity
  8
1
  6
CONTINUOUS
 62
           3
100
AcDbLine
 10
404.354014606783
 20
1030.411785424182
 11
409.589207300767
 21
1030.411785424182
  0
LINE
  5
60
100
AcDbEntity
  8
1
  6
CONTINUOUS
 62
           3
100
AcDbLine
 10
409.589207300767
 20
1030.411785424182
 11
416.358022282573
 21
1058.038718145079
  0
LINE
  5
5F
100
AcDbEntity
  8
1
  6
CONTINUOUS
 62
           3
100
AcDbLine
 10
414.787464474364
 20
1025.987543
 11
396.987809314774
 21
1025.987543
  0
LINE
  5
5E
100
AcDbEntity
  8
1
  6
CONTINUOUS
 62
           3
100
AcDbLine
 10
416.358022282573
 20
1058.038718145079
 11
422.640253515379
 21
1058.038718145079
  0
LINE
  5
5D
100
AcDbEntity
  8
1
  6
CONTINUOUS
 62
           3
100
AcDbLine
 10
422.640253515379
 20
1058.038718145079
 11
414.787464474364
 21
1025.987543
  0
LINE
  5
5C
100
AcDbEntity
  8
1
  6
CONTINUOUS
 62
           3
100
AcDbLine
 10
443.581024291314
 20
1058.038718145079
 11
426.828407670542
 21
1058.038718145079
  0
LINE
  5
5B
100
AcDbEntity
  8
1
  6
CONTINUOUS
 62
           3
100
AcDbLine
 10
426.828407670542
 20
1058.038718145079
 11
422.227540807151
 21
1039.260270272797
  0
LINE
  5
5A
100
AcDbEntity
  8
1
  6
CONTINUOUS
 62
           3
100
AcDbLine
 10
422.227540807151
 20
1039.260270272797
 11
432.697926195117
 21
1039.260270272797
  0
LINE
  5
59
100
AcDbEntity
  8
1
  6
CONTINUOUS
 62
           3
100
AcDbLine
 10
432.697926195117
 20
1039.260270272797
 11
430.529978076698
 21
1030.411785424182
  0
LINE
  5
58
100
AcDbEntity
  8
1
  6
CONTINUOUS
 62
           3
100
AcDbLine
 10
430.529978076698
 20
1030.411785424182
 11
420.059592688787
 21
1030.411785424182
  0
LINE
  5
57
100
AcDbEntity
  8
1
  6
CONTINUOUS
 62
           3
100
AcDbLine
 10
420.059592688787
 20
1030.411785424182
 11
418.97561862948
 21
1025.987543
  0
LINE
  5
56
100
AcDbEntity
  8
1
  6
CONTINUOUS
 62
           3
100
AcDbLine
 10
418.97561862948
 20
1025.987543
 11
435.728235250302
 21
1025.987543
  0
LINE
  5
55
100
AcDbEntity
  8
1
  6
CONTINUOUS
 62
           3
100
AcDbLine
 10
435.728235250302
 20
1025.987543
 11
440.064131487226
 21
1043.684512696953
  0
LINE
  5
54
100
AcDbEntity
  8
1
  6
CONTINUOUS
 62
           3
100
AcDbLine
 10
440.064131487226
 20
1043.684512696953
 11
429.593746099163
 21
1043.684512696953
  0
LINE
  5
53
100
AcDbEntity
  8
1
  6
CONTINUOUS
 62
           3
100
AcDbLine
 10
429.593746099163
 20
1043.684512696953
 11
432.026664844176
 21
1053.614475720839
  0
LINE
  5
52
100
AcDbEntity
  8
1
  6
CONTINUOUS
 62
           3
100
AcDbLine
 10
432.026664844176
 20
1053.614475720839
 11
442.497050232156
 21
1053.614475720839
  0
LINE
  5
51
100
AcDbEntity
  8
1
  6
CONTINUOUS
 62
           3
100
AcDbLine
 10
442.497050232156
 20
1053.614475720839
 11
443.581024291314
 21
1058.038718145079
  0
LINE
  5
50
100
AcDbEntity
  8
1
  6
CONTINUOUS
 62
           3
100
AcDbLine
 10
461.811859919322
 20
1046.978112084413
 11
464.521795067252
 21
1058.038718145079
  0
LINE
  5
4F
100
AcDbEntity
  8
1
  6
CONTINUOUS
 62
           3
100
AcDbLine
 10
464.521795067252
 20
1058.038718145079
 11
447.769178446531
 21
1058.038718145079
  0
LINE
  5
4E
100
AcDbEntity
  8
1
  6
CONTINUOUS
 62
           3
100
AcDbLine
 10
447.769178446531
 20
1058.038718145079
 11
439.916389405538
 21
1025.987543
  0
LINE
  5
4D
100
AcDbEntity
  8
1
  6
CONTINUOUS
 62
           3
100
AcDbLine
 10
439.916389405538
 20
1025.987543
 11
456.669006026292
 21
1025.987543
  0
LINE
  5
4C
100
AcDbEntity
  8
1
  6
CONTINUOUS
 62
           3
100
AcDbLine
 10
456.669006026292
 20
1025.987543
 11
459.378941174266
 21
1037.048149060608
  0
LINE
  5
4B
100
AcDbEntity
  8
1
  6
CONTINUOUS
 62
           3
100
AcDbLine
 10
459.378941174266
 20
1037.048149060608
 11
453.096709941478
 21
1037.048149060608
  0
LINE
  5
4A
100
AcDbEntity
  8
1
  6
CONTINUOUS
 62
           3
100
AcDbLine
 10
453.096709941478
 20
1037.048149060608
 11
451.470748852691
 21
1030.411785424182
  0
LINE
  5
49
100
AcDbEntity
  8
1
  6
CONTINUOUS
 62
           3
100
AcDbLine
 10
451.470748852691
 20
1030.411785424182
 11
447.282594697488
 21
1030.411785424182
  0
LINE
  5
48
100
AcDbEntity
  8
1
  6
CONTINUOUS
 62
           3
100
AcDbLine
 10
447.282594697488
 20
1030.411785424182
 11
452.967435620118
 21
1053.614475720839
  0
LINE
  5
47
100
AcDbEntity
  8
1
  6
CONTINUOUS
 62
           3
100
AcDbLine
 10
452.967435620118
 20
1053.614475720839
 11
457.15558977531
 21
1053.614475720839
  0
LINE
  5
46
100
AcDbEntity
  8
1
  6
CONTINUOUS
 62
           3
100
AcDbLine
 10
457.15558977531
 20
1053.614475720839
 11
455.529628686516
 21
1046.978112084413
  0
LINE
  5
45
100
AcDbEntity
  8
1
  6
CONTINUOUS
 62
           3
100
AcDbLine
 10
455.529628686516
 20
1046.978112084413
 11
461.811859919322
 21
1046.978112084413
  0
LINE
  5
44
100
AcDbEntity
  8
1
  6
CONTINUOUS
 62
           3
100
AcDbLine
 10
460.857160181473
 20
1025.987543
 11
467.139391414261
 21
1025.987543
  0
LINE
  5
43
100
AcDbEntity
  8
1
  6
CONTINUOUS
 62
           3
100
AcDbLine
 10
477.609776802337
 20
1025.987543
 11
485.462565843351
 21
1058.038718145079
  0
LINE
  5
42
100
AcDbEntity
  8
1
  6
CONTINUOUS
 62
           3
100
AcDbLine
 10
471.327545569439
 20
1025.987543
 11
474.711953060334
 21
1039.801009360341
  0
LINE
  5
41
100
AcDbEntity
  8
1
  6
CONTINUOUS
 62
           3
100
AcDbLine
 10
467.139391414261
 20
1025.987543
 11
470.523798905146
 21
1039.801009360341
  0
LINE
  5
40
100
AcDbEntity
  8
1
  6
CONTINUOUS
 62
           3
100
AcDbLine
 10
468.709949222466
 20
1058.038718145079
 11
460.857160181473
 21
1025.987543
  0
LINE
  5
3F
100
AcDbEntity
  8
1
  6
CONTINUOUS
 62
           3
100
AcDbLine
 10
485.462565843351
 20
1058.038718145079
 11
479.180334610435
 21
1058.038718145079
  0
LINE
  5
3E
100
AcDbEntity
  8
1
  6
CONTINUOUS
 62
           3
100
AcDbLine
 10
481.797930957462
 20
1025.987543
 11
498.55054757827
 21
1025.987543
  0
LINE
  5
3D
100
AcDbEntity
  8
1
  6
CONTINUOUS
 62
           3
100
AcDbLine
 10
493.352290404568
 20
1030.411785424182
 11
489.164136249468
 21
1030.411785424182
  0
LINE
  5
3C
100
AcDbEntity
  8
1
  6
CONTINUOUS
 62
           3
100
AcDbLine
 10
489.650719998459
 20
1058.038718145079
 11
481.797930957462
 21
1025.987543
  0
LINE
  5
3B
100
AcDbEntity
  8
1
  6
CONTINUOUS
 62
           3
100
AcDbLine
 10
489.164136249468
 20
1030.411785424182
 11
494.848977172042
 21
1053.614475720839
  0
LINE
  5
3A
100
AcDbEntity
  8
1
  6
CONTINUOUS
 62
           3
100
AcDbLine
 10
506.403336619289
 20
1058.038718145079
 11
489.650719998459
 21
1058.038718145079
  0
LINE
  5
39
100
AcDbEntity
  8
1
  6
CONTINUOUS
 62
           3
100
AcDbLine
 10
494.848977172042
 20
1053.614475720839
 11
499.037131327292
 21
1053.614475720839
  0
LINE
  5
38
100
AcDbEntity
  8
1
  6
CONTINUOUS
 62
           3
100
AcDbLine
 10
499.037131327292
 20
1053.614475720839
 11
493.352290404568
 21
1030.411785424182
  0
LINE
  5
37
100
AcDbEntity
  8
1
  6
CONTINUOUS
 62
           3
100
AcDbLine
 10
506.403336619289
 20
1058.038718145079
 11
498.55054757827
 21
1025.987543
  0
LINE
  5
36
100
AcDbEntity
  8
1
  6
CONTINUOUS
 62
           3
100
AcDbLine
 10
474.992180455331
 20
1058.038718145079
 11
468.709949222466
 21
1058.038718145079
  0
LINE
  5
35
100
AcDbEntity
  8
1
  6
CONTINUOUS
 62
           3
100
AcDbLine
 10
471.327545569439
 20
1025.987543
 11
477.609776802337
 21
1025.987543
  0
LINE
  5
34
100
AcDbEntity
  8
1
  6
CONTINUOUS
 62
           3
100
AcDbLine
 10
470.523798905146
 20
1039.801009360341
 11
474.711953060334
 21
1039.801009360341
  0
LINE
  5
33
100
AcDbEntity
  8
1
  6
CONTINUOUS
 62
           3
100
AcDbLine
 10
471.607772964315
 20
1044.225251784527
 11
475.795927119554
 21
1044.225251784527
  0
LINE
  5
32
100
AcDbEntity
  8
1
  6
CONTINUOUS
 62
           3
100
AcDbLine
 10
471.607772964315
 20
1044.225251784527
 11
474.992180455331
 21
1058.038718145079
  0
LINE
  5
31
100
AcDbEntity
  8
1
  6
CONTINUOUS
 62
           3
100
AcDbLine
 10
475.795927119554
 20
1044.225251784527
 11
479.180334610435
 21
1058.038718145079
  0
LINE
  5
30
100
AcDbEntity
  8
1
  6
CONTINUOUS
 62
           3
100
AcDbLine
 10
440.764903150884
 20
1074.749747858332
 11
440.032820381937
 21
1073.965990872363
  0
LINE
  5
2F
100
AcDbEntity
  8
1
  6
CONTINUOUS
 62
           3
100
AcDbLine
 10
440.328223469318
 20
1072.967438810782
 11
440.032820381937
 21
1073.965990872363
  0
ENDBLK
  5
E3
100
AcDbEntity
  8
0
100
AcDbBlockEnd
  0
BLOCK
  5
2A
100
AcDbEntity
  8
0
100
AcDbBlockBegin
  2
WANNE_PRIME_LINE_249
 70
           0
 10
0.0
 20
0.0
 30
0.0
  3
WANNE_PRIME_LINE_249
  1

  0
ARC
  5
100
100
AcDbEntity
  8
1
  6
CONTINUOUS
 62
           7
100
AcDbCircle
 10
100.0
 20
1175.987543
 40
50.0
100
AcDbArc
 50
90.0
 51
180.0
  0
ARC
  5
FF
100
AcDbEntity
  8
1
  6
CONTINUOUS
 62
           7
100
AcDbCircle
 10
1607.105989871213
 20
1175.987543
 40
50.000000000001
100
AcDbArc
 50
1.666096249853
 51
90.0
  0
ARC
  5
FE
100
AcDbEntity
  8
1
  6
CONTINUOUS
 62
           7
100
AcDbCircle
 10
100.0
 20
290.629350034259
 40
50.0
100
AcDbArc
 50
180.0
 51
-120.801387989937
  0
ARC
  5
FD
100
AcDbEntity
  8
1
  6
CONTINUOUS
 62
           7
100
AcDbCircle
 10
132.224972459712
 20
315.142053319651
 40
49.999999999998
100
AcDbArc
 50
-176.830084092264
 51
-125.374731972791
  0
SPLINE
  5
FC
100
AcDbEntity
  8
1
  6
CONTINUOUS
 62
           7
100
AcDbSpline
210
0.0
220
0.0
230
1.0
 70
           0
 71
           3
 72
          41
 73
          38
 74
          77
 42
0.00000000001
 43
0.00000000001
 44
0.00000000001
 40
-1.8732399921271394
 40
-0.0595164133704884
 40
1.7542071653861844
 40
3.6869470082131182
 40
5.9420187139166085
 40
8.6386336604319531
 40
11.80692762622725
 40
15.414858725723967
 40
19.393799156019522
 40
23.65201967636159
 40
28.083253870476874
 40
32.573045222692031
 40
37.004279416808316
 40
41.262499937149514
 40
45.241440367445357
 40
48.849371466942202
 40
52.017665432737004
 40
54.714280379252585
 40
56.96935208495578
 40
58.902091927782621
 40
60.715815506539855
 40
62.64855534936649
 40
64.903627055069407
 40
67.600242001584718
 40
70.768535967379506
 40
74.376467066876955
 40
78.355407497172621
 40
82.613628017513648
 40
87.044862211629678
 40
91.53465356384423
 40
95.965887757960161
 40
100.22410827830237
 40
104.20304870859758
 40
107.81097980809426
 40
110.97927377388915
 40
113.67588872040477
 40
115.93096042610853
 40
117.86370026893493
 40
119.67742384769136
 40
121.49114742644801
 40
123.30487100520469
 10
1316.2409575377801
 20
404.32513987363421
 30
0.0
 10
1317.7967552644909
 20
403.39289170190131
 30
0.0
 10
1319.8307400639731
 20
403.12343120820032
 30
0.0
 10
1322.267460046882
 20
403.44910568350832
 30
0.0
 10
1325.0629087150251
 20
404.3428437677216
 30
0.0
 10
1328.1463969189199
 20
405.77949677925142
 30
0.0
 10
1331.430461085685
 20
407.71919003830322
 30
0.0
 10
1334.817889849847
 20
410.10584177119279
 30
0.0
 10
1338.2070194486939
 20
412.86883019381207
 30
0.0
 10
1341.4956698473629
 20
415.92546313575127
 30
0.0
 10
1344.584646994846
 20
419.18375203773121
 30
0.0
 10
1347.3809867383279
 20
422.54541658082968
 30
0.0
 10
1349.8009913571691
 20
425.90909875534561
 30
0.0
 10
1351.7730380288481
 20
429.17383753744951
 30
0.0
 10
1353.240087223292
 20
432.24298042108478
 30
0.0
 10
1354.1614020259731
 20
435.02946208328149
 30
0.0
 10
1354.5111365409191
 20
437.4628453058815
 30
0.0
 10
1354.261785924612
 20
439.49939321652198
 30
0.0
 10
1353.3449552702909
 20
441.06432604940562
 30
0.0
 10
1351.789157543579
 20
441.99657422113768
 30
0.0
 10
1349.755172744098
 20
442.26603471483861
 30
0.0
 10
1347.3184527611891
 20
441.94036023953061
 30
0.0
 10
1344.523004093046
 20
441.04662215531761
 30
0.0
 10
1341.4395158891521
 20
439.60996914378808
 30
0.0
 10
1338.1554517223849
 20
437.67027588473502
 30
0.0
 10
1334.7680229582249
 20
435.28362415184631
 30
0.0
 10
1331.378893359378
 20
432.52063572922691
 30
0.0
 10
1328.090242960707
 20
429.46400278728782
 30
0.0
 10
1325.0012658132271
 20
426.20571388530851
 30
0.0
 10
1322.2049260697429
 20
422.84404934220942
 30
0.0
 10
1319.7849214509019
 20
419.4803671676932
 30
0.0
 10
1317.8128747792241
 20
416.21562838559021
 30
0.0
 10
1316.34582558478
 20
413.14648550195392
 30
0.0
 10
1315.424510782098
 20
410.36000383975841
 30
0.0
 10
1315.074776267151
 20
407.9266206171576
 30
0.0
 10
1315.3241268834599
 20
405.89007270651712
 30
0.0
 10
1316.2409575377801
 20
404.32513987363421
 30
0.0
 10
1317.7967552644909
 20
403.39289170190131
 30
0.0
 11
1316.9941443978078
 21
403.87382344529709
 31
0.0
 11
1317.8307814138643
 21
403.48203459070481
 31
0.0
 11
1318.7354707286677
 21
403.26853151371984
 31
0.0
 11
1319.8343523553492
 21
403.19678553384006
 31
0.0
 11
1320.9404585647828
 21
403.27174820523965
 31
0.0
 11
1322.2570381391449
 21
403.50749883341388
 31
0.0
 11
1323.5527738980327
 21
403.86003576139933
 31
0.0
 11
1325.0458041942779
 21
404.39007225190244
 31
0.0
 11
1326.504625449028
 21
405.0145657107671
 31
0.0
 11
1328.1263876179532
 21
405.8188689329246
 31
0.0
 11
1329.7081311849461
 21
406.70191646242864
 31
0.0
 11
1331.4089509032854
 21
407.7530882134273
 31
0.0
 11
1333.0667502568256
 21
408.87205631467407
 31
0.0
 11
1334.795311131903
 21
410.13589230891961
 31
0.0
 11
1336.4787145710918
 21
411.45982937861879
 31
0.0
 11
1338.1833262123762
 21
412.89615115985396
 31
0.0
 11
1339.8405513810251
 21
414.38711487317289
 31
0.0
 11
1341.4705468603311
 21
415.95083558818988
 31
0.0
 11
1343.0502963655733
 21
417.56530120808407
 31
0.0
 11
1344.5575614627148
 21
419.20771406147441
 31
0.0
 11
1346.0106554955942
 21
420.89805096235091
 31
0.0
 11
1347.3511607557866
 21
422.56829111005135
 31
0.0
 11
1348.6320140508963
 21
424.2842803161949
 31
0.0
 11
1349.767307367413
 21
425.93094281764417
 31
0.0
 11
1350.8352327044176
 21
427.62129344369077
 31
0.0
 11
1351.7338654983309
 21
429.19423487705382
 31
0.0
 11
1352.5541532312102
 21
430.80797098962557
 31
0.0
 11
1353.1930300451675
 21
432.26055074649327
 31
0.0
 11
1353.737792502875
 21
433.74827115417781
 31
0.0
 11
1354.1031146997525
 21
435.04046043401416
 31
0.0
 11
1354.3518622441884
 21
436.35464641531576
 31
0.0
 11
1354.4377501047925
 21
437.45995796598902
 31
0.0
 11
1354.3768650931431
 21
438.55949483687732
 31
0.0
 11
1354.1723111928211
 21
439.46624950163738
 31
0.0
 11
1353.788807828917
 21
440.30671673662812
 31
0.0
 11
1353.2676216949403
 21
440.98775282829547
 31
0.0
 11
1352.5917684102624
 21
441.5156424777424
 31
0.0
 11
1351.7551313942058
 21
441.90743133233417
 31
0.0
 11
1350.8504420794029
 21
442.12093440931915
 31
0.0
 11
1349.7515604527218
 21
442.19268038919887
 31
0.0
 11
1348.6454542432884
 21
442.11771771779922
 31
0.0
 11
1347.3288746689261
 21
441.88196708962505
 31
0.0
 11
1346.0331389100381
 21
441.52943016163971
 31
0.0
 11
1344.5401086137936
 21
440.99939367113683
 31
0.0
 11
1343.0812873590439
 21
440.37490021227234
 31
0.0
 11
1341.4595251901183
 21
439.57059699011467
 31
0.0
 11
1339.8777816231247
 21
438.68754946061017
 31
0.0
 11
1338.176961904785
 21
437.63637770961117
 31
0.0
 11
1336.5191625512452
 21
436.5174096083644
 31
0.0
 11
1334.7906016761688
 21
435.25357361411938
 31
0.0
 11
1333.1071982369804
 21
433.92963654442053
 31
0.0
 11
1331.4025865956955
 21
432.49331476318503
 31
0.0
 11
1329.7453614270455
 21
431.00235104986587
 31
0.0
 11
1328.1153659477393
 21
429.43863033484928
 31
0.0
 11
1326.5356164424984
 21
427.82416471495537
 31
0.0
 11
1325.0283513453576
 21
426.18175186156526
 31
0.0
 11
1323.5752573124778
 21
424.49141496068876
 31
0.0
 11
1322.2347520522844
 21
422.82117481298781
 31
0.0
 11
1320.9538987571741
 21
421.10518560684363
 31
0.0
 11
1319.8186054406581
 21
419.45852310539465
 31
0.0
 11
1318.7506801036541
 21
417.76817247934861
 31
0.0
 11
1317.852047309741
 21
416.19523104598568
 31
0.0
 11
1317.031759576862
 21
414.58149493341364
 31
0.0
 11
1316.3928827629045
 21
413.12891517654572
 31
0.0
 11
1315.8481203051963
 21
411.64119476886151
 31
0.0
 11
1315.4827981083188
 21
410.34900548902561
 31
0.0
 11
1315.234050563882
 21
409.03481950772385
 31
0.0
 11
1315.1481627032779
 21
407.92950795705013
 31
0.0
 11
1315.2090477149281
 21
406.82997108616155
 31
0.0
 11
1315.4136016152506
 21
405.92321642140178
 31
0.0
 11
1315.7971049791545
 21
405.08274918641132
 31
0.0
 11
1316.3244691139626
 21
404.39801118036189
 31
0.0
 11
1317.0188564011353
 21
403.85901578776776
 31
0.0
 11
1317.407805832813
 21
403.62595374483453
 31
0.0
 11
1317.0188564011355
 21
403.85901578776776
 31
0.0
 11
1316.6237289686258
 21
404.09577974508329
 31
0.0
 11
1316.9941443978078
 21
403.87382344529715
 31
0.0
  0
CIRCLE
  5
FB
100
AcDbEntity
  8
WANNE
  6
CONTINUOUS
 62
           7
100
AcDbCircle
 10
1203.017553999994
 20
554.971681
 40
26.0
  0
CIRCLE
  5
FA
100
AcDbEntity
  8
WANNE
  6
CONTINUOUS
 62
           7
100
AcDbCircle
 10
1203.017554
 20
554.971681
 40
45.0
  0
ARC
  5
F9
100
AcDbEntity
  8
1
  6
CONTINUOUS
 62
           7
100
AcDbCircle
 10
105.134232000051
 20
1181.144028869601
 40
45.136471924527
100
AcDbArc
 50
83.468521034679
 51
-173.716327034696
  0
ARC
  5
F8
100
AcDbEntity
  8
1
  6
CONTINUOUS
 62
           7
100
AcDbCircle
 10
610.51539225364
 20
1146.931710569822
 40
1146.93171063354
100
AcDbArc
 50
-122.161203637204
 51
-89.999396048225
  0
ARC
  5
F7
100
AcDbEntity
  8
1
  6
CONTINUOUS
 62
           7
100
AcDbCircle
 10
610.527481629324
 20
1147.000000736614
 40
1147.000000736614
100
AcDbArc
 50
0.0
 51
6.456938310677
  0
ARC
  5
F6
100
AcDbEntity
  8
1
  6
CONTINUOUS
 62
           7
100
AcDbCircle
 10
610.527482000039
 20
1147.000000000161
 40
1047.000000000161
100
AcDbArc
 50
-120.801387989937
 51
-90.000000000002
  0
ARC
  5
F5
100
AcDbEntity
  8
1
  6
CONTINUOUS
 62
           7
100
AcDbCircle
 10
610.527481999997
 20
1146.999999999999
 40
1046.999999999999
100
AcDbArc
 50
-90.0
 51
1.666096249853
  0
ARC
  5
F4
100
AcDbEntity
  8
1
  6
CONTINUOUS
 62
           7
100
AcDbCircle
 10
14548.455551273841
 20
1113.541555282546
 40
14488.322127805232
100
AcDbArc
 50
179.752193988907
 51
-176.830084092264
  0
ARC
  5
F3
100
AcDbEntity
  8
1
  6
CONTINUOUS
 62
           7
100
AcDbCircle
 10
638.223767995951
 20
1024.04408915353
 40
920.963338300077
100
AcDbArc
 50
-125.518409411709
 51
-77.312235693467
  0
ARC
  5
F2
100
AcDbEntity
  8
1
  6
CONTINUOUS
 62
           7
100
AcDbCircle
 10
455.016320000006
 20
950.987543
 40
200.0
100
AcDbArc
 50
90.000000000002
 51
-174.942637999998
  0
ARC
  5
F1
100
AcDbEntity
  8
1
  6
CONTINUOUS
 62
           7
100
AcDbCircle
 10
1760.383027490017
 20
1066.509327768939
 40
1510.468436773474
100
AcDbArc
 50
-174.942637934008
 51
-150.647787805078
  0
ARC
  5
F0
100
AcDbEntity
  8
1
  6
CONTINUOUS
 62
           7
100
AcDbCircle
 10
687.878501
 20
463.362069999993
 40
279.999999999993
100
AcDbArc
 50
-150.647788
 51
-83.544655
  0
ARC
  5
EF
100
AcDbEntity
  8
1
  6
CONTINUOUS
 62
           7
100
AcDbCircle
 10
610.527477143565
 20
1147.00000667074
 40
968.000007174455
100
AcDbArc
 50
-83.544654758762
 51
-20.25913726075
  0
ARC
  5
EE
100
AcDbEntity
  8
1
  6
CONTINUOUS
 62
           7
100
AcDbCircle
 10
1331.016022473925
 20
881.067200821768
 40
200.000006098304
100
AcDbArc
 50
-20.259136622503
 51
23.924964596825
  0
ARC
  5
ED
100
AcDbEntity
  8
1
  6
CONTINUOUS
 62
           7
100
AcDbCircle
 10
977.522854725325
 20
724.236276338061
 40
586.721298709345
100
AcDbArc
 50
23.924965727652
 51
35.897912759309
  0
ARC
  5
EC
100
AcDbEntity
  8
1
  6
CONTINUOUS
 62
           7
100
AcDbCircle
 10
1290.791471021505
 20
950.987543233834
 40
199.999999766166
100
AcDbArc
 50
35.897913393862
 51
90.000000006161
  0
ARC
  5
EB
100
AcDbEntity
  8
1
  6
CONTINUOUS
 62
           7
100
AcDbCircle
 10
610.527481629324
 20
1147.000000736614
 40
1147.000000736614
100
AcDbArc
 50
-89.999999981484
 51
0.0
  0
LINE
  5
EA
100
AcDbEntity
  8
MITTELLINIEN
  6
DOT_CENTER
 62
           3
100
AcDbLine
 10
1203.017554
 20
618.961635999998
 11
1203.017554
 21
489.293661999999
  0
LINE
  5
E9
100
AcDbEntity
  8
MITTELLINIEN
  6
DOT_CENTER
 62
           3
100
AcDbLine
 10
1267.007508999998
 20
554.971681
 11
1137.339534999987
 21
554.971681
  0
LINE
  5
E8
100
AcDbEntity
  8
WANNE
  6
CONTINUOUS
 62
           7
100
AcDbLine
 10
0.0
 20
175.992317673353
 11
0.0
 21
1275.987543
  0
LINE
  5
E7
100
AcDbEntity
  8
WANNE
  6
CONTINUOUS
 62
           7
100
AcDbLine
 10
1750.251665645195
 20
1275.987543
 11
0.0
 21
1275.987543
  0
LINE
  5
E6
100
AcDbEntity
  8
1
  6
CONTINUOUS
 62
           7
100
AcDbLine
 10
1607.105989871213
 20
1225.987543
 11
100.0
 21
1225.987543
  0
LINE
  5
E5
100
AcDbEntity
  8
1
  6
CONTINUOUS
 62
           7
100
AcDbLine
 10
50.0
 20
290.629350034259
 11
50.0
 21
1175.987543
  0
LINE
  5
E4
100
AcDbEntity
  8
1
  6
CONTINUOUS
 62
           7
100
AcDbLine
 10
1290.791471
 20
1150.987543
 11
455.01632
 21
1150.987543
  0
ENDBLK
  5
101
100
AcDbEntity
  8
0
100
AcDbBlockEnd
  0
ENDSEC
  0
SECTION
  2
ENTITIES
  0
MTEXT
  5
105
100
AcDbEntity
  8
1
 62
           3
100
AcDbMText
 10
1153.017554
 20
604.971681
 30
0.0
 40
35.0
 41
0.0
 71
           9
 72
           1
  1
ø 52
  7
CONVERTER_1
  0
TEXT
  5
104
100
AcDbEntity
  8
1
 62
           2
100
AcDbText
 10
375.0
 20
935.987543
 40
35.0
  1
Prime-line 249
 41
0.71262
  7
CONVERTER_1
100
AcDbText
  0
INSERT
  5
2D
100
AcDbEntity
  8
0
100
AcDbBlockReference
  2
DLX
 10
0.0
 20
0.0
  0
INSERT
  5
2E
100
AcDbEntity
  8
0
100
AcDbBlockReference
  2
WANNE_PRIME_LINE_249
 10
0.0
 20
0.0
  0
ENDSEC
  0
SECTION
  2
OBJECTS
  0
DICTIONARY
  5
19
100
AcDbDictionary
  3
ACAD_GROUP
350
1A
  3
ACAD_MLINESTYLE
350
1B
  0
DICTIONARY
  5
1A
102
{ACAD_REACTORS
330
19
102
}
100
AcDbDictionary
  0
DICTIONARY
  5
1B
102
{ACAD_REACTORS
330
19
102
}
100
AcDbDictionary
  3
STANDARD
350
1C
  0
MLINESTYLE
  5
1C
102
{ACAD_REACTORS
330
1B
102
}
100
AcDbMlineStyle
  2
STANDARD
 70
           0
  3

 62
           0
 51
90.0
 52
90.0
 71
           2
 49
0.5
 62
         256
  6
BYLAYER
 49
-0.5
 62
         256
  6
BYLAYER
  0
ENDSEC
  0
EOF
