  0
SECTION
  2
HEADER
  9
$ACADVER
  1
AC1014
  9
$ACADMAINTVER
 70
           0
  9
$DWGCODEPAGE
  3
ANSI_1252
  9
$INSBASE
 10
0.0
 20
0.0
 30
0.0
  9
$EXTMIN
 10
1.000000000000E+20
 20
1.000000000000E+20
 30
1.000000000000E+20
  9
$EXTMAX
 10
-1.000000000000E+20
 20
-1.000000000000E+20
 30
-1.000000000000E+20
  9
$LIMMIN
 10
0.0
 20
0.0
  9
$LIMMAX
 10
0.0
 20
0.0
  9
$ORTHOMODE
 70
           0
  9
$REGENMODE
 70
           1
  9
$FILLMODE
 70
           1
  9
$QTEXTMODE
 70
           0
  9
$MIRRTEXT
 70
           1
  9
$DRAGMODE
 70
           2
  9
$LTSCALE
 40
1.0
  9
$OSMODE
 70
           0
  9
$ATTMODE
 70
           1
  9
$TEXTSIZE
 40
0.2
  9
$TRACEWID
 40
0.05
  9
$TEXTSTYLE
  7
STANDARD
  9
$CLAYER
  8
0
  9
$CELTYPE
  6
CONTINUOUS
  9
$CECOLOR
 62
         256
  9
$CELTSCALE
 40
1.0
  9
$DELOBJ
 70
           1
  9
$DISPSILH
 70
           0
  9
$DIMSCALE
 40
1.0
  9
$DIMASZ
 40
0.18
  9
$DIMEXO
 40
0.0625
  9
$DIMDLI
 40
0.38
  9
$DIMRND
 40
0.0
  9
$DIMDLE
 40
0.0
  9
$DIMEXE
 40
0.18
  9
$DIMTP
 40
0.0
  9
$DIMTM
 40
0.0
  9
$DIMTXT
 40
0.18
  9
$DIMCEN
 40
0.09
  9
$DIMTSZ
 40
0.0
  9
$DIMTOL
 70
           0
  9
$DIMLIM
 70
           0
  9
$DIMTIH
 70
           1
  9
$DIMTOH
 70
           1
  9
$DIMSE1
 70
           0
  9
$DIMSE2
 70
           0
  9
$DIMTAD
 70
           0
  9
$DIMZIN
 70
           0
  9
$DIMBLK
  1

  9
$DIMASO
 70
           1
  9
$DIMSHO
 70
           1
  9
$DIMPOST
  1

  9
$DIMAPOST
  1

  9
$DIMALT
 70
           0
  9
$DIMALTD
 70
           2
  9
$DIMALTF
 40
25.4
  9
$DIMLFAC
 40
1.0
  9
$DIMTOFL
 70
           0
  9
$DIMTVP
 40
0.0
  9
$DIMTIX
 70
           0
  9
$DIMSOXD
 70
           0
  9
$DIMSAH
 70
           0
  9
$DIMBLK1
  1

  9
$DIMBLK2
  1

  9
$DIMSTYLE
  2
STANDARD
  9
$DIMCLRD
 70
           0
  9
$DIMCLRE
 70
           0
  9
$DIMCLRT
 70
           0
  9
$DIMTFAC
 40
1.0
  9
$DIMGAP
 40
0.09
  9
$DIMJUST
 70
           0
  9
$DIMSD1
 70
           0
  9
$DIMSD2
 70
           0
  9
$DIMTOLJ
 70
           1
  9
$DIMTZIN
 70
           0
  9
$DIMALTZ
 70
           0
  9
$DIMALTTZ
 70
           0
  9
$DIMFIT
 70
           3
  9
$DIMUPT
 70
           0
  9
$DIMUNIT
 70
           2
  9
$DIMDEC
 70
           4
  9
$DIMTDEC
 70
           4
  9
$DIMALTU
 70
           2
  9
$DIMALTTD
 70
           2
  9
$DIMTXSTY
  7
STANDARD
  9
$DIMAUNIT
 70
           0
  9
$LUNITS
 70
           2
  9
$LUPREC
 70
           4
  9
$SKETCHINC
 40
0.1
  9
$FILLETRAD
 40
0.0
  9
$AUNITS
 70
           0
  9
$AUPREC
 70
           0
  9
$MENU
  1
acad
  9
$ELEVATION
 40
0.0
  9
$PELEVATION
 40
0.0
  9
$THICKNESS
 40
0.0
  9
$LIMCHECK
 70
           0
  9
$BLIPMODE
 70
           1
  9
$CHAMFERA
 40
0.0
  9
$CHAMFERB
 40
0.0
  9
$CHAMFERC
 40
0.0
  9
$CHAMFERD
 40
0.0
  9
$SKPOLY
 70
           0
  9
$TDCREATE
 40
0.000000000
  9
$TDUPDATE
 40
0.000000000
  9
$TDINDWG
 40
0.0000000000
  9
$TDUSRTIMER
 40
0.0000000000
  9
$USRTIMER
 70
           1
  9
$ANGBASE
 50
0.0
  9
$ANGDIR
 70
           0
  9
$PDMODE
 70
           0
  9
$PDSIZE
 40
0.0
  9
$PLINEWID
 40
0.0
  9
$COORDS
 70
           0
  9
$SPLFRAME
 70
           0
  9
$SPLINETYPE
 70
           6
  9
$SPLINESEGS
 70
           8
  9
$ATTDIA
 70
           0
  9
$ATTREQ
 70
           1
  9
$HANDLING
 70
           1
  9
$HANDSEED
  5
107
  9
$SURFTAB1
 70
           6
  9
$SURFTAB2
 70
           6
  9
$SURFTYPE
 70
           6
  9
$SURFU
 70
           6
  9
$SURFV
 70
           6
  9
$UCSNAME
  2

  9
$UCSORG
 10
0.0
 20
0.0
 30
0.0
  9
$UCSXDIR
 10
1.0
 20
0.0
 30
0.0
  9
$UCSYDIR
 10
0.0
 20
1.0
 30
0.0
  9
$PUCSNAME
  2

  9
$PUCSORG
 10
0.0
 20
0.0
 30
0.0
  9
$PUCSXDIR
 10
1.0
 20
0.0
 30
0.0
  9
$PUCSYDIR
 10
0.0
 20
1.0
 30
0.0
  9
$USERI1
 70
           0
  9
$USERI2
 70
           0
  9
$USERI3
 70
           0
  9
$USERI4
 70
           0
  9
$USERI5
 70
           0
  9
$USERR1
 40
0.0
  9
$USERR2
 40
0.0
  9
$USERR3
 40
0.0
  9
$USERR4
 40
0.0
  9
$USERR5
 40
0.0
  9
$WORLDVIEW
 70
           1
  9
$SHADEDGE
 70
           3
  9
$SHADEDIF
 70
          70
  9
$TILEMODE
 70
           1
  9
$MAXACTVP
 70
          16
  9
$PINSBASE
 10
0.0
 20
0.0
 30
0.0
  9
$PLIMCHECK
 70
           0
  9
$PEXTMIN
 10
1.000000000000E+20
 20
1.000000000000E+20
 30
1.000000000000E+20
  9
$PEXTMAX
 10
-1.000000000000E+20
 20
-1.000000000000E+20
 30
-1.000000000000E+20
  9
$PLIMMIN
 10
0.0
 20
0.0
  9
$PLIMMAX
 10
12.0
 20
9.0
  9
$UNITMODE
 70
           0
  9
$VISRETAIN
 70
           0
  9
$PLINEGEN
 70
           1
  9
$PSLTSCALE
 70
           0
  9
$TREEDEPTH
 70
        3020
  9
$PICKSTYLE
 70
           1
  9
$CMLSTYLE
  2
STANDARD
  9
$CMLJUST
 70
           0
  9
$CMLSCALE
 40
1.0
  9
$PROXYGRAPHICS
 70
           0
  9
$MEASUREMENT
 70
           0
  0
ENDSEC
  0
SECTION
  2
CLASSES
  0
CLASS
  1
LWPOLYLINE
  2
AcDbPolyline
  3
"AutoCAD"
 90
        0
280
           0
281
           1
  0
CLASS
  1
IMAGE
  2
AcDbRasterImage
  3
ISM
 90
      127
280
           0
281
           1
  0
CLASS
  1
OLE2FRAME
  2
AcDbOle2Frame
  3
""
 90
        0
280
           0
281
           1
  0
CLASS
  1
HATCH
  2
AcDbHatch
  3
"ACAD_SEDONA"
 90
        0
280
           0
281
           1
  0
CLASS
  1
DICTIONARYVAR
  2
AcDbDictionaryVar
  3
"AutoCAD"
 90
        0
280
           0
281
           0
  0
CLASS
  1
RASTERVARIABLES
  2
AcDbRasterVariables
  3
ISM
 90
        0
280
           0
281
           0
  0
CLASS
  1
IMAGEDEF
  2
AcDbRasterImageDef
  3
ISM
 90
        0
280
           0
281
           0
  0
CLASS
  1
IMAGEDEF_REACTOR
  2
AcDbRasterImageDefReactor
  3
ISM
 90
        1
280
           0
281
           0
  0
CLASS
  1
IDBUFFER
  2
AcDbIdBuffer
  3
"Acad"
 90
        0
280
           0
281
           0
  0
CLASS
  1
SPATIAL_FILTER
  2
AcDbSpatialFilter
  3
"Acad"
 90
        0
280
           0
281
           0
  0
CLASS
  1
XRECORD
  2
AcDbXrecord
  3
"<Built In>"
 90
        0
280
           0
281
           0
  0
CLASS
  1
SORTENTSTABLE
  2
AcDbSortentsTable
  3
"AutoCAD"
 90
        0
280
           0
281
           0
  0
CLASS
  1
LAYER_INDEX
  2
AcDbLayerIndex
  3
"Acad"
 90
        0
280
           0
281
           0
  0
CLASS
  1
SPATIAL_INDEX
  2
AcDbSpatialIndex
  3
"Acad"
 90
        0
280
           0
281
           0
  0
CLASS
  1
OBJECT_PTR
  2
CAseDLPNTableRecord
  3
"ASE-LPNTableRecord"
 90
        1
280
           0
281
           0
  0
CLASS
  1
LAYOUT
  2
AcDbLayout
  3
"AutoCAD 2000"
 90
        1
280
           0
281
           0
  0
CLASS
  1
PLOTSETTINGS
  2
AcDbPlotSettings
  3
"AutoCAD 2000"
 90
        1
280
           0
281
           0
  0
CLASS
  1
ACDBDICTIONARYWDFLT
  2
AcDbDictionaryWithDefault
  3
"AutoCAD 2000"
 90
        1
280
           0
281
           0
  0
CLASS
  1
ACDBPLACEHOLDER
  2
AcDbPlaceHolder
  3
"AutoCAD 2000"
 90
        1
280
           0
281
           0
  0
CLASS
  1
VBA_PROJECT
  2
AcDbVbaProject
  3
"acadvba"
 90
        1
280
           0
281
           0
  0
CLASS
  1
WIPEOUT
  2
AcDbWipeout
  3
WipeOut|AutoCAD Express Tool|expresstools@autodesk.com
 90
      127
280
           0
281
           1
  0
CLASS
  1
WIPEOUTVARIABLES
  2
AcDbWipeoutVariables
  3
WipeOut|AutoCAD Express Tool|expresstools@autodesk.com
 90
        0
280
           0
281
           0
  0
CLASS
  1
RTEXT
  2
RText
  3
RText|AutoCAD Express Tool|expresstools@autodesk.com
 90
        0
280
           0
281
           1
  0
CLASS
  1
ARCALIGNEDTEXT
  2
AcDbArcAlignedText
  3
ATEXT|AutoCAD Express Tool|expresstools@autodesk.com
 90
        0
280
           0
281
           1
  0
ENDSEC
  0
SECTION
  2
TABLES
  0
TABLE
  2
VPORT
  5
7
100
AcDbSymbolTable
 70
           1
  0
VPORT
  5
15
100
AcDbSymbolTableRecord
100
AcDbViewportTableRecord
  2
*ACTIVE
 70
           0
 10
0.0
 20
0.0
 11
1.0
 21
1.0
 12
6.591288
 22
4.579184
 13
0.0
 23
0.0
 14
1.0
 24
1.0
 15
0.0
 25
0.0
 16
0.0
 26
0.0
 36
1.0
 17
0.0
 27
0.0
 37
0.0
 40
9.158369
 41
0.688564
 42
50.0
 43
0.0
 44
0.0
 50
0.0
 51
0.0
 71
           0
 72
         100
 73
           1
 74
           1
 75
           0
 76
           0
 77
           0
 78
           0
  0
ENDTAB
  0
TABLE
  2
LTYPE
  5
4
100
AcDbSymbolTable
 70
          10
  0
LTYPE
  5
11
100
AcDbSymbolTableRecord
100
AcDbLinetypeTableRecord
  2
BYBLOCK
 70
          64
  3

 72
          65
 73
           0
 40
0.0
  0
LTYPE
  5
12
100
AcDbSymbolTableRecord
100
AcDbLinetypeTableRecord
  2
BYLAYER
 70
          64
  3

 72
          65
 73
           0
 40
0.0
  0
LTYPE
  5
13
100
AcDbSymbolTableRecord
100
AcDbLinetypeTableRecord
  2
CONTINUOUS
 70
          64
  3
Solid line
 72
          65
 73
           0
 40
0.0
  0
LTYPE
  5
1D
100
AcDbSymbolTableRecord
100
AcDbLinetypeTableRecord
  2
DASHED
 70
          64
  3
Dashed
 72
          65
 73
           2
 40
15.0
 49
12.0
 74
           0
 49
-3.0
 74
           0
  0
LTYPE
  5
1E
100
AcDbSymbolTableRecord
100
AcDbLinetypeTableRecord
  2
DOTTED
 70
          64
  3
Dotted
 72
          65
 73
           2
 40
3.5
 49
0.5
 74
           0
 49
-3.0
 74
           0
  0
LTYPE
  5
1F
100
AcDbSymbolTableRecord
100
AcDbLinetypeTableRecord
  2
DOT_CENTER
 70
          64
  3
Dot_Center
 72
          65
 73
           4
 40
2.0
 49
1.25
 74
           0
 49
-0.25
 74
           0
 49
0.25
 74
           0
 49
-0.25
 74
           0
  0
LTYPE
  5
20
100
AcDbSymbolTableRecord
100
AcDbLinetypeTableRecord
  2
LONG_DASHED
 70
          64
  3
Long_Dashed
 72
          65
 73
           2
 40
2.0
 49
1.5
 74
           0
 49
-0.5
 74
           0
  0
LTYPE
  5
21
100
AcDbSymbolTableRecord
100
AcDbLinetypeTableRecord
  2
DASH_CENTER
 70
          64
  3
Dash_Center
 72
          65
 73
           4
 40
36.0
 49
24.0
 74
           0
 49
-3.0
 74
           0
 49
6.0
 74
           0
 49
-3.0
 74
           0
  0
LTYPE
  5
22
100
AcDbSymbolTableRecord
100
AcDbLinetypeTableRecord
  2
PHANTOM
 70
          64
  3
Phantom
 72
          65
 73
           6
 40
2.5
 49
1.25
 74
           0
 49
-0.25
 74
           0
 49
0.25
 74
           0
 49
-0.25
 74
           0
 49
0.25
 74
           0
 49
-0.25
 74
           0
  0
LTYPE
  5
23
100
AcDbSymbolTableRecord
100
AcDbLinetypeTableRecord
  2
CENTER_DASH_DASH
 70
          64
  3
Center_Dash_Dash
 72
          65
 73
           6
 40
22.0
 49
12.0
 74
           0
 49
-3.0
 74
           0
 49
0.5
 74
           0
 49
-3.0
 74
           0
 49
0.5
 74
           0
 49
-3.0
 74
           0
  0
ENDTAB
  0
TABLE
  2
LAYER
  5
2
100
AcDbSymbolTable
 70
           4
  0
LAYER
  5
14
100
AcDbSymbolTableRecord
100
AcDbLayerTableRecord
  2
0
 70
           0
 62
           7
  6
CONTINUOUS
  0
LAYER
  5
24
100
AcDbSymbolTableRecord
100
AcDbLayerTableRecord
  2
MITTELLINIEN
 70
           0
 62
           7
  6
CONTINUOUS
  0
LAYER
  5
25
100
AcDbSymbolTableRecord
100
AcDbLayerTableRecord
  2
1
 70
           0
 62
           7
  6
CONTINUOUS
  0
LAYER
  5
26
100
AcDbSymbolTableRecord
100
AcDbLayerTableRecord
  2
WANNE
 70
           0
 62
           7
  6
CONTINUOUS
  0
ENDTAB
  0
TABLE
  2
STYLE
  5
3
100
AcDbSymbolTable
 70
           2
  0
STYLE
  5
17
100
AcDbSymbolTableRecord
100
AcDbTextStyleTableRecord
  2
STANDARD
 70
           0
 40
0.0
 41
1.0
 50
0.0
 71
           0
 42
0.0
  3
txt
  4

  0
STYLE
  5
103
100
AcDbSymbolTableRecord
100
AcDbTextStyleTableRecord
  2
CONVERTER_1
 70
           0
 40
0.0
 41
0.71262
 50
0.0
 71
           0
 42
0.0
  3
txt.shx
  4

  0
ENDTAB
  0
TABLE
  2
VIEW
  5
5
100
AcDbSymbolTable
 70
           0
  0
ENDTAB
  0
TABLE
  2
UCS
  5
6
100
AcDbSymbolTable
 70
           0
  0
ENDTAB
  0
TABLE
  2
APPID
  5
8
100
AcDbSymbolTable
 70
           1
  0
APPID
  5
16
100
AcDbSymbolTableRecord
100
AcDbRegAppTableRecord
  2
ACAD
 70
           0
  0
ENDTAB
  0
TABLE
  2
DIMSTYLE
  5
9
100
AcDbSymbolTable
 70
           1
  0
DIMSTYLE
105
18
100
AcDbSymbolTableRecord
100
AcDbDimStyleTableRecord
  2
STANDARD
 70
           0
  3

  4

  5

  6

  7

 40
1.0
 41
0.18
 42
0.0625
 43
0.38
 44
0.18
 45
0.0
 46
0.0
 47
0.0
 48
0.0
 71
           0
 72
           0
 73
           1
 74
           1
 75
           0
 76
           0
 77
           0
 78
           0
140
0.18
141
0.09
142
0.0
143
25.4
144
1.0
145
0.0
146
1.0
147
0.09
170
           0
171
           2
172
           0
173
           0
174
           0
175
           0
176
           0
177
           0
178
           0
270
           2
271
           4
272
           4
273
           2
274
           2
275
           0
280
           0
281
           0
282
           0
283
           1
284
           0
285
           0
286
           0
287
           0
288
           0
340
17
  0
ENDTAB
  0
TABLE
  2
BLOCK_RECORD
  5
1
100
AcDbSymbolTable
 70
           2
  0
BLOCK_RECORD
  5
A
100
AcDbSymbolTableRecord
100
AcDbBlockTableRecord
  2
*MODEL_SPACE
  0
BLOCK_RECORD
  5
B
100
AcDbSymbolTableRecord
100
AcDbBlockTableRecord
  2
*PAPER_SPACE
  0
BLOCK_RECORD
  5
27
100
AcDbSymbolTableRecord
100
AcDbBlockTableRecord
  2
DLX
  0
BLOCK_RECORD
  5
29
100
AcDbSymbolTableRecord
100
AcDbBlockTableRecord
  2
WANNE_PRIME_LINE_250
  0
ENDTAB
  0
ENDSEC
  0
SECTION
  2
BLOCKS
  0
BLOCK
  5
D
100
AcDbEntity
  8
0
100
AcDbBlockBegin
  2
*MODEL_SPACE
 70
           0
 10
0.0
 20
0.0
 30
0.0
  3
*MODEL_SPACE
  1

  0
ENDBLK
  5
E
100
AcDbEntity
  8
0
100
AcDbBlockEnd
  0
BLOCK
  5
F
100
AcDbEntity
 67
           1
  8
0
100
AcDbBlockBegin
  2
*PAPER_SPACE
 70
           0
 10
0.0
 20
0.0
 30
0.0
  3
*PAPER_SPACE
  1

  0
ENDBLK
  5
10
100
AcDbEntity
 67
           1
  8
0
100
AcDbBlockEnd
  0
BLOCK
  5
28
100
AcDbEntity
  8
0
100
AcDbBlockBegin
  2
DLX
 70
           0
 10
0.0
 20
0.0
 30
0.0
  3
DLX
  1

  0
CIRCLE
  5
E2
100
AcDbEntity
  8
1
  6
CONTINUOUS
 62
           3
100
AcDbCircle
 10
1374.933854451668
 20
1076.866330878755
 40
5.530127989696
  0
CIRCLE
  5
E1
100
AcDbEntity
  8
1
  6
CONTINUOUS
 62
           3
100
AcDbCircle
 10
1374.933854451668
 20
1076.866330878755
 40
5.972862778754
  0
ARC
  5
E0
100
AcDbEntity
  8
1
  6
CONTINUOUS
 62
           3
100
AcDbCircle
 10
1375.712566005328
 20
1075.349776682226
 40
1.391870091328
100
AcDbArc
 50
-1.298612665726
 51
66.54486649411
  0
ARC
  5
DF
100
AcDbEntity
  8
1
  6
CONTINUOUS
 62
           3
100
AcDbCircle
 10
1374.987172818838
 20
1075.040582389822
 40
1.155889798231
100
AcDbArc
 50
0.985058170486
 51
82.918254632933
  0
ARC
  5
DE
100
AcDbEntity
  8
1
  6
CONTINUOUS
 62
           3
100
AcDbCircle
 10
1375.062355457033
 20
1078.251568930551
 40
1.257687287767
100
AcDbArc
 50
-74.800419047017
 51
80.931395238747
  0
ARC
  5
DD
100
AcDbEntity
  8
1
  6
CONTINUOUS
 62
           3
100
AcDbCircle
 10
1375.140673283047
 20
1078.291462921381
 40
2.009798008861
100
AcDbArc
 50
-55.929988464594
 51
86.297888718258
  0
LINE
  5
DC
100
AcDbEntity
  8
1
  6
CONTINUOUS
 62
           3
100
AcDbLine
 10
1373.404615349431
 20
1079.493535531278
 11
1373.404615349431
 21
1077.037877541276
  0
LINE
  5
DB
100
AcDbEntity
  8
1
  6
CONTINUOUS
 62
           3
100
AcDbLine
 10
1375.260588341517
 20
1079.493535531278
 11
1373.404615349431
 21
1079.493535531278
  0
LINE
  5
DA
100
AcDbEntity
  8
1
  6
CONTINUOUS
 62
           3
100
AcDbLine
 10
1373.404615349431
 20
1077.037877541276
 11
1375.392098577373
 21
1077.037877541276
  0
LINE
  5
D9
100
AcDbEntity
  8
1
  6
CONTINUOUS
 62
           3
100
AcDbLine
 10
1373.404615349431
 20
1073.438598788282
 11
1372.532167650315
 21
1073.438598788282
  0
LINE
  5
D8
100
AcDbEntity
  8
1
  6
CONTINUOUS
 62
           3
100
AcDbLine
 10
1375.129677051049
 20
1076.187654213842
 11
1373.404615349431
 21
1076.187654213842
  0
LINE
  5
D7
100
AcDbEntity
  8
1
  6
CONTINUOUS
 62
           3
100
AcDbLine
 10
1376.142891790968
 20
1073.438598788282
 11
1376.142891790968
 21
1075.0604540559
  0
LINE
  5
D6
100
AcDbEntity
  8
1
  6
CONTINUOUS
 62
           3
100
AcDbLine
 10
1377.104078606474
 20
1073.438598788282
 11
1376.142891790968
 21
1073.438598788282
  0
LINE
  5
D5
100
AcDbEntity
  8
1
  6
CONTINUOUS
 62
           3
100
AcDbLine
 10
1377.104078606474
 20
1075.318232554626
 11
1377.104078606474
 21
1073.438598788282
  0
LINE
  5
D4
100
AcDbEntity
  8
1
  6
CONTINUOUS
 62
           3
100
AcDbLine
 10
1374.974087509555
 20
1080.297066963456
 11
1375.270444091907
 21
1080.297066963456
  0
LINE
  5
D3
100
AcDbEntity
  8
1
  6
CONTINUOUS
 62
           3
100
AcDbLine
 10
1372.532167650315
 20
1080.297066963456
 11
1374.974087509555
 21
1080.297066963456
  0
LINE
  5
D2
100
AcDbEntity
  8
1
  6
CONTINUOUS
 62
           3
100
AcDbLine
 10
1372.532167650315
 20
1073.438598788282
 11
1372.532167650315
 21
1080.297066963456
  0
LINE
  5
D1
100
AcDbEntity
  8
1
  6
CONTINUOUS
 62
           3
100
AcDbLine
 10
1373.404615349431
 20
1076.187654213842
 11
1373.404615349431
 21
1073.438598788282
  0
LINE
  5
D0
100
AcDbEntity
  8
1
  6
CONTINUOUS
 62
           3
100
AcDbLine
 10
1328.883380062761
 20
1082.37205147832
 11
1326.789302985147
 21
1082.37205147832
  0
LINE
  5
CF
100
AcDbEntity
  8
1
  6
CONTINUOUS
 62
           3
100
AcDbLine
 10
1326.173444914798
 20
1071.311445417793
 11
1328.883380062761
 21
1082.37205147832
  0
LINE
  5
CE
100
AcDbEntity
  8
1
  6
CONTINUOUS
 62
           3
100
AcDbLine
 10
1336.643830302819
 20
1071.311445417793
 11
1326.173444914798
 21
1071.311445417793
  0
LINE
  5
CD
100
AcDbEntity
  8
1
  6
CONTINUOUS
 62
           3
100
AcDbLine
 10
1336.101843273158
 20
1069.099324205662
 11
1336.643830302819
 21
1071.311445417793
  0
LINE
  5
CC
100
AcDbEntity
  8
1
  6
CONTINUOUS
 62
           3
100
AcDbLine
 10
1323.537380807579
 20
1069.099324205662
 11
1336.101843273158
 21
1069.099324205662
  0
LINE
  5
CB
100
AcDbEntity
  8
1
  6
CONTINUOUS
 62
           3
100
AcDbLine
 10
1326.789302985147
 20
1082.37205147832
 11
1323.537380807579
 21
1069.099324205662
  0
LINE
  5
CA
100
AcDbEntity
  8
1
  6
CONTINUOUS
 62
           3
100
AcDbLine
 10
1313.34263293029
 20
1073.523566629844
 11
1317.098348069656
 21
1080.159930266269
  0
LINE
  5
C9
100
AcDbEntity
  8
1
  6
CONTINUOUS
 62
           3
100
AcDbLine
 10
1318.155151214945
 20
1080.159930266269
 11
1317.098348069656
 21
1080.159930266269
  0
LINE
  5
C8
100
AcDbEntity
  8
1
  6
CONTINUOUS
 62
           3
100
AcDbLine
 10
1318.658944176801
 20
1073.523566629844
 11
1318.155151214945
 21
1080.159930266269
  0
LINE
  5
C7
100
AcDbEntity
  8
1
  6
CONTINUOUS
 62
           3
100
AcDbLine
 10
1313.34263293029
 20
1073.523566629844
 11
1318.658944176801
 21
1073.523566629844
  0
LINE
  5
C6
100
AcDbEntity
  8
1
  6
CONTINUOUS
 62
           3
100
AcDbLine
 10
1310.838822837396
 20
1069.099324205662
 11
1308.460025848824
 21
1069.099324205662
  0
LINE
  5
C5
100
AcDbEntity
  8
1
  6
CONTINUOUS
 62
           3
100
AcDbLine
 10
1312.090727883758
 20
1071.311445417793
 11
1310.838822837396
 21
1069.099324205662
  0
LINE
  5
C4
100
AcDbEntity
  8
1
  6
CONTINUOUS
 62
           3
100
AcDbLine
 10
1318.826875164122
 20
1071.311445417793
 11
1312.090727883758
 21
1071.311445417793
  0
LINE
  5
C3
100
AcDbEntity
  8
1
  6
CONTINUOUS
 62
           3
100
AcDbLine
 10
1318.994806151389
 20
1069.099324205662
 11
1318.826875164122
 21
1071.311445417793
  0
LINE
  5
C2
100
AcDbEntity
  8
1
  6
CONTINUOUS
 62
           3
100
AcDbLine
 10
1321.024488314458
 20
1069.099324205662
 11
1318.994806151389
 21
1069.099324205662
  0
LINE
  5
C1
100
AcDbEntity
  8
1
  6
CONTINUOUS
 62
           3
100
AcDbLine
 10
1320.016902390696
 20
1082.37205147832
 11
1321.024488314458
 21
1069.099324205662
  0
LINE
  5
C0
100
AcDbEntity
  8
1
  6
CONTINUOUS
 62
           3
100
AcDbLine
 10
1315.971456127721
 20
1082.37205147832
 11
1320.016902390696
 21
1082.37205147832
  0
LINE
  5
BF
100
AcDbEntity
  8
1
  6
CONTINUOUS
 62
           3
100
AcDbLine
 10
1308.460025848824
 20
1069.099324205662
 11
1315.971456127721
 21
1082.37205147832
  0
LINE
  5
BE
100
AcDbEntity
  8
1
  6
CONTINUOUS
 62
           3
100
AcDbLine
 10
1295.476747967791
 20
1069.099324205662
 11
1293.38267089023
 21
1069.099324205662
  0
LINE
  5
BD
100
AcDbEntity
  8
1
  6
CONTINUOUS
 62
           3
100
AcDbLine
 10
1298.282750264719
 20
1080.552028538597
 11
1295.476747967791
 21
1069.099324205662
  0
LINE
  5
BC
100
AcDbEntity
  8
1
  6
CONTINUOUS
 62
           3
100
AcDbLine
 10
1298.92329853123
 20
1078.892937629535
 11
1298.282750264719
 21
1080.552028538597
  0
LINE
  5
BB
100
AcDbEntity
  8
1
  6
CONTINUOUS
 62
           3
100
AcDbLine
 10
1302.70445486694
 20
1069.099324205662
 11
1298.92329853123
 21
1078.892937629535
  0
LINE
  5
BA
100
AcDbEntity
  8
1
  6
CONTINUOUS
 62
           3
100
AcDbLine
 10
1305.947133355708
 20
1069.099324205662
 11
1302.70445486694
 21
1069.099324205662
  0
LINE
  5
B9
100
AcDbEntity
  8
1
  6
CONTINUOUS
 62
           3
100
AcDbLine
 10
1309.199055533328
 20
1082.37205147832
 11
1305.947133355708
 21
1069.099324205662
  0
LINE
  5
B8
100
AcDbEntity
  8
1
  6
CONTINUOUS
 62
           3
100
AcDbLine
 10
1307.104978455714
 20
1082.37205147832
 11
1309.199055533328
 21
1082.37205147832
  0
LINE
  5
B7
100
AcDbEntity
  8
1
  6
CONTINUOUS
 62
           3
100
AcDbLine
 10
1304.259546550361
 20
1070.758415114746
 11
1307.104978455714
 21
1082.37205147832
  0
LINE
  5
B6
100
AcDbEntity
  8
1
  6
CONTINUOUS
 62
           3
100
AcDbLine
 10
1299.775708684086
 20
1082.37205147832
 11
1304.259546550361
 21
1070.758415114746
  0
LINE
  5
B5
100
AcDbEntity
  8
1
  6
CONTINUOUS
 62
           3
100
AcDbLine
 10
1296.634593067746
 20
1082.37205147832
 11
1299.775708684086
 21
1082.37205147832
  0
LINE
  5
B4
100
AcDbEntity
  8
1
  6
CONTINUOUS
 62
           3
100
AcDbLine
 10
1293.38267089023
 20
1069.099324205662
 11
1296.634593067746
 21
1082.37205147832
  0
LINE
  5
B3
100
AcDbEntity
  8
1
  6
CONTINUOUS
 62
           3
100
AcDbLine
 10
1294.12170057463
 20
1082.37205147832
 11
1292.027623497066
 21
1082.37205147832
  0
LINE
  5
B2
100
AcDbEntity
  8
1
  6
CONTINUOUS
 62
           3
100
AcDbLine
 10
1292.027623497066
 20
1082.37205147832
 11
1288.7757013195
 21
1069.099324205662
  0
LINE
  5
B1
100
AcDbEntity
  8
1
  6
CONTINUOUS
 62
           3
100
AcDbLine
 10
1290.869778397061
 20
1069.099324205662
 11
1294.12170057463
 21
1082.37205147832
  0
LINE
  5
B0
100
AcDbEntity
  8
1
  6
CONTINUOUS
 62
           3
100
AcDbLine
 10
1288.7757013195
 20
1069.099324205662
 11
1290.869778397061
 21
1069.099324205662
  0
LINE
  5
AF
100
AcDbEntity
  8
1
  6
CONTINUOUS
 62
           3
100
AcDbLine
 10
1286.282481164254
 20
1077.726596932891
 11
1288.37655824178
 21
1077.726596932891
  0
LINE
  5
AE
100
AcDbEntity
  8
1
  6
CONTINUOUS
 62
           3
100
AcDbLine
 10
1285.252705808104
 20
1073.523566629844
 11
1284.710718778336
 21
1071.311445417793
  0
LINE
  5
AD
100
AcDbEntity
  8
1
  6
CONTINUOUS
 62
           3
100
AcDbLine
 10
1281.064551652702
 20
1073.523566629844
 11
1285.252705808104
 21
1073.523566629844
  0
LINE
  5
AC
100
AcDbEntity
  8
1
  6
CONTINUOUS
 62
           3
100
AcDbLine
 10
1281.606538682351
 20
1075.735687842033
 11
1281.064551652702
 21
1073.523566629844
  0
LINE
  5
AB
100
AcDbEntity
  8
1
  6
CONTINUOUS
 62
           3
100
AcDbLine
 10
1287.888769915156
 20
1075.735687842033
 11
1286.262808826384
 21
1069.099324205662
  0
LINE
  5
AA
100
AcDbEntity
  8
1
  6
CONTINUOUS
 62
           3
100
AcDbLine
 10
1287.888769915156
 20
1075.735687842033
 11
1281.606538682351
 21
1075.735687842033
  0
LINE
  5
A9
100
AcDbEntity
  8
1
  6
CONTINUOUS
 62
           3
100
AcDbLine
 10
1276.334410468007
 20
1071.311445417793
 11
1278.502358586334
 21
1080.159930266269
  0
LINE
  5
A8
100
AcDbEntity
  8
1
  6
CONTINUOUS
 62
           3
100
AcDbLine
 10
1278.502358586334
 20
1080.159930266269
 11
1286.878666896631
 21
1080.159930266269
  0
LINE
  5
A7
100
AcDbEntity
  8
1
  6
CONTINUOUS
 62
           3
100
AcDbLine
 10
1286.878666896631
 20
1080.159930266269
 11
1286.282481164254
 21
1077.726596932891
  0
LINE
  5
A6
100
AcDbEntity
  8
1
  6
CONTINUOUS
 62
           3
100
AcDbLine
 10
1284.710718778336
 20
1071.311445417793
 11
1276.334410468007
 21
1071.311445417793
  0
LINE
  5
A5
100
AcDbEntity
  8
1
  6
CONTINUOUS
 62
           3
100
AcDbLine
 10
1286.262808826384
 20
1069.099324205662
 11
1273.698346360772
 21
1069.099324205662
  0
LINE
  5
A4
100
AcDbEntity
  8
1
  6
CONTINUOUS
 62
           3
100
AcDbLine
 10
1289.514731003906
 20
1082.37205147832
 11
1288.37655824178
 21
1077.726596932891
  0
LINE
  5
A3
100
AcDbEntity
  8
1
  6
CONTINUOUS
 62
           3
100
AcDbLine
 10
1276.950268538315
 20
1082.37205147832
 11
1289.514731003906
 21
1082.37205147832
  0
LINE
  5
A2
100
AcDbEntity
  8
1
  6
CONTINUOUS
 62
           3
100
AcDbLine
 10
1273.698346360772
 20
1069.099324205662
 11
1276.950268538315
 21
1082.37205147832
  0
LINE
  5
A1
100
AcDbEntity
  8
1
  6
CONTINUOUS
 62
           3
100
AcDbLine
 10
1271.185453867787
 20
1069.099324205662
 11
1274.437376045196
 21
1082.37205147832
  0
LINE
  5
A0
100
AcDbEntity
  8
1
  6
CONTINUOUS
 62
           3
100
AcDbLine
 10
1269.091376790067
 20
1069.099324205662
 11
1271.185453867787
 21
1069.099324205662
  0
LINE
  5
9F
100
AcDbEntity
  8
1
  6
CONTINUOUS
 62
           3
100
AcDbLine
 10
1272.343298967633
 20
1082.37205147832
 11
1269.091376790067
 21
1069.099324205662
  0
LINE
  5
9E
100
AcDbEntity
  8
1
  6
CONTINUOUS
 62
           3
100
AcDbLine
 10
1274.437376045196
 20
1082.37205147832
 11
1272.343298967633
 21
1082.37205147832
  0
LINE
  5
9D
100
AcDbEntity
  8
1
  6
CONTINUOUS
 62
           3
100
AcDbLine
 10
1256.108098909029
 20
1069.099324205662
 11
1257.19207296814
 21
1073.523566629844
  0
LINE
  5
9C
100
AcDbEntity
  8
1
  6
CONTINUOUS
 62
           3
100
AcDbLine
 10
1254.014021831353
 20
1069.099324205662
 11
1256.108098909029
 21
1069.099324205662
  0
LINE
  5
9B
100
AcDbEntity
  8
1
  6
CONTINUOUS
 62
           3
100
AcDbLine
 10
1267.526202683049
 20
1072.967438810782
 11
1266.578484296937
 21
1069.099324205662
  0
LINE
  5
9A
100
AcDbEntity
  8
1
  6
CONTINUOUS
 62
           3
100
AcDbLine
 10
1258.818034056916
 20
1080.159930266269
 11
1257.734059997732
 21
1075.735687842033
  0
LINE
  5
99
100
AcDbEntity
  8
1
  6
CONTINUOUS
 62
           3
100
AcDbLine
 10
1267.194342367434
 20
1080.159930266269
 11
1258.818034056916
 21
1080.159930266269
  0
LINE
  5
98
100
AcDbEntity
  8
1
  6
CONTINUOUS
 62
           3
100
AcDbLine
 10
1266.110368308111
 20
1075.735687842033
 11
1267.194342367434
 21
1080.159930266269
  0
LINE
  5
97
100
AcDbEntity
  8
1
  6
CONTINUOUS
 62
           3
100
AcDbLine
 10
1257.734059997732
 20
1075.735687842033
 11
1266.110368308111
 21
1075.735687842033
  0
LINE
  5
96
100
AcDbEntity
  8
1
  6
CONTINUOUS
 62
           3
100
AcDbLine
 10
1265.56838127867
 20
1073.523566629844
 11
1257.19207296814
 21
1073.523566629844
  0
LINE
  5
95
100
AcDbEntity
  8
1
  6
CONTINUOUS
 62
           3
100
AcDbLine
 10
1264.484407219297
 20
1069.099324205662
 11
1265.56838127867
 21
1073.523566629844
  0
LINE
  5
94
100
AcDbEntity
  8
1
  6
CONTINUOUS
 62
           3
100
AcDbLine
 10
1266.578484296937
 20
1069.099324205662
 11
1264.484407219297
 21
1069.099324205662
  0
LINE
  5
93
100
AcDbEntity
  8
1
  6
CONTINUOUS
 62
           3
100
AcDbLine
 10
1269.830406474469
 20
1082.37205147832
 11
1267.962882364616
 21
1074.749747858332
  0
LINE
  5
92
100
AcDbEntity
  8
1
  6
CONTINUOUS
 62
           3
100
AcDbLine
 10
1257.26594400889
 20
1082.37205147832
 11
1269.830406474469
 21
1082.37205147832
  0
LINE
  5
91
100
AcDbEntity
  8
1
  6
CONTINUOUS
 62
           3
100
AcDbLine
 10
1257.26594400889
 20
1082.37205147832
 11
1254.014021831353
 21
1069.099324205662
  0
LINE
  5
90
100
AcDbEntity
  8
1
  6
CONTINUOUS
 62
           3
100
AcDbLine
 10
1241.572730979864
 20
1071.311445417793
 11
1243.740679098205
 21
1080.159930266269
  0
LINE
  5
8F
100
AcDbEntity
  8
1
  6
CONTINUOUS
 62
           3
100
AcDbLine
 10
1243.740679098205
 20
1080.159930266269
 11
1252.116987408695
 21
1080.159930266269
  0
LINE
  5
8E
100
AcDbEntity
  8
1
  6
CONTINUOUS
 62
           3
100
AcDbLine
 10
1252.116987408695
 20
1080.159930266269
 11
1249.949039290219
 21
1071.311445417793
  0
LINE
  5
8D
100
AcDbEntity
  8
1
  6
CONTINUOUS
 62
           3
100
AcDbLine
 10
1249.949039290219
 20
1071.311445417793
 11
1241.572730979864
 21
1071.311445417793
  0
LINE
  5
8C
100
AcDbEntity
  8
1
  6
CONTINUOUS
 62
           3
100
AcDbLine
 10
1251.501129338223
 20
1069.099324205662
 11
1238.936666872698
 21
1069.099324205662
  0
LINE
  5
8B
100
AcDbEntity
  8
1
  6
CONTINUOUS
 62
           3
100
AcDbLine
 10
1254.753051515897
 20
1082.37205147832
 11
1251.501129338223
 21
1069.099324205662
  0
LINE
  5
8A
100
AcDbEntity
  8
1
  6
CONTINUOUS
 62
           3
100
AcDbLine
 10
1242.188589050179
 20
1082.37205147832
 11
1254.753051515897
 21
1082.37205147832
  0
LINE
  5
89
100
AcDbEntity
  8
1
  6
CONTINUOUS
 62
           3
100
AcDbLine
 10
1238.936666872698
 20
1069.099324205662
 11
1242.188589050179
 21
1082.37205147832
  0
LINE
  5
88
100
AcDbEntity
  8
1
  6
CONTINUOUS
 62
           3
100
AcDbLine
 10
1382.527482365938
 20
1025.987543
 11
1329.936680947128
 21
1025.987543
  0
LINE
  5
87
100
AcDbEntity
  8
1
  6
CONTINUOUS
 62
           3
100
AcDbLine
 10
1380.126809999419
 20
1032.181482393909
 11
1337.317660447246
 21
1032.181482393909
  0
LINE
  5
86
100
AcDbEntity
  8
1
  6
CONTINUOUS
 62
           3
100
AcDbLine
 10
1380.126809999419
 20
1032.181482393909
 11
1382.527482365938
 21
1025.987543
  0
LINE
  5
85
100
AcDbEntity
  8
1
  6
CONTINUOUS
 62
           3
100
AcDbLine
 10
1372.884809922638
 20
1050.866460066824
 11
1370.104956798681
 21
1058.038718145079
  0
LINE
  5
84
100
AcDbEntity
  8
1
  6
CONTINUOUS
 62
           3
100
AcDbLine
 10
1378.482036102924
 20
1058.038718145079
 11
1372.884809922638
 21
1050.866460066824
  0
LINE
  5
83
100
AcDbEntity
  8
1
  6
CONTINUOUS
 62
           3
100
AcDbLine
 10
1382.527482365982
 20
1058.038718145079
 11
1378.482036102924
 21
1058.038718145079
  0
LINE
  5
82
100
AcDbEntity
  8
1
  6
CONTINUOUS
 62
           3
100
AcDbLine
 10
1374.227252320899
 20
1047.402844218603
 11
1382.527482365982
 21
1058.038718145079
  0
LINE
  5
81
100
AcDbEntity
  8
1
  6
CONTINUOUS
 62
           3
100
AcDbLine
 10
1379.097950413904
 20
1034.836027848477
 11
1374.227252320899
 21
1047.402844218603
  0
LINE
  5
80
100
AcDbEntity
  8
1
  6
CONTINUOUS
 62
           3
100
AcDbLine
 10
1375.052504150855
 20
1034.836027848477
 11
1379.097950413904
 21
1034.836027848477
  0
LINE
  5
7F
100
AcDbEntity
  8
1
  6
CONTINUOUS
 62
           3
100
AcDbLine
 10
1371.524248456171
 20
1043.939228370502
 11
1375.052504150855
 21
1034.836027848477
  0
LINE
  5
7E
100
AcDbEntity
  8
1
  6
CONTINUOUS
 62
           3
100
AcDbLine
 10
1364.420115876069
 20
1034.836027848477
 11
1371.524248456171
 21
1043.939228370502
  0
LINE
  5
7D
100
AcDbEntity
  8
1
  6
CONTINUOUS
 62
           3
100
AcDbLine
 10
1360.374669613073
 20
1034.836027848477
 11
1364.420115876069
 21
1034.836027848477
  0
LINE
  5
7C
100
AcDbEntity
  8
1
  6
CONTINUOUS
 62
           3
100
AcDbLine
 10
1370.181806057862
 20
1047.402844218661
 11
1360.374669613073
 21
1034.836027848477
  0
LINE
  5
7B
100
AcDbEntity
  8
1
  6
CONTINUOUS
 62
           3
100
AcDbLine
 10
1366.059510535666
 20
1058.038718145079
 11
1370.181806057862
 21
1047.402844218661
  0
LINE
  5
7A
100
AcDbEntity
  8
1
  6
CONTINUOUS
 62
           3
100
AcDbLine
 10
1370.104956798681
 20
1058.038718145079
 11
1366.059510535666
 21
1058.038718145079
  0
LINE
  5
79
100
AcDbEntity
  8
1
  6
CONTINUOUS
 62
           3
100
AcDbLine
 10
1353.076232654621
 20
1058.038718145079
 11
1347.841039960699
 21
1058.038718145079
  0
LINE
  5
78
100
AcDbEntity
  8
1
  6
CONTINUOUS
 62
           3
100
AcDbLine
 10
1348.475365791269
 20
1039.260270272797
 11
1353.076232654621
 21
1058.038718145079
  0
LINE
  5
77
100
AcDbEntity
  8
1
  6
CONTINUOUS
 62
           3
100
AcDbLine
 10
1353.710558485221
 20
1039.260270272797
 11
1348.475365791269
 21
1039.260270272797
  0
LINE
  5
76
100
AcDbEntity
  8
1
  6
CONTINUOUS
 62
           3
100
AcDbLine
 10
1358.311425348616
 20
1058.038718145079
 11
1353.710558485221
 21
1039.260270272797
  0
LINE
  5
75
100
AcDbEntity
  8
1
  6
CONTINUOUS
 62
           3
100
AcDbLine
 10
1363.54661804254
 20
1058.038718145079
 11
1358.311425348616
 21
1058.038718145079
  0
LINE
  5
74
100
AcDbEntity
  8
1
  6
CONTINUOUS
 62
           3
100
AcDbLine
 10
1357.861777119931
 20
1034.836027848477
 11
1363.54661804254
 21
1058.038718145079
  0
LINE
  5
73
100
AcDbEntity
  8
1
  6
CONTINUOUS
 62
           3
100
AcDbLine
 10
1342.15619903801
 20
1034.836027848477
 11
1357.861777119931
 21
1034.836027848477
  0
LINE
  5
72
100
AcDbEntity
  8
1
  6
CONTINUOUS
 62
           3
100
AcDbLine
 10
1347.841039960699
 20
1058.038718145079
 11
1342.15619903801
 21
1034.836027848477
  0
LINE
  5
71
100
AcDbEntity
  8
1
  6
CONTINUOUS
 62
           3
100
AcDbLine
 10
1340.49940513607
 20
1069.099324205662
 11
1329.936680947128
 21
1025.987543
  0
LINE
  5
70
100
AcDbEntity
  8
1
  6
CONTINUOUS
 62
           3
100
AcDbLine
 10
1346.362820953338
 20
1069.099324205662
 11
1340.49940513607
 21
1069.099324205662
  0
LINE
  5
6F
100
AcDbEntity
  8
1
  6
CONTINUOUS
 62
           3
100
AcDbLine
 10
1337.317660447246
 20
1032.181482393909
 11
1346.362820953338
 21
1069.099324205662
  0
LINE
  5
6E
100
AcDbEntity
  8
1
  6
CONTINUOUS
 62
           3
100
AcDbLine
 10
1202.197979213731
 20
1025.987543
 11
1210.050768254786
 21
1058.038718145079
  0
LINE
  5
6D
100
AcDbEntity
  8
1
  6
CONTINUOUS
 62
           3
100
AcDbLine
 10
1210.050768254786
 20
1058.038718145079
 11
1216.332999487483
 21
1058.038718145079
  0
LINE
  5
6C
100
AcDbEntity
  8
1
  6
CONTINUOUS
 62
           3
100
AcDbLine
 10
1216.332999487483
 20
1058.038718145079
 11
1209.564184505794
 21
1030.411785424182
  0
LINE
  5
6B
100
AcDbEntity
  8
1
  6
CONTINUOUS
 62
           3
100
AcDbLine
 10
1209.564184505794
 20
1030.411785424182
 11
1214.799377199673
 21
1030.411785424182
  0
LINE
  5
6A
100
AcDbEntity
  8
1
  6
CONTINUOUS
 62
           3
100
AcDbLine
 10
1214.799377199673
 20
1030.411785424182
 11
1222.923159755555
 21
1063.569021175405
  0
LINE
  5
69
100
AcDbEntity
  8
1
  6
CONTINUOUS
 62
           3
100
AcDbLine
 10
1222.923159755555
 20
1063.569021175405
 11
1205.232063911022
 21
1063.569021175405
  0
LINE
  5
68
100
AcDbEntity
  8
1
  6
CONTINUOUS
 62
           3
100
AcDbLine
 10
1205.232063911022
 20
1063.569021175405
 11
1206.587031485007
 21
1069.099324205662
  0
LINE
  5
67
100
AcDbEntity
  8
1
  6
CONTINUOUS
 62
           3
100
AcDbLine
 10
1206.587031485007
 20
1069.099324205662
 11
1230.560358562299
 21
1069.099324205662
  0
LINE
  5
66
100
AcDbEntity
  8
1
  6
CONTINUOUS
 62
           3
100
AcDbLine
 10
1230.560358562299
 20
1069.099324205662
 11
1219.997634373379
 21
1025.987543
  0
LINE
  5
65
100
AcDbEntity
  8
1
  6
CONTINUOUS
 62
           3
100
AcDbLine
 10
1219.997634373379
 20
1025.987543
 11
1202.197979213731
 21
1025.987543
  0
LINE
  5
64
100
AcDbEntity
  8
1
  6
CONTINUOUS
 62
           3
100
AcDbLine
 10
1224.185788528506
 20
1025.987543
 11
1232.038577569499
 21
1058.038718145079
  0
LINE
  5
63
100
AcDbEntity
  8
1
  6
CONTINUOUS
 62
           3
100
AcDbLine
 10
1232.038577569499
 20
1058.038718145079
 11
1238.320808802309
 21
1058.038718145079
  0
LINE
  5
62
100
AcDbEntity
  8
1
  6
CONTINUOUS
 62
           3
100
AcDbLine
 10
1238.320808802309
 20
1058.038718145079
 11
1231.551993820514
 21
1030.411785424182
  0
LINE
  5
61
100
AcDbEntity
  8
1
  6
CONTINUOUS
 62
           3
100
AcDbLine
 10
1231.551993820514
 20
1030.411785424182
 11
1236.787186514498
 21
1030.411785424182
  0
LINE
  5
60
100
AcDbEntity
  8
1
  6
CONTINUOUS
 62
           3
100
AcDbLine
 10
1236.787186514498
 20
1030.411785424182
 11
1243.556001496304
 21
1058.038718145079
  0
LINE
  5
5F
100
AcDbEntity
  8
1
  6
CONTINUOUS
 62
           3
100
AcDbLine
 10
1241.985443688096
 20
1025.987543
 11
1224.185788528506
 21
1025.987543
  0
LINE
  5
5E
100
AcDbEntity
  8
1
  6
CONTINUOUS
 62
           3
100
AcDbLine
 10
1243.556001496304
 20
1058.038718145079
 11
1249.838232729111
 21
1058.038718145079
  0
LINE
  5
5D
100
AcDbEntity
  8
1
  6
CONTINUOUS
 62
           3
100
AcDbLine
 10
1249.838232729111
 20
1058.038718145079
 11
1241.985443688096
 21
1025.987543
  0
LINE
  5
5C
100
AcDbEntity
  8
1
  6
CONTINUOUS
 62
           3
100
AcDbLine
 10
1270.779003505045
 20
1058.038718145079
 11
1254.026386884274
 21
1058.038718145079
  0
LINE
  5
5B
100
AcDbEntity
  8
1
  6
CONTINUOUS
 62
           3
100
AcDbLine
 10
1254.026386884274
 20
1058.038718145079
 11
1249.425520020882
 21
1039.260270272797
  0
LINE
  5
5A
100
AcDbEntity
  8
1
  6
CONTINUOUS
 62
           3
100
AcDbLine
 10
1249.425520020882
 20
1039.260270272797
 11
1259.895905408848
 21
1039.260270272797
  0
LINE
  5
59
100
AcDbEntity
  8
1
  6
CONTINUOUS
 62
           3
100
AcDbLine
 10
1259.895905408848
 20
1039.260270272797
 11
1257.72795729043
 21
1030.411785424182
  0
LINE
  5
58
100
AcDbEntity
  8
1
  6
CONTINUOUS
 62
           3
100
AcDbLine
 10
1257.72795729043
 20
1030.411785424182
 11
1247.257571902519
 21
1030.411785424182
  0
LINE
  5
57
100
AcDbEntity
  8
1
  6
CONTINUOUS
 62
           3
100
AcDbLine
 10
1247.257571902519
 20
1030.411785424182
 11
1246.173597843211
 21
1025.987543
  0
LINE
  5
56
100
AcDbEntity
  8
1
  6
CONTINUOUS
 62
           3
100
AcDbLine
 10
1246.173597843211
 20
1025.987543
 11
1262.926214464034
 21
1025.987543
  0
LINE
  5
55
100
AcDbEntity
  8
1
  6
CONTINUOUS
 62
           3
100
AcDbLine
 10
1262.926214464034
 20
1025.987543
 11
1267.262110700958
 21
1043.684512696953
  0
LINE
  5
54
100
AcDbEntity
  8
1
  6
CONTINUOUS
 62
           3
100
AcDbLine
 10
1267.262110700958
 20
1043.684512696953
 11
1256.791725312894
 21
1043.684512696953
  0
LINE
  5
53
100
AcDbEntity
  8
1
  6
CONTINUOUS
 62
           3
100
AcDbLine
 10
1256.791725312894
 20
1043.684512696953
 11
1259.224644057907
 21
1053.614475720839
  0
LINE
  5
52
100
AcDbEntity
  8
1
  6
CONTINUOUS
 62
           3
100
AcDbLine
 10
1259.224644057907
 20
1053.614475720839
 11
1269.695029445887
 21
1053.614475720839
  0
LINE
  5
51
100
AcDbEntity
  8
1
  6
CONTINUOUS
 62
           3
100
AcDbLine
 10
1269.695029445887
 20
1053.614475720839
 11
1270.779003505045
 21
1058.038718145079
  0
LINE
  5
50
100
AcDbEntity
  8
1
  6
CONTINUOUS
 62
           3
100
AcDbLine
 10
1289.009839133053
 20
1046.978112084413
 11
1291.719774280984
 21
1058.038718145079
  0
LINE
  5
4F
100
AcDbEntity
  8
1
  6
CONTINUOUS
 62
           3
100
AcDbLine
 10
1291.719774280984
 20
1058.038718145079
 11
1274.967157660263
 21
1058.038718145079
  0
LINE
  5
4E
100
AcDbEntity
  8
1
  6
CONTINUOUS
 62
           3
100
AcDbLine
 10
1274.967157660263
 20
1058.038718145079
 11
1267.11436861927
 21
1025.987543
  0
LINE
  5
4D
100
AcDbEntity
  8
1
  6
CONTINUOUS
 62
           3
100
AcDbLine
 10
1267.11436861927
 20
1025.987543
 11
1283.866985240023
 21
1025.987543
  0
LINE
  5
4C
100
AcDbEntity
  8
1
  6
CONTINUOUS
 62
           3
100
AcDbLine
 10
1283.866985240023
 20
1025.987543
 11
1286.576920387998
 21
1037.048149060608
  0
LINE
  5
4B
100
AcDbEntity
  8
1
  6
CONTINUOUS
 62
           3
100
AcDbLine
 10
1286.576920387998
 20
1037.048149060608
 11
1280.29468915521
 21
1037.048149060608
  0
LINE
  5
4A
100
AcDbEntity
  8
1
  6
CONTINUOUS
 62
           3
100
AcDbLine
 10
1280.29468915521
 20
1037.048149060608
 11
1278.668728066422
 21
1030.411785424182
  0
LINE
  5
49
100
AcDbEntity
  8
1
  6
CONTINUOUS
 62
           3
100
AcDbLine
 10
1278.668728066422
 20
1030.411785424182
 11
1274.480573911219
 21
1030.411785424182
  0
LINE
  5
48
100
AcDbEntity
  8
1
  6
CONTINUOUS
 62
           3
100
AcDbLine
 10
1274.480573911219
 20
1030.411785424182
 11
1280.165414833848
 21
1053.614475720839
  0
LINE
  5
47
100
AcDbEntity
  8
1
  6
CONTINUOUS
 62
           3
100
AcDbLine
 10
1280.165414833848
 20
1053.614475720839
 11
1284.353568989041
 21
1053.614475720839
  0
LINE
  5
46
100
AcDbEntity
  8
1
  6
CONTINUOUS
 62
           3
100
AcDbLine
 10
1284.353568989041
 20
1053.614475720839
 11
1282.727607900247
 21
1046.978112084413
  0
LINE
  5
45
100
AcDbEntity
  8
1
  6
CONTINUOUS
 62
           3
100
AcDbLine
 10
1282.727607900247
 20
1046.978112084413
 11
1289.009839133053
 21
1046.978112084413
  0
LINE
  5
44
100
AcDbEntity
  8
1
  6
CONTINUOUS
 62
           3
100
AcDbLine
 10
1288.055139395204
 20
1025.987543
 11
1294.337370627992
 21
1025.987543
  0
LINE
  5
43
100
AcDbEntity
  8
1
  6
CONTINUOUS
 62
           3
100
AcDbLine
 10
1304.807756016068
 20
1025.987543
 11
1312.660545057081
 21
1058.038718145079
  0
LINE
  5
42
100
AcDbEntity
  8
1
  6
CONTINUOUS
 62
           3
100
AcDbLine
 10
1298.525524783171
 20
1025.987543
 11
1301.909932274065
 21
1039.801009360341
  0
LINE
  5
41
100
AcDbEntity
  8
1
  6
CONTINUOUS
 62
           3
100
AcDbLine
 10
1294.337370627992
 20
1025.987543
 11
1297.721778118877
 21
1039.801009360341
  0
LINE
  5
40
100
AcDbEntity
  8
1
  6
CONTINUOUS
 62
           3
100
AcDbLine
 10
1295.907928436197
 20
1058.038718145079
 11
1288.055139395204
 21
1025.987543
  0
LINE
  5
3F
100
AcDbEntity
  8
1
  6
CONTINUOUS
 62
           3
100
AcDbLine
 10
1312.660545057081
 20
1058.038718145079
 11
1306.378313824167
 21
1058.038718145079
  0
LINE
  5
3E
100
AcDbEntity
  8
1
  6
CONTINUOUS
 62
           3
100
AcDbLine
 10
1308.995910171193
 20
1025.987543
 11
1325.748526792002
 21
1025.987543
  0
LINE
  5
3D
100
AcDbEntity
  8
1
  6
CONTINUOUS
 62
           3
100
AcDbLine
 10
1320.550269618298
 20
1030.411785424182
 11
1316.362115463199
 21
1030.411785424182
  0
LINE
  5
3C
100
AcDbEntity
  8
1
  6
CONTINUOUS
 62
           3
100
AcDbLine
 10
1316.84869921219
 20
1058.038718145079
 11
1308.995910171193
 21
1025.987543
  0
LINE
  5
3B
100
AcDbEntity
  8
1
  6
CONTINUOUS
 62
           3
100
AcDbLine
 10
1316.362115463199
 20
1030.411785424182
 11
1322.046956385774
 21
1053.614475720839
  0
LINE
  5
3A
100
AcDbEntity
  8
1
  6
CONTINUOUS
 62
           3
100
AcDbLine
 10
1333.60131583302
 20
1058.038718145079
 11
1316.84869921219
 21
1058.038718145079
  0
LINE
  5
39
100
AcDbEntity
  8
1
  6
CONTINUOUS
 62
           3
100
AcDbLine
 10
1322.046956385774
 20
1053.614475720839
 11
1326.235110541023
 21
1053.614475720839
  0
LINE
  5
38
100
AcDbEntity
  8
1
  6
CONTINUOUS
 62
           3
100
AcDbLine
 10
1326.235110541023
 20
1053.614475720839
 11
1320.550269618298
 21
1030.411785424182
  0
LINE
  5
37
100
AcDbEntity
  8
1
  6
CONTINUOUS
 62
           3
100
AcDbLine
 10
1333.60131583302
 20
1058.038718145079
 11
1325.748526792002
 21
1025.987543
  0
LINE
  5
36
100
AcDbEntity
  8
1
  6
CONTINUOUS
 62
           3
100
AcDbLine
 10
1302.190159669063
 20
1058.038718145079
 11
1295.907928436197
 21
1058.038718145079
  0
LINE
  5
35
100
AcDbEntity
  8
1
  6
CONTINUOUS
 62
           3
100
AcDbLine
 10
1298.525524783171
 20
1025.987543
 11
1304.807756016068
 21
1025.987543
  0
LINE
  5
34
100
AcDbEntity
  8
1
  6
CONTINUOUS
 62
           3
100
AcDbLine
 10
1297.721778118877
 20
1039.801009360341
 11
1301.909932274065
 21
1039.801009360341
  0
LINE
  5
33
100
AcDbEntity
  8
1
  6
CONTINUOUS
 62
           3
100
AcDbLine
 10
1298.805752178046
 20
1044.225251784527
 11
1302.993906333285
 21
1044.225251784527
  0
LINE
  5
32
100
AcDbEntity
  8
1
  6
CONTINUOUS
 62
           3
100
AcDbLine
 10
1298.805752178046
 20
1044.225251784527
 11
1302.190159669063
 21
1058.038718145079
  0
LINE
  5
31
100
AcDbEntity
  8
1
  6
CONTINUOUS
 62
           3
100
AcDbLine
 10
1302.993906333285
 20
1044.225251784527
 11
1306.378313824167
 21
1058.038718145079
  0
LINE
  5
30
100
AcDbEntity
  8
1
  6
CONTINUOUS
 62
           3
100
AcDbLine
 10
1267.962882364616
 20
1074.749747858332
 11
1267.230799595669
 21
1073.965990872363
  0
LINE
  5
2F
100
AcDbEntity
  8
1
  6
CONTINUOUS
 62
           3
100
AcDbLine
 10
1267.526202683049
 20
1072.967438810782
 11
1267.230799595669
 21
1073.965990872363
  0
ENDBLK
  5
E3
100
AcDbEntity
  8
0
100
AcDbBlockEnd
  0
BLOCK
  5
2A
100
AcDbEntity
  8
0
100
AcDbBlockBegin
  2
WANNE_PRIME_LINE_250
 70
           0
 10
0.0
 20
0.0
 30
0.0
  3
WANNE_PRIME_LINE_250
  1

  0
ARC
  5
100
100
AcDbEntity
  8
1
  6
CONTINUOUS
 62
           7
100
AcDbCircle
 10
1657.527482365938
 20
1175.987543
 40
50.0
100
AcDbArc
 50
0.0
 51
90.0
  0
ARC
  5
FF
100
AcDbEntity
  8
1
  6
CONTINUOUS
 62
           7
100
AcDbCircle
 10
150.421492494725
 20
1175.987543
 40
50.0
100
AcDbArc
 50
90.0
 51
178.333903750147
  0
ARC
  5
FE
100
AcDbEntity
  8
1
  6
CONTINUOUS
 62
           7
100
AcDbCircle
 10
1657.527482365938
 20
290.629350034259
 40
50.0
100
AcDbArc
 50
-59.198612010062
 51
0.0
  0
ARC
  5
FD
100
AcDbEntity
  8
1
  6
CONTINUOUS
 62
           7
100
AcDbCircle
 10
1625.302509906226
 20
315.142053319651
 40
50.0
100
AcDbArc
 50
-54.625268027209
 51
-3.169915907736
  0
SPLINE
  5
FC
100
AcDbEntity
  8
1
  6
CONTINUOUS
 62
           7
100
AcDbSpline
210
0.0
220
0.0
230
1.0
 70
           0
 71
           3
 72
          41
 73
          38
 74
          77
 42
0.00000000001
 43
0.00000000001
 44
0.00000000001
 40
-1.8732399921271394
 40
-0.0595164133704884
 40
1.7542071653861844
 40
3.6869470082131466
 40
5.9420187139166361
 40
8.6386336604319531
 40
11.80692762622725
 40
15.414858725723967
 40
19.393799156019522
 40
23.652019676361654
 40
28.083253870477005
 40
32.573045222692087
 40
37.00427941680833
 40
41.262499937149514
 40
45.241440367445307
 40
48.849371466942173
 40
52.017665432736983
 40
54.714280379252543
 40
56.969352084955737
 40
58.902091927782536
 40
60.715815506539784
 40
62.64855534936649
 40
64.90362705506945
 40
67.600242001584746
 40
70.768535967379535
 40
74.376467066876927
 40
78.355407497172536
 40
82.613628017513619
 40
87.044862211629663
 40
91.534653563844202
 40
95.965887757960132
 40
100.22410827830232
 40
104.20304870859752
 40
107.81097980809422
 40
110.9792737738891
 40
113.67588872040473
 40
115.9309604261085
 40
117.86370026893493
 40
119.67742384769136
 40
121.49114742644801
 40
123.30487100520469
 10
441.28652482815778
 20
404.32513987363421
 30
0.0
 10
439.73072710144697
 20
403.39289170190131
 30
0.0
 10
437.69674230196478
 20
403.12343120820032
 30
0.0
 10
435.26002231905591
 20
403.44910568350832
 30
0.0
 10
432.46457365091283
 20
404.3428437677216
 30
0.0
 10
429.38108544701799
 20
405.77949677925142
 30
0.0
 10
426.09702128025287
 20
407.71919003830322
 30
0.0
 10
422.70959251609088
 20
410.10584177119279
 30
0.0
 10
419.32046291724379
 20
412.86883019381207
 30
0.0
 10
416.03181251857478
 20
415.92546313575127
 30
0.0
 10
412.94283537109192
 20
419.18375203773121
 30
0.0
 10
410.14649562760991
 20
422.54541658082968
 30
0.0
 10
407.7264910087689
 20
425.90909875534561
 30
0.0
 10
405.75444433708992
 20
429.17383753744951
 30
0.0
 10
404.28739514264589
 20
432.24298042108478
 30
0.0
 10
403.36608033996492
 20
435.02946208328149
 30
0.0
 10
403.0163458250189
 20
437.4628453058815
 30
0.0
 10
403.26569644132587
 20
439.49939321652198
 30
0.0
 10
404.18252709564678
 20
441.06432604940562
 30
0.0
 10
405.73832482235889
 20
441.99657422113768
 30
0.0
 10
407.7723096218399
 20
442.26603471483861
 30
0.0
 10
410.20902960474888
 20
441.94036023953061
 30
0.0
 10
413.0044782728919
 20
441.04662215531761
 30
0.0
 10
416.08796647678588
 20
439.60996914378808
 30
0.0
 10
419.37203064355288
 20
437.67027588473502
 30
0.0
 10
422.75945940771288
 20
435.28362415184631
 30
0.0
 10
426.14858900655992
 20
432.52063572922691
 30
0.0
 10
429.43723940523091
 20
429.46400278728782
 30
0.0
 10
432.52621655271082
 20
426.20571388530851
 30
0.0
 10
435.32255629619499
 20
422.84404934220942
 30
0.0
 10
437.74256091503588
 20
419.4803671676932
 30
0.0
 10
439.71460758671378
 20
416.21562838559021
 30
0.0
 10
441.18165678115793
 20
413.14648550195392
 30
0.0
 10
442.10297158383992
 20
410.36000383975841
 30
0.0
 10
442.4527060987869
 20
407.9266206171576
 30
0.0
 10
442.203355482478
 20
405.89007270651712
 30
0.0
 10
441.28652482815778
 20
404.32513987363421
 30
0.0
 10
439.73072710144697
 20
403.39289170190131
 30
0.0
 11
440.53333796813001
 21
403.87382344529709
 31
0.0
 11
439.69670095207357
 21
403.48203459070487
 31
0.0
 11
438.79201163727021
 21
403.26853151371984
 31
0.0
 11
437.69313001058867
 21
403.19678553384006
 31
0.0
 11
436.587023801155
 21
403.27174820523965
 31
0.0
 11
435.2704442267929
 21
403.50749883341382
 31
0.0
 11
433.97470846790503
 21
403.86003576139933
 31
0.0
 11
432.48167817166018
 21
404.39007225190244
 31
0.0
 11
431.02285691690997
 21
405.0145657107671
 31
0.0
 11
429.40109474798447
 21
405.8188689329246
 31
0.0
 11
427.81935118099187
 21
406.70191646242864
 31
0.0
 11
426.11853146265247
 21
407.7530882134273
 31
0.0
 11
424.46073210911231
 21
408.87205631467407
 31
0.0
 11
422.73217123403498
 21
410.13589230891961
 31
0.0
 11
421.0487677948459
 21
411.45982937861879
 31
0.0
 11
419.34415615356147
 21
412.89615115985396
 31
0.0
 11
417.68693098491258
 21
414.38711487317289
 31
0.0
 11
416.05693550560665
 21
415.95083558818988
 31
0.0
 11
414.47718600036444
 21
417.56530120808407
 31
0.0
 11
412.96992090322294
 21
419.20771406147435
 31
0.0
 11
411.51682687034361
 21
420.89805096235091
 31
0.0
 11
410.17632161015121
 21
422.56829111005129
 31
0.0
 11
408.89546831504146
 21
424.28428031619495
 31
0.0
 11
407.76017499852492
 21
425.93094281764428
 31
0.0
 11
406.69224966152046
 21
427.62129344369077
 31
0.0
 11
405.79361686760706
 21
429.19423487705387
 31
0.0
 11
404.97332913472781
 21
430.80797098962557
 31
0.0
 11
404.33445232077059
 21
432.26055074649332
 31
0.0
 11
403.78968986306268
 21
433.74827115417781
 31
0.0
 11
403.4243676661855
 21
435.04046043401411
 31
0.0
 11
403.17562012174955
 21
436.35464641531576
 31
0.0
 11
403.08973226114551
 21
437.45995796598902
 31
0.0
 11
403.15061727279476
 21
438.55949483687732
 31
0.0
 11
403.35517117311679
 21
439.46624950163732
 31
0.0
 11
403.73867453702064
 21
440.30671673662812
 31
0.0
 11
404.2598606709974
 21
440.98775282829547
 31
0.0
 11
404.93571395567534
 21
441.5156424777424
 31
0.0
 11
405.77235097173207
 21
441.90743133233423
 31
0.0
 11
406.6770402865352
 21
442.12093440931915
 31
0.0
 11
407.77592191321617
 21
442.19268038919893
 31
0.0
 11
408.88202812264956
 21
442.11771771779928
 31
0.0
 11
410.19860769701177
 21
441.88196708962499
 31
0.0
 11
411.49434345589981
 21
441.52943016163965
 31
0.0
 11
412.98737375214444
 21
440.99939367113677
 31
0.0
 11
414.44619500689407
 21
440.37490021227234
 31
0.0
 11
416.06795717581969
 21
439.57059699011461
 31
0.0
 11
417.64970074281302
 21
438.68754946061017
 31
0.0
 11
419.35052046115283
 21
437.63637770961111
 31
0.0
 11
421.0083198146927
 21
436.51740960836446
 31
0.0
 11
422.73688068976895
 21
435.25357361411938
 31
0.0
 11
424.42028412895752
 21
433.92963654442053
 31
0.0
 11
426.1248957702424
 21
432.49331476318497
 31
0.0
 11
427.78212093889238
 21
431.00235104986587
 31
0.0
 11
429.41211641819842
 21
429.43863033484922
 31
0.0
 11
430.99186592343972
 21
427.82416471495537
 31
0.0
 11
432.49913102058031
 21
426.1817518615652
 31
0.0
 11
433.95222505345998
 21
424.4914149606887
 31
0.0
 11
435.29273031365341
 21
422.82117481298781
 31
0.0
 11
436.57358360876367
 21
421.10518560684363
 31
0.0
 11
437.7088769252797
 21
419.4585231053947
 31
0.0
 11
438.77680226228375
 21
417.76817247934866
 31
0.0
 11
439.67543505619676
 21
416.19523104598568
 31
0.0
 11
440.4957227890759
 21
414.58149493341364
 31
0.0
 11
441.13459960303339
 21
413.12891517654572
 31
0.0
 11
441.67936206074171
 21
411.64119476886151
 31
0.0
 11
442.04468425761939
 21
410.34900548902561
 31
0.0
 11
442.29343180205575
 21
409.0348195077238
 31
0.0
 11
442.37931966265995
 21
407.92950795705008
 31
0.0
 11
442.31843465100997
 21
406.82997108616155
 31
0.0
 11
442.11388075068731
 21
405.92321642140172
 31
0.0
 11
441.73037738678352
 21
405.08274918641126
 31
0.0
 11
441.20301325197539
 21
404.39801118036183
 31
0.0
 11
440.50862596480238
 21
403.85901578776776
 31
0.0
 11
440.11967653312468
 21
403.62595374483453
 31
0.0
 11
440.50862596480238
 21
403.85901578776776
 31
0.0
 11
440.9037533973119
 21
404.09577974508329
 31
0.0
 11
440.53333796813001
 21
403.87382344529715
 31
0.0
  0
CIRCLE
  5
FB
100
AcDbEntity
  8
WANNE
  6
CONTINUOUS
 62
           7
100
AcDbCircle
 10
554.509928365944
 20
554.971681
 40
26.0
  0
CIRCLE
  5
FA
100
AcDbEntity
  8
WANNE
  6
CONTINUOUS
 62
           7
100
AcDbCircle
 10
554.509928365938
 20
554.971681
 40
45.0
  0
ARC
  5
F9
100
AcDbEntity
  8
1
  6
CONTINUOUS
 62
           7
100
AcDbCircle
 10
1652.393250365887
 20
1181.144028869601
 40
45.136471924528
100
AcDbArc
 50
-6.283672965303
 51
96.531478965319
  0
ARC
  5
F8
100
AcDbEntity
  8
1
  6
CONTINUOUS
 62
           7
100
AcDbCircle
 10
1147.012090112298
 20
1146.931710569822
 40
1146.931710633541
100
AcDbArc
 50
-90.000603951774
 51
-57.838796362795
  0
ARC
  5
F7
100
AcDbEntity
  8
1
  6
CONTINUOUS
 62
           7
100
AcDbCircle
 10
1147.000000736614
 20
1147.000000736614
 40
1147.000000736614
100
AcDbArc
 50
173.543061689323
 51
180.0
  0
ARC
  5
F6
100
AcDbEntity
  8
1
  6
CONTINUOUS
 62
           7
100
AcDbCircle
 10
1147.000000365899
 20
1147.000000000161
 40
1047.000000000161
100
AcDbArc
 50
-89.999999999998
 51
-59.198612010062
  0
ARC
  5
F5
100
AcDbEntity
  8
1
  6
CONTINUOUS
 62
           7
100
AcDbCircle
 10
1147.000000365941
 20
1146.999999999999
 40
1046.999999999999
100
AcDbArc
 50
178.333903750146
 51
-90.0
  0
ARC
  5
F4
100
AcDbEntity
  8
1
  6
CONTINUOUS
 62
           7
100
AcDbCircle
 10
-12790.928068907901
 20
1113.541555282546
 40
14488.322127805226
100
AcDbArc
 50
-3.169915907736
 51
0.247806011093
  0
ARC
  5
F3
100
AcDbEntity
  8
1
  6
CONTINUOUS
 62
           7
100
AcDbCircle
 10
1119.303714369987
 20
1024.04408915353
 40
920.963338300076
100
AcDbArc
 50
-102.687764306533
 51
-54.48159058829
  0
ARC
  5
F2
100
AcDbEntity
  8
1
  6
CONTINUOUS
 62
           7
100
AcDbCircle
 10
1302.511162365932
 20
950.987543
 40
200.0
100
AcDbArc
 50
-5.057362000001
 51
89.999999999998
  0
ARC
  5
F1
100
AcDbEntity
  8
1
  6
CONTINUOUS
 62
           7
100
AcDbCircle
 10
-2.855545124079
 20
1066.509327768939
 40
1510.468436773474
100
AcDbArc
 50
-29.352212194921
 51
-5.057362065992
  0
ARC
  5
F0
100
AcDbEntity
  8
1
  6
CONTINUOUS
 62
           7
100
AcDbCircle
 10
1069.648981365938
 20
463.362069999993
 40
279.999999999993
100
AcDbArc
 50
-96.455345
 51
-29.352212
  0
ARC
  5
EF
100
AcDbEntity
  8
1
  6
CONTINUOUS
 62
           7
100
AcDbCircle
 10
1147.000005222373
 20
1147.00000667074
 40
968.000007174456
100
AcDbArc
 50
-159.74086273925
 51
-96.455345241238
  0
ARC
  5
EE
100
AcDbEntity
  8
1
  6
CONTINUOUS
 62
           7
100
AcDbCircle
 10
426.511459892013
 20
881.067200821768
 40
200.000006098303
100
AcDbArc
 50
156.075035403174
 51
-159.740863377497
  0
ARC
  5
ED
100
AcDbEntity
  8
1
  6
CONTINUOUS
 62
           7
100
AcDbCircle
 10
780.004627640613
 20
724.236276338061
 40
586.721298709345
100
AcDbArc
 50
144.10208724069
 51
156.075034272348
  0
ARC
  5
EC
100
AcDbEntity
  8
1
  6
CONTINUOUS
 62
           7
100
AcDbCircle
 10
466.736011344433
 20
950.987543233834
 40
199.999999766166
100
AcDbArc
 50
89.999999993839
 51
144.102086606138
  0
ARC
  5
EB
100
AcDbEntity
  8
1
  6
CONTINUOUS
 62
           7
100
AcDbCircle
 10
1147.000000736614
 20
1147.000000736614
 40
1147.000000736614
100
AcDbArc
 50
180.0
 51
-90.000000018516
  0
LINE
  5
EA
100
AcDbEntity
  8
MITTELLINIEN
  6
DOT_CENTER
 62
           3
100
AcDbLine
 10
554.509928365938
 20
489.293661999999
 11
554.509928365938
 21
618.961635999998
  0
LINE
  5
E9
100
AcDbEntity
  8
MITTELLINIEN
  6
DOT_CENTER
 62
           3
100
AcDbLine
 10
620.187947365951
 20
554.971681
 11
490.51997336594
 21
554.971681
  0
LINE
  5
E8
100
AcDbEntity
  8
WANNE
  6
CONTINUOUS
 62
           7
100
AcDbLine
 10
1757.527482365938
 20
1275.987543
 11
1757.527482365938
 21
175.992317673353
  0
LINE
  5
E7
100
AcDbEntity
  8
WANNE
  6
CONTINUOUS
 62
           7
100
AcDbLine
 10
1757.527482365938
 20
1275.987543
 11
7.275816720743
 21
1275.987543
  0
LINE
  5
E6
100
AcDbEntity
  8
1
  6
CONTINUOUS
 62
           7
100
AcDbLine
 10
1657.527482365938
 20
1225.987543
 11
150.421492494725
 21
1225.987543
  0
LINE
  5
E5
100
AcDbEntity
  8
1
  6
CONTINUOUS
 62
           7
100
AcDbLine
 10
1707.527482365938
 20
1175.987543
 11
1707.527482365938
 21
290.629350034259
  0
LINE
  5
E4
100
AcDbEntity
  8
1
  6
CONTINUOUS
 62
           7
100
AcDbLine
 10
1302.511162365938
 20
1150.987543
 11
466.736011365938
 21
1150.987543
  0
ENDBLK
  5
101
100
AcDbEntity
  8
0
100
AcDbBlockEnd
  0
ENDSEC
  0
SECTION
  2
ENTITIES
  0
TEXT
  5
105
100
AcDbEntity
  8
1
 62
           3
100
AcDbText
 10
604.509928365938
 20
604.971681
 40
35.0
  1
ø 52
 41
0.71262
  7
CONVERTER_1
100
AcDbText
  0
MTEXT
  5
104
100
AcDbEntity
  8
1
 62
           2
100
AcDbMText
 10
1382.527482365937
 20
935.987543000001
 30
0.0
 40
35.0
 41
0.0
 71
           9
 72
           1
  1
Prime-line 250
  7
CONVERTER_1
  0
INSERT
  5
2D
100
AcDbEntity
  8
0
100
AcDbBlockReference
  2
DLX
 10
0.0
 20
0.0
  0
INSERT
  5
2E
100
AcDbEntity
  8
0
100
AcDbBlockReference
  2
WANNE_PRIME_LINE_250
 10
0.0
 20
0.0
  0
ENDSEC
  0
SECTION
  2
OBJECTS
  0
DICTIONARY
  5
19
100
AcDbDictionary
  3
ACAD_GROUP
350
1A
  3
ACAD_MLINESTYLE
350
1B
  0
DICTIONARY
  5
1A
102
{ACAD_REACTORS
330
19
102
}
100
AcDbDictionary
  0
DICTIONARY
  5
1B
102
{ACAD_REACTORS
330
19
102
}
100
AcDbDictionary
  3
STANDARD
350
1C
  0
MLINESTYLE
  5
1C
102
{ACAD_REACTORS
330
1B
102
}
100
AcDbMlineStyle
  2
STANDARD
 70
           0
  3

 62
           0
 51
90.0
 52
90.0
 71
           2
 49
0.5
 62
         256
  6
BYLAYER
 49
-0.5
 62
         256
  6
BYLAYER
  0
ENDSEC
  0
EOF
