  0
SECTION
  2
HEADER
  9
$ACADVER
  1
AC1014
  9
$ACADMAINTVER
 70
           0
  9
$DWGCODEPAGE
  3
ANSI_1252
  9
$INSBASE
 10
0.0
 20
0.0
 30
0.0
  9
$EXTMIN
 10
1.000000000000E+20
 20
1.000000000000E+20
 30
1.000000000000E+20
  9
$EXTMAX
 10
-1.000000000000E+20
 20
-1.000000000000E+20
 30
-1.000000000000E+20
  9
$LIMMIN
 10
0.0
 20
0.0
  9
$LIMMAX
 10
0.0
 20
0.0
  9
$ORTHOMODE
 70
           0
  9
$REGENMODE
 70
           1
  9
$FILLMODE
 70
           1
  9
$QTEXTMODE
 70
           0
  9
$MIRRTEXT
 70
           1
  9
$DRAGMODE
 70
           2
  9
$LTSCALE
 40
1.0
  9
$OSMODE
 70
           0
  9
$ATTMODE
 70
           1
  9
$TEXTSIZE
 40
0.2
  9
$TRACEWID
 40
0.05
  9
$TEXTSTYLE
  7
STANDARD
  9
$CLAYER
  8
0
  9
$CELTYPE
  6
CONTINUOUS
  9
$CECOLOR
 62
         256
  9
$CELTSCALE
 40
1.0
  9
$DELOBJ
 70
           1
  9
$DISPSILH
 70
           0
  9
$DIMSCALE
 40
1.0
  9
$DIMASZ
 40
0.18
  9
$DIMEXO
 40
0.0625
  9
$DIMDLI
 40
0.38
  9
$DIMRND
 40
0.0
  9
$DIMDLE
 40
0.0
  9
$DIMEXE
 40
0.18
  9
$DIMTP
 40
0.0
  9
$DIMTM
 40
0.0
  9
$DIMTXT
 40
0.18
  9
$DIMCEN
 40
0.09
  9
$DIMTSZ
 40
0.0
  9
$DIMTOL
 70
           0
  9
$DIMLIM
 70
           0
  9
$DIMTIH
 70
           1
  9
$DIMTOH
 70
           1
  9
$DIMSE1
 70
           0
  9
$DIMSE2
 70
           0
  9
$DIMTAD
 70
           0
  9
$DIMZIN
 70
           0
  9
$DIMBLK
  1

  9
$DIMASO
 70
           1
  9
$DIMSHO
 70
           1
  9
$DIMPOST
  1

  9
$DIMAPOST
  1

  9
$DIMALT
 70
           0
  9
$DIMALTD
 70
           2
  9
$DIMALTF
 40
25.4
  9
$DIMLFAC
 40
1.0
  9
$DIMTOFL
 70
           0
  9
$DIMTVP
 40
0.0
  9
$DIMTIX
 70
           0
  9
$DIMSOXD
 70
           0
  9
$DIMSAH
 70
           0
  9
$DIMBLK1
  1

  9
$DIMBLK2
  1

  9
$DIMSTYLE
  2
STANDARD
  9
$DIMCLRD
 70
           0
  9
$DIMCLRE
 70
           0
  9
$DIMCLRT
 70
           0
  9
$DIMTFAC
 40
1.0
  9
$DIMGAP
 40
0.09
  9
$DIMJUST
 70
           0
  9
$DIMSD1
 70
           0
  9
$DIMSD2
 70
           0
  9
$DIMTOLJ
 70
           1
  9
$DIMTZIN
 70
           0
  9
$DIMALTZ
 70
           0
  9
$DIMALTTZ
 70
           0
  9
$DIMFIT
 70
           3
  9
$DIMUPT
 70
           0
  9
$DIMUNIT
 70
           2
  9
$DIMDEC
 70
           4
  9
$DIMTDEC
 70
           4
  9
$DIMALTU
 70
           2
  9
$DIMALTTD
 70
           2
  9
$DIMTXSTY
  7
STANDARD
  9
$DIMAUNIT
 70
           0
  9
$LUNITS
 70
           2
  9
$LUPREC
 70
           4
  9
$SKETCHINC
 40
0.1
  9
$FILLETRAD
 40
0.0
  9
$AUNITS
 70
           0
  9
$AUPREC
 70
           0
  9
$MENU
  1
acad
  9
$ELEVATION
 40
0.0
  9
$PELEVATION
 40
0.0
  9
$THICKNESS
 40
0.0
  9
$LIMCHECK
 70
           0
  9
$BLIPMODE
 70
           1
  9
$CHAMFERA
 40
0.0
  9
$CHAMFERB
 40
0.0
  9
$CHAMFERC
 40
0.0
  9
$CHAMFERD
 40
0.0
  9
$SKPOLY
 70
           0
  9
$TDCREATE
 40
0.000000000
  9
$TDUPDATE
 40
0.000000000
  9
$TDINDWG
 40
0.0000000000
  9
$TDUSRTIMER
 40
0.0000000000
  9
$USRTIMER
 70
           1
  9
$ANGBASE
 50
0.0
  9
$ANGDIR
 70
           0
  9
$PDMODE
 70
           0
  9
$PDSIZE
 40
0.0
  9
$PLINEWID
 40
0.0
  9
$COORDS
 70
           0
  9
$SPLFRAME
 70
           0
  9
$SPLINETYPE
 70
           6
  9
$SPLINESEGS
 70
           8
  9
$ATTDIA
 70
           0
  9
$ATTREQ
 70
           1
  9
$HANDLING
 70
           1
  9
$HANDSEED
  5
106
  9
$SURFTAB1
 70
           6
  9
$SURFTAB2
 70
           6
  9
$SURFTYPE
 70
           6
  9
$SURFU
 70
           6
  9
$SURFV
 70
           6
  9
$UCSNAME
  2

  9
$UCSORG
 10
0.0
 20
0.0
 30
0.0
  9
$UCSXDIR
 10
1.0
 20
0.0
 30
0.0
  9
$UCSYDIR
 10
0.0
 20
1.0
 30
0.0
  9
$PUCSNAME
  2

  9
$PUCSORG
 10
0.0
 20
0.0
 30
0.0
  9
$PUCSXDIR
 10
1.0
 20
0.0
 30
0.0
  9
$PUCSYDIR
 10
0.0
 20
1.0
 30
0.0
  9
$USERI1
 70
           0
  9
$USERI2
 70
           0
  9
$USERI3
 70
           0
  9
$USERI4
 70
           0
  9
$USERI5
 70
           0
  9
$USERR1
 40
0.0
  9
$USERR2
 40
0.0
  9
$USERR3
 40
0.0
  9
$USERR4
 40
0.0
  9
$USERR5
 40
0.0
  9
$WORLDVIEW
 70
           1
  9
$SHADEDGE
 70
           3
  9
$SHADEDIF
 70
          70
  9
$TILEMODE
 70
           1
  9
$MAXACTVP
 70
          16
  9
$PINSBASE
 10
0.0
 20
0.0
 30
0.0
  9
$PLIMCHECK
 70
           0
  9
$PEXTMIN
 10
1.000000000000E+20
 20
1.000000000000E+20
 30
1.000000000000E+20
  9
$PEXTMAX
 10
-1.000000000000E+20
 20
-1.000000000000E+20
 30
-1.000000000000E+20
  9
$PLIMMIN
 10
0.0
 20
0.0
  9
$PLIMMAX
 10
12.0
 20
9.0
  9
$UNITMODE
 70
           0
  9
$VISRETAIN
 70
           0
  9
$PLINEGEN
 70
           1
  9
$PSLTSCALE
 70
           0
  9
$TREEDEPTH
 70
        3020
  9
$PICKSTYLE
 70
           1
  9
$CMLSTYLE
  2
STANDARD
  9
$CMLJUST
 70
           0
  9
$CMLSCALE
 40
1.0
  9
$PROXYGRAPHICS
 70
           0
  9
$MEASUREMENT
 70
           0
  0
ENDSEC
  0
SECTION
  2
CLASSES
  0
CLASS
  1
LWPOLYLINE
  2
AcDbPolyline
  3
"AutoCAD"
 90
        0
280
           0
281
           1
  0
CLASS
  1
IMAGE
  2
AcDbRasterImage
  3
ISM
 90
      127
280
           0
281
           1
  0
CLASS
  1
OLE2FRAME
  2
AcDbOle2Frame
  3
""
 90
        0
280
           0
281
           1
  0
CLASS
  1
HATCH
  2
AcDbHatch
  3
"ACAD_SEDONA"
 90
        0
280
           0
281
           1
  0
CLASS
  1
DICTIONARYVAR
  2
AcDbDictionaryVar
  3
"AutoCAD"
 90
        0
280
           0
281
           0
  0
CLASS
  1
RASTERVARIABLES
  2
AcDbRasterVariables
  3
ISM
 90
        0
280
           0
281
           0
  0
CLASS
  1
IMAGEDEF
  2
AcDbRasterImageDef
  3
ISM
 90
        0
280
           0
281
           0
  0
CLASS
  1
IMAGEDEF_REACTOR
  2
AcDbRasterImageDefReactor
  3
ISM
 90
        1
280
           0
281
           0
  0
CLASS
  1
IDBUFFER
  2
AcDbIdBuffer
  3
"Acad"
 90
        0
280
           0
281
           0
  0
CLASS
  1
SPATIAL_FILTER
  2
AcDbSpatialFilter
  3
"Acad"
 90
        0
280
           0
281
           0
  0
CLASS
  1
XRECORD
  2
AcDbXrecord
  3
"<Built In>"
 90
        0
280
           0
281
           0
  0
CLASS
  1
SORTENTSTABLE
  2
AcDbSortentsTable
  3
"AutoCAD"
 90
        0
280
           0
281
           0
  0
CLASS
  1
LAYER_INDEX
  2
AcDbLayerIndex
  3
"Acad"
 90
        0
280
           0
281
           0
  0
CLASS
  1
SPATIAL_INDEX
  2
AcDbSpatialIndex
  3
"Acad"
 90
        0
280
           0
281
           0
  0
CLASS
  1
OBJECT_PTR
  2
CAseDLPNTableRecord
  3
"ASE-LPNTableRecord"
 90
        1
280
           0
281
           0
  0
CLASS
  1
LAYOUT
  2
AcDbLayout
  3
"AutoCAD 2000"
 90
        1
280
           0
281
           0
  0
CLASS
  1
PLOTSETTINGS
  2
AcDbPlotSettings
  3
"AutoCAD 2000"
 90
        1
280
           0
281
           0
  0
CLASS
  1
ACDBDICTIONARYWDFLT
  2
AcDbDictionaryWithDefault
  3
"AutoCAD 2000"
 90
        1
280
           0
281
           0
  0
CLASS
  1
ACDBPLACEHOLDER
  2
AcDbPlaceHolder
  3
"AutoCAD 2000"
 90
        1
280
           0
281
           0
  0
CLASS
  1
VBA_PROJECT
  2
AcDbVbaProject
  3
"acadvba"
 90
        1
280
           0
281
           0
  0
CLASS
  1
WIPEOUT
  2
AcDbWipeout
  3
WipeOut|AutoCAD Express Tool|expresstools@autodesk.com
 90
      127
280
           0
281
           1
  0
CLASS
  1
WIPEOUTVARIABLES
  2
AcDbWipeoutVariables
  3
WipeOut|AutoCAD Express Tool|expresstools@autodesk.com
 90
        0
280
           0
281
           0
  0
CLASS
  1
RTEXT
  2
RText
  3
RText|AutoCAD Express Tool|expresstools@autodesk.com
 90
        0
280
           0
281
           1
  0
CLASS
  1
ARCALIGNEDTEXT
  2
AcDbArcAlignedText
  3
ATEXT|AutoCAD Express Tool|expresstools@autodesk.com
 90
        0
280
           0
281
           1
  0
ENDSEC
  0
SECTION
  2
TABLES
  0
TABLE
  2
VPORT
  5
7
100
AcDbSymbolTable
 70
           1
  0
VPORT
  5
15
100
AcDbSymbolTableRecord
100
AcDbViewportTableRecord
  2
*ACTIVE
 70
           0
 10
0.0
 20
0.0
 11
1.0
 21
1.0
 12
6.591288
 22
4.579184
 13
0.0
 23
0.0
 14
1.0
 24
1.0
 15
0.0
 25
0.0
 16
0.0
 26
0.0
 36
1.0
 17
0.0
 27
0.0
 37
0.0
 40
9.158369
 41
0.688564
 42
50.0
 43
0.0
 44
0.0
 50
0.0
 51
0.0
 71
           0
 72
         100
 73
           1
 74
           1
 75
           0
 76
           0
 77
           0
 78
           0
  0
ENDTAB
  0
TABLE
  2
LTYPE
  5
4
100
AcDbSymbolTable
 70
          10
  0
LTYPE
  5
11
100
AcDbSymbolTableRecord
100
AcDbLinetypeTableRecord
  2
BYBLOCK
 70
          64
  3

 72
          65
 73
           0
 40
0.0
  0
LTYPE
  5
12
100
AcDbSymbolTableRecord
100
AcDbLinetypeTableRecord
  2
BYLAYER
 70
          64
  3

 72
          65
 73
           0
 40
0.0
  0
LTYPE
  5
13
100
AcDbSymbolTableRecord
100
AcDbLinetypeTableRecord
  2
CONTINUOUS
 70
          64
  3
Solid line
 72
          65
 73
           0
 40
0.0
  0
LTYPE
  5
1D
100
AcDbSymbolTableRecord
100
AcDbLinetypeTableRecord
  2
DASHED
 70
          64
  3
Dashed
 72
          65
 73
           2
 40
15.0
 49
12.0
 74
           0
 49
-3.0
 74
           0
  0
LTYPE
  5
1E
100
AcDbSymbolTableRecord
100
AcDbLinetypeTableRecord
  2
DOTTED
 70
          64
  3
Dotted
 72
          65
 73
           2
 40
3.5
 49
0.5
 74
           0
 49
-3.0
 74
           0
  0
LTYPE
  5
1F
100
AcDbSymbolTableRecord
100
AcDbLinetypeTableRecord
  2
DOT_CENTER
 70
          64
  3
Dot_Center
 72
          65
 73
           4
 40
2.0
 49
1.25
 74
           0
 49
-0.25
 74
           0
 49
0.25
 74
           0
 49
-0.25
 74
           0
  0
LTYPE
  5
20
100
AcDbSymbolTableRecord
100
AcDbLinetypeTableRecord
  2
LONG_DASHED
 70
          64
  3
Long_Dashed
 72
          65
 73
           2
 40
2.0
 49
1.5
 74
           0
 49
-0.5
 74
           0
  0
LTYPE
  5
21
100
AcDbSymbolTableRecord
100
AcDbLinetypeTableRecord
  2
DASH_CENTER
 70
          64
  3
Dash_Center
 72
          65
 73
           4
 40
36.0
 49
24.0
 74
           0
 49
-3.0
 74
           0
 49
6.0
 74
           0
 49
-3.0
 74
           0
  0
LTYPE
  5
22
100
AcDbSymbolTableRecord
100
AcDbLinetypeTableRecord
  2
PHANTOM
 70
          64
  3
Phantom
 72
          65
 73
           6
 40
2.5
 49
1.25
 74
           0
 49
-0.25
 74
           0
 49
0.25
 74
           0
 49
-0.25
 74
           0
 49
0.25
 74
           0
 49
-0.25
 74
           0
  0
LTYPE
  5
23
100
AcDbSymbolTableRecord
100
AcDbLinetypeTableRecord
  2
CENTER_DASH_DASH
 70
          64
  3
Center_Dash_Dash
 72
          65
 73
           6
 40
22.0
 49
12.0
 74
           0
 49
-3.0
 74
           0
 49
0.5
 74
           0
 49
-3.0
 74
           0
 49
0.5
 74
           0
 49
-3.0
 74
           0
  0
ENDTAB
  0
TABLE
  2
LAYER
  5
2
100
AcDbSymbolTable
 70
           4
  0
LAYER
  5
14
100
AcDbSymbolTableRecord
100
AcDbLayerTableRecord
  2
0
 70
           0
 62
           7
  6
CONTINUOUS
  0
LAYER
  5
24
100
AcDbSymbolTableRecord
100
AcDbLayerTableRecord
  2
MITTELLINIEN
 70
           0
 62
           7
  6
CONTINUOUS
  0
LAYER
  5
25
100
AcDbSymbolTableRecord
100
AcDbLayerTableRecord
  2
1
 70
           0
 62
           7
  6
CONTINUOUS
  0
LAYER
  5
26
100
AcDbSymbolTableRecord
100
AcDbLayerTableRecord
  2
WANNE
 70
           0
 62
           7
  6
CONTINUOUS
  0
ENDTAB
  0
TABLE
  2
STYLE
  5
3
100
AcDbSymbolTable
 70
           2
  0
STYLE
  5
17
100
AcDbSymbolTableRecord
100
AcDbTextStyleTableRecord
  2
STANDARD
 70
           0
 40
0.0
 41
1.0
 50
0.0
 71
           0
 42
0.0
  3
txt
  4

  0
STYLE
  5
102
100
AcDbSymbolTableRecord
100
AcDbTextStyleTableRecord
  2
CONVERTER_1
 70
           0
 40
0.0
 41
0.71262
 50
0.0
 71
           0
 42
0.0
  3
txt.shx
  4

  0
ENDTAB
  0
TABLE
  2
VIEW
  5
5
100
AcDbSymbolTable
 70
           0
  0
ENDTAB
  0
TABLE
  2
UCS
  5
6
100
AcDbSymbolTable
 70
           0
  0
ENDTAB
  0
TABLE
  2
APPID
  5
8
100
AcDbSymbolTable
 70
           1
  0
APPID
  5
16
100
AcDbSymbolTableRecord
100
AcDbRegAppTableRecord
  2
ACAD
 70
           0
  0
ENDTAB
  0
TABLE
  2
DIMSTYLE
  5
9
100
AcDbSymbolTable
 70
           1
  0
DIMSTYLE
105
18
100
AcDbSymbolTableRecord
100
AcDbDimStyleTableRecord
  2
STANDARD
 70
           0
  3

  4

  5

  6

  7

 40
1.0
 41
0.18
 42
0.0625
 43
0.38
 44
0.18
 45
0.0
 46
0.0
 47
0.0
 48
0.0
 71
           0
 72
           0
 73
           1
 74
           1
 75
           0
 76
           0
 77
           0
 78
           0
140
0.18
141
0.09
142
0.0
143
25.4
144
1.0
145
0.0
146
1.0
147
0.09
170
           0
171
           2
172
           0
173
           0
174
           0
175
           0
176
           0
177
           0
178
           0
270
           2
271
           4
272
           4
273
           2
274
           2
275
           0
280
           0
281
           0
282
           0
283
           1
284
           0
285
           0
286
           0
287
           0
288
           0
340
17
  0
ENDTAB
  0
TABLE
  2
BLOCK_RECORD
  5
1
100
AcDbSymbolTable
 70
           2
  0
BLOCK_RECORD
  5
A
100
AcDbSymbolTableRecord
100
AcDbBlockTableRecord
  2
*MODEL_SPACE
  0
BLOCK_RECORD
  5
B
100
AcDbSymbolTableRecord
100
AcDbBlockTableRecord
  2
*PAPER_SPACE
  0
BLOCK_RECORD
  5
27
100
AcDbSymbolTableRecord
100
AcDbBlockTableRecord
  2
DLX
  0
BLOCK_RECORD
  5
29
100
AcDbSymbolTableRecord
100
AcDbBlockTableRecord
  2
WANNE_PRIME_LINE_251
  0
ENDTAB
  0
ENDSEC
  0
SECTION
  2
BLOCKS
  0
BLOCK
  5
D
100
AcDbEntity
  8
0
100
AcDbBlockBegin
  2
*MODEL_SPACE
 70
           0
 10
0.0
 20
0.0
 30
0.0
  3
*MODEL_SPACE
  1

  0
ENDBLK
  5
E
100
AcDbEntity
  8
0
100
AcDbBlockEnd
  0
BLOCK
  5
F
100
AcDbEntity
 67
           1
  8
0
100
AcDbBlockBegin
  2
*PAPER_SPACE
 70
           0
 10
0.0
 20
0.0
 30
0.0
  3
*PAPER_SPACE
  1

  0
ENDBLK
  5
10
100
AcDbEntity
 67
           1
  8
0
100
AcDbBlockEnd
  0
BLOCK
  5
28
100
AcDbEntity
  8
0
100
AcDbBlockBegin
  2
DLX
 70
           0
 10
0.0
 20
0.0
 30
0.0
  3
DLX
  1

  0
CIRCLE
  5
E2
100
AcDbEntity
  8
1
  6
CONTINUOUS
 62
           3
100
AcDbCircle
 10
496.242563238037
 20
815.878787878754
 40
5.530127989697
  0
CIRCLE
  5
E1
100
AcDbEntity
  8
1
  6
CONTINUOUS
 62
           3
100
AcDbCircle
 10
496.242563238037
 20
815.878787878754
 40
5.972862778755
  0
ARC
  5
E0
100
AcDbEntity
  8
1
  6
CONTINUOUS
 62
           3
100
AcDbCircle
 10
497.021274791696
 20
814.362233682225
 40
1.391870091328
100
AcDbArc
 50
-1.298612665717
 51
66.544866494047
  0
ARC
  5
DF
100
AcDbEntity
  8
1
  6
CONTINUOUS
 62
           3
100
AcDbCircle
 10
496.295881605206
 20
814.053039389821
 40
1.155889798231
100
AcDbArc
 50
0.985058170485
 51
82.91825463294
  0
ARC
  5
DE
100
AcDbEntity
  8
1
  6
CONTINUOUS
 62
           3
100
AcDbCircle
 10
496.371064243402
 20
817.264025930551
 40
1.257687287768
100
AcDbArc
 50
-74.800419047062
 51
80.931395238779
  0
ARC
  5
DD
100
AcDbEntity
  8
1
  6
CONTINUOUS
 62
           3
100
AcDbCircle
 10
496.449382069416
 20
817.303919921381
 40
2.009798008862
100
AcDbArc
 50
-55.92998846456
 51
86.297888718245
  0
LINE
  5
DC
100
AcDbEntity
  8
1
  6
CONTINUOUS
 62
           3
100
AcDbLine
 10
494.713324135799
 20
818.505992531278
 11
494.713324135799
 21
816.050334541275
  0
LINE
  5
DB
100
AcDbEntity
  8
1
  6
CONTINUOUS
 62
           3
100
AcDbLine
 10
496.569297127885
 20
818.505992531278
 11
494.713324135799
 21
818.505992531278
  0
LINE
  5
DA
100
AcDbEntity
  8
1
  6
CONTINUOUS
 62
           3
100
AcDbLine
 10
494.713324135799
 20
816.050334541275
 11
496.700807363741
 21
816.050334541275
  0
LINE
  5
D9
100
AcDbEntity
  8
1
  6
CONTINUOUS
 62
           3
100
AcDbLine
 10
494.713324135799
 20
812.451055788281
 11
493.840876436684
 21
812.451055788281
  0
LINE
  5
D8
100
AcDbEntity
  8
1
  6
CONTINUOUS
 62
           3
100
AcDbLine
 10
496.438385837417
 20
815.200111213841
 11
494.713324135799
 21
815.200111213841
  0
LINE
  5
D7
100
AcDbEntity
  8
1
  6
CONTINUOUS
 62
           3
100
AcDbLine
 10
497.451600577337
 20
812.451055788281
 11
497.451600577337
 21
814.072911055899
  0
LINE
  5
D6
100
AcDbEntity
  8
1
  6
CONTINUOUS
 62
           3
100
AcDbLine
 10
498.412787392842
 20
812.451055788281
 11
497.451600577337
 21
812.451055788281
  0
LINE
  5
D5
100
AcDbEntity
  8
1
  6
CONTINUOUS
 62
           3
100
AcDbLine
 10
498.412787392842
 20
814.330689554625
 11
498.412787392842
 21
812.451055788281
  0
LINE
  5
D4
100
AcDbEntity
  8
1
  6
CONTINUOUS
 62
           3
100
AcDbLine
 10
496.282796295924
 20
819.309523963456
 11
496.579152878276
 21
819.309523963456
  0
LINE
  5
D3
100
AcDbEntity
  8
1
  6
CONTINUOUS
 62
           3
100
AcDbLine
 10
493.840876436684
 20
819.309523963456
 11
496.282796295924
 21
819.309523963456
  0
LINE
  5
D2
100
AcDbEntity
  8
1
  6
CONTINUOUS
 62
           3
100
AcDbLine
 10
493.840876436684
 20
812.451055788281
 11
493.840876436684
 21
819.309523963456
  0
LINE
  5
D1
100
AcDbEntity
  8
1
  6
CONTINUOUS
 62
           3
100
AcDbLine
 10
494.713324135799
 20
815.200111213841
 11
494.713324135799
 21
812.451055788281
  0
LINE
  5
D0
100
AcDbEntity
  8
1
  6
CONTINUOUS
 62
           3
100
AcDbLine
 10
450.19208884913
 20
821.38450847832
 11
448.098011771516
 21
821.38450847832
  0
LINE
  5
CF
100
AcDbEntity
  8
1
  6
CONTINUOUS
 62
           3
100
AcDbLine
 10
447.482153701167
 20
810.323902417793
 11
450.19208884913
 21
821.38450847832
  0
LINE
  5
CE
100
AcDbEntity
  8
1
  6
CONTINUOUS
 62
           3
100
AcDbLine
 10
457.952539089187
 20
810.323902417793
 11
447.482153701167
 21
810.323902417793
  0
LINE
  5
CD
100
AcDbEntity
  8
1
  6
CONTINUOUS
 62
           3
100
AcDbLine
 10
457.410552059526
 20
808.111781205662
 11
457.952539089187
 21
810.323902417793
  0
LINE
  5
CC
100
AcDbEntity
  8
1
  6
CONTINUOUS
 62
           3
100
AcDbLine
 10
444.846089593948
 20
808.111781205662
 11
457.410552059526
 21
808.111781205662
  0
LINE
  5
CB
100
AcDbEntity
  8
1
  6
CONTINUOUS
 62
           3
100
AcDbLine
 10
448.098011771516
 20
821.38450847832
 11
444.846089593948
 21
808.111781205662
  0
LINE
  5
CA
100
AcDbEntity
  8
1
  6
CONTINUOUS
 62
           3
100
AcDbLine
 10
434.651341716658
 20
812.536023629844
 11
438.407056856024
 21
819.172387266269
  0
LINE
  5
C9
100
AcDbEntity
  8
1
  6
CONTINUOUS
 62
           3
100
AcDbLine
 10
439.463860001314
 20
819.172387266269
 11
438.407056856024
 21
819.172387266269
  0
LINE
  5
C8
100
AcDbEntity
  8
1
  6
CONTINUOUS
 62
           3
100
AcDbLine
 10
439.967652963169
 20
812.536023629844
 11
439.463860001314
 21
819.172387266269
  0
LINE
  5
C7
100
AcDbEntity
  8
1
  6
CONTINUOUS
 62
           3
100
AcDbLine
 10
434.651341716658
 20
812.536023629844
 11
439.967652963169
 21
812.536023629844
  0
LINE
  5
C6
100
AcDbEntity
  8
1
  6
CONTINUOUS
 62
           3
100
AcDbLine
 10
432.147531623764
 20
808.111781205662
 11
429.768734635193
 21
808.111781205662
  0
LINE
  5
C5
100
AcDbEntity
  8
1
  6
CONTINUOUS
 62
           3
100
AcDbLine
 10
433.399436670127
 20
810.323902417793
 11
432.147531623764
 21
808.111781205662
  0
LINE
  5
C4
100
AcDbEntity
  8
1
  6
CONTINUOUS
 62
           3
100
AcDbLine
 10
440.135583950491
 20
810.323902417793
 11
433.399436670127
 21
810.323902417793
  0
LINE
  5
C3
100
AcDbEntity
  8
1
  6
CONTINUOUS
 62
           3
100
AcDbLine
 10
440.303514937758
 20
808.111781205662
 11
440.135583950491
 21
810.323902417793
  0
LINE
  5
C2
100
AcDbEntity
  8
1
  6
CONTINUOUS
 62
           3
100
AcDbLine
 10
442.333197100827
 20
808.111781205662
 11
440.303514937758
 21
808.111781205662
  0
LINE
  5
C1
100
AcDbEntity
  8
1
  6
CONTINUOUS
 62
           3
100
AcDbLine
 10
441.325611177065
 20
821.38450847832
 11
442.333197100827
 21
808.111781205662
  0
LINE
  5
C0
100
AcDbEntity
  8
1
  6
CONTINUOUS
 62
           3
100
AcDbLine
 10
437.28016491409
 20
821.38450847832
 11
441.325611177065
 21
821.38450847832
  0
LINE
  5
BF
100
AcDbEntity
  8
1
  6
CONTINUOUS
 62
           3
100
AcDbLine
 10
429.768734635193
 20
808.111781205662
 11
437.28016491409
 21
821.38450847832
  0
LINE
  5
BE
100
AcDbEntity
  8
1
  6
CONTINUOUS
 62
           3
100
AcDbLine
 10
416.78545675416
 20
808.111781205662
 11
414.691379676599
 21
808.111781205662
  0
LINE
  5
BD
100
AcDbEntity
  8
1
  6
CONTINUOUS
 62
           3
100
AcDbLine
 10
419.591459051088
 20
819.564485538597
 11
416.78545675416
 21
808.111781205662
  0
LINE
  5
BC
100
AcDbEntity
  8
1
  6
CONTINUOUS
 62
           3
100
AcDbLine
 10
420.232007317599
 20
817.905394629534
 11
419.591459051088
 21
819.564485538597
  0
LINE
  5
BB
100
AcDbEntity
  8
1
  6
CONTINUOUS
 62
           3
100
AcDbLine
 10
424.013163653308
 20
808.111781205662
 11
420.232007317599
 21
817.905394629534
  0
LINE
  5
BA
100
AcDbEntity
  8
1
  6
CONTINUOUS
 62
           3
100
AcDbLine
 10
427.255842142077
 20
808.111781205662
 11
424.013163653308
 21
808.111781205662
  0
LINE
  5
B9
100
AcDbEntity
  8
1
  6
CONTINUOUS
 62
           3
100
AcDbLine
 10
430.507764319697
 20
821.38450847832
 11
427.255842142077
 21
808.111781205662
  0
LINE
  5
B8
100
AcDbEntity
  8
1
  6
CONTINUOUS
 62
           3
100
AcDbLine
 10
428.413687242083
 20
821.38450847832
 11
430.507764319697
 21
821.38450847832
  0
LINE
  5
B7
100
AcDbEntity
  8
1
  6
CONTINUOUS
 62
           3
100
AcDbLine
 10
425.56825533673
 20
809.770872114745
 11
428.413687242083
 21
821.38450847832
  0
LINE
  5
B6
100
AcDbEntity
  8
1
  6
CONTINUOUS
 62
           3
100
AcDbLine
 10
421.084417470455
 20
821.38450847832
 11
425.56825533673
 21
809.770872114745
  0
LINE
  5
B5
100
AcDbEntity
  8
1
  6
CONTINUOUS
 62
           3
100
AcDbLine
 10
417.943301854115
 20
821.38450847832
 11
421.084417470455
 21
821.38450847832
  0
LINE
  5
B4
100
AcDbEntity
  8
1
  6
CONTINUOUS
 62
           3
100
AcDbLine
 10
414.691379676599
 20
808.111781205662
 11
417.943301854115
 21
821.38450847832
  0
LINE
  5
B3
100
AcDbEntity
  8
1
  6
CONTINUOUS
 62
           3
100
AcDbLine
 10
415.430409360999
 20
821.38450847832
 11
413.336332283435
 21
821.38450847832
  0
LINE
  5
B2
100
AcDbEntity
  8
1
  6
CONTINUOUS
 62
           3
100
AcDbLine
 10
413.336332283435
 20
821.38450847832
 11
410.084410105869
 21
808.111781205662
  0
LINE
  5
B1
100
AcDbEntity
  8
1
  6
CONTINUOUS
 62
           3
100
AcDbLine
 10
412.178487183429
 20
808.111781205662
 11
415.430409360999
 21
821.38450847832
  0
LINE
  5
B0
100
AcDbEntity
  8
1
  6
CONTINUOUS
 62
           3
100
AcDbLine
 10
410.084410105869
 20
808.111781205662
 11
412.178487183429
 21
808.111781205662
  0
LINE
  5
AF
100
AcDbEntity
  8
1
  6
CONTINUOUS
 62
           3
100
AcDbLine
 10
407.591189950622
 20
816.739053932891
 11
409.685267028148
 21
816.739053932891
  0
LINE
  5
AE
100
AcDbEntity
  8
1
  6
CONTINUOUS
 62
           3
100
AcDbLine
 10
406.561414594473
 20
812.536023629844
 11
406.019427564705
 21
810.323902417793
  0
LINE
  5
AD
100
AcDbEntity
  8
1
  6
CONTINUOUS
 62
           3
100
AcDbLine
 10
402.373260439072
 20
812.536023629844
 11
406.561414594473
 21
812.536023629844
  0
LINE
  5
AC
100
AcDbEntity
  8
1
  6
CONTINUOUS
 62
           3
100
AcDbLine
 10
402.915247468719
 20
814.748144842033
 11
402.373260439072
 21
812.536023629844
  0
LINE
  5
AB
100
AcDbEntity
  8
1
  6
CONTINUOUS
 62
           3
100
AcDbLine
 10
409.197478701525
 20
814.748144842033
 11
407.571517612753
 21
808.111781205662
  0
LINE
  5
AA
100
AcDbEntity
  8
1
  6
CONTINUOUS
 62
           3
100
AcDbLine
 10
409.197478701525
 20
814.748144842033
 11
402.915247468719
 21
814.748144842033
  0
LINE
  5
A9
100
AcDbEntity
  8
1
  6
CONTINUOUS
 62
           3
100
AcDbLine
 10
397.643119254376
 20
810.323902417793
 11
399.811067372703
 21
819.172387266269
  0
LINE
  5
A8
100
AcDbEntity
  8
1
  6
CONTINUOUS
 62
           3
100
AcDbLine
 10
399.811067372703
 20
819.172387266269
 11
408.187375683
 21
819.172387266269
  0
LINE
  5
A7
100
AcDbEntity
  8
1
  6
CONTINUOUS
 62
           3
100
AcDbLine
 10
408.187375683
 20
819.172387266269
 11
407.591189950622
 21
816.739053932891
  0
LINE
  5
A6
100
AcDbEntity
  8
1
  6
CONTINUOUS
 62
           3
100
AcDbLine
 10
406.019427564705
 20
810.323902417793
 11
397.643119254376
 21
810.323902417793
  0
LINE
  5
A5
100
AcDbEntity
  8
1
  6
CONTINUOUS
 62
           3
100
AcDbLine
 10
407.571517612753
 20
808.111781205662
 11
395.00705514714
 21
808.111781205662
  0
LINE
  5
A4
100
AcDbEntity
  8
1
  6
CONTINUOUS
 62
           3
100
AcDbLine
 10
410.823439790275
 20
821.38450847832
 11
409.685267028148
 21
816.739053932891
  0
LINE
  5
A3
100
AcDbEntity
  8
1
  6
CONTINUOUS
 62
           3
100
AcDbLine
 10
398.258977324684
 20
821.38450847832
 11
410.823439790275
 21
821.38450847832
  0
LINE
  5
A2
100
AcDbEntity
  8
1
  6
CONTINUOUS
 62
           3
100
AcDbLine
 10
395.00705514714
 20
808.111781205662
 11
398.258977324684
 21
821.38450847832
  0
LINE
  5
A1
100
AcDbEntity
  8
1
  6
CONTINUOUS
 62
           3
100
AcDbLine
 10
392.494162654155
 20
808.111781205662
 11
395.746084831565
 21
821.38450847832
  0
LINE
  5
A0
100
AcDbEntity
  8
1
  6
CONTINUOUS
 62
           3
100
AcDbLine
 10
390.400085576436
 20
808.111781205662
 11
392.494162654155
 21
808.111781205662
  0
LINE
  5
9F
100
AcDbEntity
  8
1
  6
CONTINUOUS
 62
           3
100
AcDbLine
 10
393.652007754001
 20
821.38450847832
 11
390.400085576436
 21
808.111781205662
  0
LINE
  5
9E
100
AcDbEntity
  8
1
  6
CONTINUOUS
 62
           3
100
AcDbLine
 10
395.746084831565
 20
821.38450847832
 11
393.652007754001
 21
821.38450847832
  0
LINE
  5
9D
100
AcDbEntity
  8
1
  6
CONTINUOUS
 62
           3
100
AcDbLine
 10
377.416807695398
 20
808.111781205662
 11
378.500781754509
 21
812.536023629844
  0
LINE
  5
9C
100
AcDbEntity
  8
1
  6
CONTINUOUS
 62
           3
100
AcDbLine
 10
375.322730617722
 20
808.111781205662
 11
377.416807695398
 21
808.111781205662
  0
LINE
  5
9B
100
AcDbEntity
  8
1
  6
CONTINUOUS
 62
           3
100
AcDbLine
 10
388.834911469418
 20
811.979895810781
 11
387.887193083305
 21
808.111781205662
  0
LINE
  5
9A
100
AcDbEntity
  8
1
  6
CONTINUOUS
 62
           3
100
AcDbLine
 10
380.126742843284
 20
819.172387266269
 11
379.042768784101
 21
814.748144842033
  0
LINE
  5
99
100
AcDbEntity
  8
1
  6
CONTINUOUS
 62
           3
100
AcDbLine
 10
388.503051153803
 20
819.172387266269
 11
380.126742843284
 21
819.172387266269
  0
LINE
  5
98
100
AcDbEntity
  8
1
  6
CONTINUOUS
 62
           3
100
AcDbLine
 10
387.419077094481
 20
814.748144842033
 11
388.503051153803
 21
819.172387266269
  0
LINE
  5
97
100
AcDbEntity
  8
1
  6
CONTINUOUS
 62
           3
100
AcDbLine
 10
379.042768784101
 20
814.748144842033
 11
387.419077094481
 21
814.748144842033
  0
LINE
  5
96
100
AcDbEntity
  8
1
  6
CONTINUOUS
 62
           3
100
AcDbLine
 10
386.877090065038
 20
812.536023629844
 11
378.500781754509
 21
812.536023629844
  0
LINE
  5
95
100
AcDbEntity
  8
1
  6
CONTINUOUS
 62
           3
100
AcDbLine
 10
385.793116005666
 20
808.111781205662
 11
386.877090065038
 21
812.536023629844
  0
LINE
  5
94
100
AcDbEntity
  8
1
  6
CONTINUOUS
 62
           3
100
AcDbLine
 10
387.887193083305
 20
808.111781205662
 11
385.793116005666
 21
808.111781205662
  0
LINE
  5
93
100
AcDbEntity
  8
1
  6
CONTINUOUS
 62
           3
100
AcDbLine
 10
391.139115260838
 20
821.38450847832
 11
389.271591150984
 21
813.762204858331
  0
LINE
  5
92
100
AcDbEntity
  8
1
  6
CONTINUOUS
 62
           3
100
AcDbLine
 10
378.574652795258
 20
821.38450847832
 11
391.139115260838
 21
821.38450847832
  0
LINE
  5
91
100
AcDbEntity
  8
1
  6
CONTINUOUS
 62
           3
100
AcDbLine
 10
378.574652795258
 20
821.38450847832
 11
375.322730617722
 21
808.111781205662
  0
LINE
  5
90
100
AcDbEntity
  8
1
  6
CONTINUOUS
 62
           3
100
AcDbLine
 10
362.881439766233
 20
810.323902417793
 11
365.049387884574
 21
819.172387266269
  0
LINE
  5
8F
100
AcDbEntity
  8
1
  6
CONTINUOUS
 62
           3
100
AcDbLine
 10
365.049387884574
 20
819.172387266269
 11
373.425696195064
 21
819.172387266269
  0
LINE
  5
8E
100
AcDbEntity
  8
1
  6
CONTINUOUS
 62
           3
100
AcDbLine
 10
373.425696195064
 20
819.172387266269
 11
371.257748076587
 21
810.323902417793
  0
LINE
  5
8D
100
AcDbEntity
  8
1
  6
CONTINUOUS
 62
           3
100
AcDbLine
 10
371.257748076587
 20
810.323902417793
 11
362.881439766233
 21
810.323902417793
  0
LINE
  5
8C
100
AcDbEntity
  8
1
  6
CONTINUOUS
 62
           3
100
AcDbLine
 10
372.809838124592
 20
808.111781205662
 11
360.245375659066
 21
808.111781205662
  0
LINE
  5
8B
100
AcDbEntity
  8
1
  6
CONTINUOUS
 62
           3
100
AcDbLine
 10
376.061760302266
 20
821.38450847832
 11
372.809838124592
 21
808.111781205662
  0
LINE
  5
8A
100
AcDbEntity
  8
1
  6
CONTINUOUS
 62
           3
100
AcDbLine
 10
363.497297836548
 20
821.38450847832
 11
376.061760302266
 21
821.38450847832
  0
LINE
  5
89
100
AcDbEntity
  8
1
  6
CONTINUOUS
 62
           3
100
AcDbLine
 10
360.245375659066
 20
808.111781205662
 11
363.497297836548
 21
821.38450847832
  0
LINE
  5
88
100
AcDbEntity
  8
1
  6
CONTINUOUS
 62
           3
100
AcDbLine
 10
503.836191152307
 20
765.0
 11
451.245389733497
 21
765.0
  0
LINE
  5
87
100
AcDbEntity
  8
1
  6
CONTINUOUS
 62
           3
100
AcDbLine
 10
501.435518785788
 20
771.193939393909
 11
458.626369233615
 21
771.193939393909
  0
LINE
  5
86
100
AcDbEntity
  8
1
  6
CONTINUOUS
 62
           3
100
AcDbLine
 10
501.435518785788
 20
771.193939393909
 11
503.836191152307
 21
765.0
  0
LINE
  5
85
100
AcDbEntity
  8
1
  6
CONTINUOUS
 62
           3
100
AcDbLine
 10
494.193518709006
 20
789.878917066823
 11
491.413665585049
 21
797.051175145078
  0
LINE
  5
84
100
AcDbEntity
  8
1
  6
CONTINUOUS
 62
           3
100
AcDbLine
 10
499.790744889293
 20
797.051175145078
 11
494.193518709006
 21
789.878917066823
  0
LINE
  5
83
100
AcDbEntity
  8
1
  6
CONTINUOUS
 62
           3
100
AcDbLine
 10
503.83619115235
 20
797.051175145078
 11
499.790744889293
 21
797.051175145078
  0
LINE
  5
82
100
AcDbEntity
  8
1
  6
CONTINUOUS
 62
           3
100
AcDbLine
 10
495.535961107268
 20
786.415301218602
 11
503.83619115235
 21
797.051175145078
  0
LINE
  5
81
100
AcDbEntity
  8
1
  6
CONTINUOUS
 62
           3
100
AcDbLine
 10
500.406659200272
 20
773.848484848477
 11
495.535961107268
 21
786.415301218602
  0
LINE
  5
80
100
AcDbEntity
  8
1
  6
CONTINUOUS
 62
           3
100
AcDbLine
 10
496.361212937224
 20
773.848484848477
 11
500.406659200272
 21
773.848484848477
  0
LINE
  5
7F
100
AcDbEntity
  8
1
  6
CONTINUOUS
 62
           3
100
AcDbLine
 10
492.83295724254
 20
782.951685370502
 11
496.361212937224
 21
773.848484848477
  0
LINE
  5
7E
100
AcDbEntity
  8
1
  6
CONTINUOUS
 62
           3
100
AcDbLine
 10
485.728824662438
 20
773.848484848477
 11
492.83295724254
 21
782.951685370502
  0
LINE
  5
7D
100
AcDbEntity
  8
1
  6
CONTINUOUS
 62
           3
100
AcDbLine
 10
481.683378399441
 20
773.848484848477
 11
485.728824662438
 21
773.848484848477
  0
LINE
  5
7C
100
AcDbEntity
  8
1
  6
CONTINUOUS
 62
           3
100
AcDbLine
 10
491.490514844231
 20
786.41530121866
 11
481.683378399441
 21
773.848484848477
  0
LINE
  5
7B
100
AcDbEntity
  8
1
  6
CONTINUOUS
 62
           3
100
AcDbLine
 10
487.368219322034
 20
797.051175145078
 11
491.490514844231
 21
786.41530121866
  0
LINE
  5
7A
100
AcDbEntity
  8
1
  6
CONTINUOUS
 62
           3
100
AcDbLine
 10
491.413665585049
 20
797.051175145078
 11
487.368219322034
 21
797.051175145078
  0
LINE
  5
79
100
AcDbEntity
  8
1
  6
CONTINUOUS
 62
           3
100
AcDbLine
 10
474.384941440989
 20
797.051175145078
 11
469.149748747067
 21
797.051175145078
  0
LINE
  5
78
100
AcDbEntity
  8
1
  6
CONTINUOUS
 62
           3
100
AcDbLine
 10
469.784074577638
 20
778.272727272797
 11
474.384941440989
 21
797.051175145078
  0
LINE
  5
77
100
AcDbEntity
  8
1
  6
CONTINUOUS
 62
           3
100
AcDbLine
 10
475.01926727159
 20
778.272727272797
 11
469.784074577638
 21
778.272727272797
  0
LINE
  5
76
100
AcDbEntity
  8
1
  6
CONTINUOUS
 62
           3
100
AcDbLine
 10
479.620134134985
 20
797.051175145078
 11
475.01926727159
 21
778.272727272797
  0
LINE
  5
75
100
AcDbEntity
  8
1
  6
CONTINUOUS
 62
           3
100
AcDbLine
 10
484.855326828909
 20
797.051175145078
 11
479.620134134985
 21
797.051175145078
  0
LINE
  5
74
100
AcDbEntity
  8
1
  6
CONTINUOUS
 62
           3
100
AcDbLine
 10
479.1704859063
 20
773.848484848477
 11
484.855326828909
 21
797.051175145078
  0
LINE
  5
73
100
AcDbEntity
  8
1
  6
CONTINUOUS
 62
           3
100
AcDbLine
 10
463.464907824379
 20
773.848484848477
 11
479.1704859063
 21
773.848484848477
  0
LINE
  5
72
100
AcDbEntity
  8
1
  6
CONTINUOUS
 62
           3
100
AcDbLine
 10
469.149748747067
 20
797.051175145078
 11
463.464907824379
 21
773.848484848477
  0
LINE
  5
71
100
AcDbEntity
  8
1
  6
CONTINUOUS
 62
           3
100
AcDbLine
 10
461.808113922438
 20
808.111781205662
 11
451.245389733497
 21
765.0
  0
LINE
  5
70
100
AcDbEntity
  8
1
  6
CONTINUOUS
 62
           3
100
AcDbLine
 10
467.671529739707
 20
808.111781205662
 11
461.808113922438
 21
808.111781205662
  0
LINE
  5
6F
100
AcDbEntity
  8
1
  6
CONTINUOUS
 62
           3
100
AcDbLine
 10
458.626369233615
 20
771.193939393909
 11
467.671529739707
 21
808.111781205662
  0
LINE
  5
6E
100
AcDbEntity
  8
1
  6
CONTINUOUS
 62
           3
100
AcDbLine
 10
323.5066880001
 20
765.0
 11
331.359477041155
 21
797.051175145078
  0
LINE
  5
6D
100
AcDbEntity
  8
1
  6
CONTINUOUS
 62
           3
100
AcDbLine
 10
331.359477041155
 20
797.051175145078
 11
337.641708273852
 21
797.051175145078
  0
LINE
  5
6C
100
AcDbEntity
  8
1
  6
CONTINUOUS
 62
           3
100
AcDbLine
 10
337.641708273852
 20
797.051175145078
 11
330.872893292163
 21
769.424242424182
  0
LINE
  5
6B
100
AcDbEntity
  8
1
  6
CONTINUOUS
 62
           3
100
AcDbLine
 10
330.872893292163
 20
769.424242424182
 11
336.108085986042
 21
769.424242424182
  0
LINE
  5
6A
100
AcDbEntity
  8
1
  6
CONTINUOUS
 62
           3
100
AcDbLine
 10
336.108085986042
 20
769.424242424182
 11
344.231868541924
 21
802.581478175404
  0
LINE
  5
69
100
AcDbEntity
  8
1
  6
CONTINUOUS
 62
           3
100
AcDbLine
 10
344.231868541924
 20
802.581478175404
 11
326.54077269739
 21
802.581478175404
  0
LINE
  5
68
100
AcDbEntity
  8
1
  6
CONTINUOUS
 62
           3
100
AcDbLine
 10
326.54077269739
 20
802.581478175404
 11
327.895740271375
 21
808.111781205662
  0
LINE
  5
67
100
AcDbEntity
  8
1
  6
CONTINUOUS
 62
           3
100
AcDbLine
 10
327.895740271375
 20
808.111781205662
 11
351.869067348668
 21
808.111781205662
  0
LINE
  5
66
100
AcDbEntity
  8
1
  6
CONTINUOUS
 62
           3
100
AcDbLine
 10
351.869067348668
 20
808.111781205662
 11
341.306343159748
 21
765.0
  0
LINE
  5
65
100
AcDbEntity
  8
1
  6
CONTINUOUS
 62
           3
100
AcDbLine
 10
341.306343159748
 20
765.0
 11
323.5066880001
 21
765.0
  0
LINE
  5
64
100
AcDbEntity
  8
1
  6
CONTINUOUS
 62
           3
100
AcDbLine
 10
345.494497314874
 20
765.0
 11
353.347286355868
 21
797.051175145078
  0
LINE
  5
63
100
AcDbEntity
  8
1
  6
CONTINUOUS
 62
           3
100
AcDbLine
 10
353.347286355868
 20
797.051175145078
 11
359.629517588678
 21
797.051175145078
  0
LINE
  5
62
100
AcDbEntity
  8
1
  6
CONTINUOUS
 62
           3
100
AcDbLine
 10
359.629517588678
 20
797.051175145078
 11
352.860702606883
 21
769.424242424182
  0
LINE
  5
61
100
AcDbEntity
  8
1
  6
CONTINUOUS
 62
           3
100
AcDbLine
 10
352.860702606883
 20
769.424242424182
 11
358.095895300867
 21
769.424242424182
  0
LINE
  5
60
100
AcDbEntity
  8
1
  6
CONTINUOUS
 62
           3
100
AcDbLine
 10
358.095895300867
 20
769.424242424182
 11
364.864710282673
 21
797.051175145078
  0
LINE
  5
5F
100
AcDbEntity
  8
1
  6
CONTINUOUS
 62
           3
100
AcDbLine
 10
363.294152474464
 20
765.0
 11
345.494497314874
 21
765.0
  0
LINE
  5
5E
100
AcDbEntity
  8
1
  6
CONTINUOUS
 62
           3
100
AcDbLine
 10
364.864710282673
 20
797.051175145078
 11
371.146941515479
 21
797.051175145078
  0
LINE
  5
5D
100
AcDbEntity
  8
1
  6
CONTINUOUS
 62
           3
100
AcDbLine
 10
371.146941515479
 20
797.051175145078
 11
363.294152474464
 21
765.0
  0
LINE
  5
5C
100
AcDbEntity
  8
1
  6
CONTINUOUS
 62
           3
100
AcDbLine
 10
392.087712291414
 20
797.051175145078
 11
375.335095670642
 21
797.051175145078
  0
LINE
  5
5B
100
AcDbEntity
  8
1
  6
CONTINUOUS
 62
           3
100
AcDbLine
 10
375.335095670642
 20
797.051175145078
 11
370.734228807251
 21
778.272727272797
  0
LINE
  5
5A
100
AcDbEntity
  8
1
  6
CONTINUOUS
 62
           3
100
AcDbLine
 10
370.734228807251
 20
778.272727272797
 11
381.204614195217
 21
778.272727272797
  0
LINE
  5
59
100
AcDbEntity
  8
1
  6
CONTINUOUS
 62
           3
100
AcDbLine
 10
381.204614195217
 20
778.272727272797
 11
379.036666076798
 21
769.424242424182
  0
LINE
  5
58
100
AcDbEntity
  8
1
  6
CONTINUOUS
 62
           3
100
AcDbLine
 10
379.036666076798
 20
769.424242424182
 11
368.566280688887
 21
769.424242424182
  0
LINE
  5
57
100
AcDbEntity
  8
1
  6
CONTINUOUS
 62
           3
100
AcDbLine
 10
368.566280688887
 20
769.424242424182
 11
367.48230662958
 21
765.0
  0
LINE
  5
56
100
AcDbEntity
  8
1
  6
CONTINUOUS
 62
           3
100
AcDbLine
 10
367.48230662958
 20
765.0
 11
384.234923250403
 21
765.0
  0
LINE
  5
55
100
AcDbEntity
  8
1
  6
CONTINUOUS
 62
           3
100
AcDbLine
 10
384.234923250403
 20
765.0
 11
388.570819487326
 21
782.696969696952
  0
LINE
  5
54
100
AcDbEntity
  8
1
  6
CONTINUOUS
 62
           3
100
AcDbLine
 10
388.570819487326
 20
782.696969696952
 11
378.100434099263
 21
782.696969696952
  0
LINE
  5
53
100
AcDbEntity
  8
1
  6
CONTINUOUS
 62
           3
100
AcDbLine
 10
378.100434099263
 20
782.696969696952
 11
380.533352844276
 21
792.626932720838
  0
LINE
  5
52
100
AcDbEntity
  8
1
  6
CONTINUOUS
 62
           3
100
AcDbLine
 10
380.533352844276
 20
792.626932720838
 11
391.003738232256
 21
792.626932720838
  0
LINE
  5
51
100
AcDbEntity
  8
1
  6
CONTINUOUS
 62
           3
100
AcDbLine
 10
391.003738232256
 20
792.626932720838
 11
392.087712291414
 21
797.051175145078
  0
LINE
  5
50
100
AcDbEntity
  8
1
  6
CONTINUOUS
 62
           3
100
AcDbLine
 10
410.318547919422
 20
785.990569084412
 11
413.028483067352
 21
797.051175145078
  0
LINE
  5
4F
100
AcDbEntity
  8
1
  6
CONTINUOUS
 62
           3
100
AcDbLine
 10
413.028483067352
 20
797.051175145078
 11
396.275866446631
 21
797.051175145078
  0
LINE
  5
4E
100
AcDbEntity
  8
1
  6
CONTINUOUS
 62
           3
100
AcDbLine
 10
396.275866446631
 20
797.051175145078
 11
388.423077405638
 21
765.0
  0
LINE
  5
4D
100
AcDbEntity
  8
1
  6
CONTINUOUS
 62
           3
100
AcDbLine
 10
388.423077405638
 20
765.0
 11
405.175694026392
 21
765.0
  0
LINE
  5
4C
100
AcDbEntity
  8
1
  6
CONTINUOUS
 62
           3
100
AcDbLine
 10
405.175694026392
 20
765.0
 11
407.885629174366
 21
776.060606060608
  0
LINE
  5
4B
100
AcDbEntity
  8
1
  6
CONTINUOUS
 62
           3
100
AcDbLine
 10
407.885629174366
 20
776.060606060608
 11
401.603397941579
 21
776.060606060608
  0
LINE
  5
4A
100
AcDbEntity
  8
1
  6
CONTINUOUS
 62
           3
100
AcDbLine
 10
401.603397941579
 20
776.060606060608
 11
399.977436852791
 21
769.424242424182
  0
LINE
  5
49
100
AcDbEntity
  8
1
  6
CONTINUOUS
 62
           3
100
AcDbLine
 10
399.977436852791
 20
769.424242424182
 11
395.789282697588
 21
769.424242424182
  0
LINE
  5
48
100
AcDbEntity
  8
1
  6
CONTINUOUS
 62
           3
100
AcDbLine
 10
395.789282697588
 20
769.424242424182
 11
401.474123620218
 21
792.626932720838
  0
LINE
  5
47
100
AcDbEntity
  8
1
  6
CONTINUOUS
 62
           3
100
AcDbLine
 10
401.474123620218
 20
792.626932720838
 11
405.66227777541
 21
792.626932720838
  0
LINE
  5
46
100
AcDbEntity
  8
1
  6
CONTINUOUS
 62
           3
100
AcDbLine
 10
405.66227777541
 20
792.626932720838
 11
404.036316686616
 21
785.990569084412
  0
LINE
  5
45
100
AcDbEntity
  8
1
  6
CONTINUOUS
 62
           3
100
AcDbLine
 10
404.036316686616
 20
785.990569084412
 11
410.318547919422
 21
785.990569084412
  0
LINE
  5
44
100
AcDbEntity
  8
1
  6
CONTINUOUS
 62
           3
100
AcDbLine
 10
409.363848181573
 20
765.0
 11
415.646079414361
 21
765.0
  0
LINE
  5
43
100
AcDbEntity
  8
1
  6
CONTINUOUS
 62
           3
100
AcDbLine
 10
426.116464802437
 20
765.0
 11
433.969253843451
 21
797.051175145078
  0
LINE
  5
42
100
AcDbEntity
  8
1
  6
CONTINUOUS
 62
           3
100
AcDbLine
 10
419.834233569539
 20
765.0
 11
423.218641060434
 21
778.81346636034
  0
LINE
  5
41
100
AcDbEntity
  8
1
  6
CONTINUOUS
 62
           3
100
AcDbLine
 10
415.646079414361
 20
765.0
 11
419.030486905246
 21
778.81346636034
  0
LINE
  5
40
100
AcDbEntity
  8
1
  6
CONTINUOUS
 62
           3
100
AcDbLine
 10
417.216637222566
 20
797.051175145078
 11
409.363848181573
 21
765.0
  0
LINE
  5
3F
100
AcDbEntity
  8
1
  6
CONTINUOUS
 62
           3
100
AcDbLine
 10
433.969253843451
 20
797.051175145078
 11
427.687022610535
 21
797.051175145078
  0
LINE
  5
3E
100
AcDbEntity
  8
1
  6
CONTINUOUS
 62
           3
100
AcDbLine
 10
430.304618957562
 20
765.0
 11
447.05723557837
 21
765.0
  0
LINE
  5
3D
100
AcDbEntity
  8
1
  6
CONTINUOUS
 62
           3
100
AcDbLine
 10
441.858978404668
 20
769.424242424182
 11
437.670824249568
 21
769.424242424182
  0
LINE
  5
3C
100
AcDbEntity
  8
1
  6
CONTINUOUS
 62
           3
100
AcDbLine
 10
438.157407998559
 20
797.051175145078
 11
430.304618957562
 21
765.0
  0
LINE
  5
3B
100
AcDbEntity
  8
1
  6
CONTINUOUS
 62
           3
100
AcDbLine
 10
437.670824249568
 20
769.424242424182
 11
443.355665172142
 21
792.626932720838
  0
LINE
  5
3A
100
AcDbEntity
  8
1
  6
CONTINUOUS
 62
           3
100
AcDbLine
 10
454.910024619389
 20
797.051175145078
 11
438.157407998559
 21
797.051175145078
  0
LINE
  5
39
100
AcDbEntity
  8
1
  6
CONTINUOUS
 62
           3
100
AcDbLine
 10
443.355665172142
 20
792.626932720838
 11
447.543819327392
 21
792.626932720838
  0
LINE
  5
38
100
AcDbEntity
  8
1
  6
CONTINUOUS
 62
           3
100
AcDbLine
 10
447.543819327392
 20
792.626932720838
 11
441.858978404668
 21
769.424242424182
  0
LINE
  5
37
100
AcDbEntity
  8
1
  6
CONTINUOUS
 62
           3
100
AcDbLine
 10
454.910024619389
 20
797.051175145078
 11
447.05723557837
 21
765.0
  0
LINE
  5
36
100
AcDbEntity
  8
1
  6
CONTINUOUS
 62
           3
100
AcDbLine
 10
423.498868455431
 20
797.051175145078
 11
417.216637222566
 21
797.051175145078
  0
LINE
  5
35
100
AcDbEntity
  8
1
  6
CONTINUOUS
 62
           3
100
AcDbLine
 10
419.834233569539
 20
765.0
 11
426.116464802437
 21
765.0
  0
LINE
  5
34
100
AcDbEntity
  8
1
  6
CONTINUOUS
 62
           3
100
AcDbLine
 10
419.030486905246
 20
778.81346636034
 11
423.218641060434
 21
778.81346636034
  0
LINE
  5
33
100
AcDbEntity
  8
1
  6
CONTINUOUS
 62
           3
100
AcDbLine
 10
420.114460964415
 20
783.237708784527
 11
424.302615119654
 21
783.237708784527
  0
LINE
  5
32
100
AcDbEntity
  8
1
  6
CONTINUOUS
 62
           3
100
AcDbLine
 10
420.114460964415
 20
783.237708784527
 11
423.498868455431
 21
797.051175145078
  0
LINE
  5
31
100
AcDbEntity
  8
1
  6
CONTINUOUS
 62
           3
100
AcDbLine
 10
424.302615119654
 20
783.237708784527
 11
427.687022610535
 21
797.051175145078
  0
LINE
  5
30
100
AcDbEntity
  8
1
  6
CONTINUOUS
 62
           3
100
AcDbLine
 10
389.271591150984
 20
813.762204858331
 11
388.539508382037
 21
812.978447872362
  0
LINE
  5
2F
100
AcDbEntity
  8
1
  6
CONTINUOUS
 62
           3
100
AcDbLine
 10
388.834911469418
 20
811.979895810781
 11
388.539508382037
 21
812.978447872362
  0
ENDBLK
  5
E3
100
AcDbEntity
  8
0
100
AcDbBlockEnd
  0
BLOCK
  5
2A
100
AcDbEntity
  8
0
100
AcDbBlockBegin
  2
WANNE_PRIME_LINE_251
 70
           0
 10
0.0
 20
0.0
 30
0.0
  3
WANNE_PRIME_LINE_251
  1

  0
ARC
  5
FF
100
AcDbEntity
  8
1
  6
CONTINUOUS
 62
           7
100
AcDbCircle
 10
1500.0
 20
900.0
 40
50.0
100
AcDbArc
 50
0.0
 51
90.0
  0
ARC
  5
FE
100
AcDbEntity
  8
1
  6
CONTINUOUS
 62
           7
100
AcDbCircle
 10
100.0
 20
900.0
 40
50.0
100
AcDbArc
 50
90.0
 51
180.0
  0
ARC
  5
FD
100
AcDbEntity
  8
1
  6
CONTINUOUS
 62
           7
100
AcDbCircle
 10
100.0
 20
150.0
 40
50.0
100
AcDbArc
 50
180.0
 51
-90.0
  0
ARC
  5
FC
100
AcDbEntity
  8
1
  6
CONTINUOUS
 62
           7
100
AcDbCircle
 10
571.112637479248
 20
150.0
 40
50.0
100
AcDbArc
 50
-90.0
 51
-68.198590523852
  0
ARC
  5
FB
100
AcDbEntity
  8
1
  6
CONTINUOUS
 62
           7
100
AcDbCircle
 10
1500.0
 20
521.554944816415
 40
49.999999999999
100
AcDbArc
 50
-68.198590523851
 51
0.0
  0
ARC
  5
FA
100
AcDbEntity
  8
1
  6
CONTINUOUS
 62
           7
100
AcDbCircle
 10
349.999999000102
 20
790.0
 40
100.0
100
AcDbArc
 50
90.0
 51
179.999999199057
  0
ARC
  5
F9
100
AcDbEntity
  8
1
  6
CONTINUOUS
 62
           7
100
AcDbCircle
 10
531.909773867094
 20
306.644128616884
 40
150.0
100
AcDbArc
 50
-149.470907839638
 51
-68.198590523852
  0
ARC
  5
F8
100
AcDbEntity
  8
1
  6
CONTINUOUS
 62
           7
100
AcDbCircle
 10
1430.0
 20
840.0
 40
50.0
100
AcDbArc
 50
0.0
 51
90.0
  0
ARC
  5
F7
100
AcDbEntity
  8
1
  6
CONTINUOUS
 62
           7
100
AcDbCircle
 10
1430.0
 20
558.176922749504
 40
50.0
100
AcDbArc
 50
-68.198590523851
 51
0.0
  0
SPLINE
  5
F6
100
AcDbEntity
  8
1
  6
CONTINUOUS
 62
           7
100
AcDbSpline
210
0.0
220
0.0
230
1.0
 70
           0
 71
           3
 72
          41
 73
          38
 74
          77
 42
0.00000000001
 43
0.00000000001
 44
0.00000000001
 40
-1.8732400406157694
 40
-0.0595164091871538
 40
1.7542072222414427
 40
3.6869471104627554
 40
5.9420188427611835
 40
8.6386337926945185
 40
11.806927740586815
 40
15.414858804864945
 40
19.393799186612604
 40
23.65201964895676
 40
28.083253779420282
 40
32.573045066099908
 40
37.004279196564298
 40
41.26249965890716
 40
45.241440040654339
 40
48.849371104933084
 40
52.017665052825379
 40
54.714280002759054
 40
56.96935173505787
 40
58.902091623279347
 40
60.715815254707891
 40
62.648555142929098
 40
64.903626875227516
 40
67.600241825161248
 40
70.768535773053543
 40
74.376466837331805
 40
78.355407219079382
 40
82.613627681422315
 40
87.044861811886022
 40
91.534653098566721
 40
95.965887229030812
 40
100.22410769137466
 40
104.20304807312282
 40
107.81097913740032
 40
110.97927308529179
 40
113.6758880352253
 40
115.9309597675248
 40
117.86369965574633
 40
119.67742328717446
 40
121.49114691860308
 40
123.30487055003168
 10
1070.1752420295429
 20
315.6521038603355
 30
0.0
 10
1069.1057061351769
 20
317.11692002008567
 30
0.0
 10
1067.3375091653761
 20
318.15768068161651
 30
0.0
 10
1064.9665014258981
 20
318.80728864987191
 30
0.0
 10
1062.0437598778819
 20
319.07352691636902
 30
0.0
 10
1058.644185660537
 20
318.95201011796257
 30
0.0
 10
1054.863866740475
 20
318.44537817438408
 30
0.0
 10
1050.814183882246
 20
317.567398433883
 30
0.0
 10
1046.6162842227279
 20
316.3434938748012
 30
0.0
 10
1042.39649393334
 20
314.81000252773651
 30
0.0
 10
1038.2820118465261
 20
313.01298751521131
 30
0.0
 10
1034.396751129899
 20
311.00673402052172
 30
0.0
 10
1030.8572903333561
 20
308.8519725611759
 30
0.0
 10
1027.768932922291
 20
306.61377338211219
 30
0.0
 10
1025.22187292886
 20
304.3589215950995
 30
0.0
 10
1023.287554556407
 20
302.15172577120029
 30
0.0
 10
1022.017228493676
 20
300.04698352868331
 30
0.0
 10
1021.45326868325
 20
298.0742563273634
 30
0.0
 10
1021.687803550452
 20
296.27576062059347
 30
0.0
 10
1022.75733944482
 20
294.81094446084512
 30
0.0
 10
1024.5255364146201
 20
293.77018379931292
 30
0.0
 10
1026.8965441540979
 20
293.12057583105712
 30
0.0
 10
1029.8192857021149
 20
292.85433756456018
 30
0.0
 10
1033.218859919459
 20
292.97585436296731
 30
0.0
 10
1036.9991788395221
 20
293.48248630654598
 30
0.0
 10
1041.04886169775
 20
294.36046604704597
 30
0.0
 10
1045.2467613572669
 20
295.58437060612778
 30
0.0
 10
1049.4665516466559
 20
297.1178619531936
 30
0.0
 10
1053.581033733471
 20
298.91487696571789
 30
0.0
 10
1057.4662944500969
 20
300.92113046040691
 30
0.0
 10
1061.0057552466419
 20
303.07589191975558
 30
0.0
 10
1064.0941126577061
 20
305.31409109881838
 30
0.0
 10
1066.6411726511369
 20
307.56894288582947
 30
0.0
 10
1068.5754910235889
 20
309.77613870972891
 30
0.0
 10
1069.8458170863209
 20
311.88088095224538
 30
0.0
 10
1070.4097768967461
 20
313.85360815356688
 30
0.0
 10
1070.1752420295429
 20
315.6521038603355
 30
0.0
 10
1069.1057061351769
 20
317.11692002008567
 30
0.0
 11
1069.657462391199
 21
316.36124507329612
 31
0.0
 11
1069.0396326310774
 21
317.04808307233361
 31
0.0
 11
1068.2896558627576
 21
317.59724717586698
 31
0.0
 11
1067.305597796081
 21
318.0915325868113
 31
0.0
 11
1066.2577169908141
 21
318.45352180814518
 31
0.0
 11
1064.953344917295
 21
318.74945023192902
 31
0.0
 11
1063.6226598265694
 21
318.92970181982696
 31
0.0
 11
1062.0411083612157
 21
319.02336653388898
 31
0.0
 11
1060.4542538625296
 21
319.01671048299102
 31
0.0
 11
1058.6472707494684
 21
318.90795309838205
 31
0.0
 11
1056.8464578142698
 21
318.71108167461193
 31
0.0
 11
1054.8704671610917
 21
318.40577755833698
 31
0.0
 11
1052.9076773491465
 21
318.02127220996772
 31
0.0
 11
1050.8232677145097
 21
317.53092491716961
 31
0.0
 11
1048.7570257444013
 21
316.96763059094474
 31
0.0
 11
1046.6274581280247
 21
316.30909985533577
 31
0.0
 11
1044.5202383222418
 21
315.58178108079596
 31
0.0
 11
1042.409743863371
 21
314.77684585006506
 31
0.0
 11
1040.3257492645628
 21
313.90559726399147
 31
0.0
 11
1038.2976187984523
 21
312.98036501092179
 31
0.0
 11
1036.3007022361944
 21
311.98988774927307
 31
0.0
 11
1034.4153056756918
 21
310.97404514993127
 31
0.0
 11
1032.5670182067749
 21
309.89282480940835
 31
0.0
 11
1030.8797994654806
 21
308.81872931652958
 31
0.0
 11
1029.2375989884354
 21
307.67814733435796
 31
0.0
 11
1027.79706048807
 21
306.57972373025814
 31
0.0
 11
1026.4127771192627
 21
305.41320082245022
 31
0.0
 11
1025.2583634952493
 21
304.32440300480687
 31
0.0
 11
1024.1769310040142
 21
303.16656800657825
 31
0.0
 11
1023.3369484963835
 21
302.11888349657823
 31
0.0
 11
1022.5957538687055
 21
301.00551443733428
 31
0.0
 11
1022.0859389304128
 21
300.02104549059032
 31
0.0
 11
1021.713544865594
 21
298.98470046766045
 31
0.0
 11
1021.5485859142675
 21
298.06991365642682
 31
0.0
 11
1021.5742614249763
 21
297.14644150331992
 31
0.0
 11
1021.7888629286693
 21
296.31614553803513
 31
0.0
 11
1022.2055831887969
 21
295.56661940763365
 31
0.0
 11
1022.8234129489189
 21
294.87978140859678
 31
0.0
 11
1023.573389717239
 21
294.33061730506313
 31
0.0
 11
1024.5574477839152
 21
293.83633189411825
 31
0.0
 11
1025.6053285891821
 21
293.47434267278408
 31
0.0
 11
1026.9097006627012
 21
293.17841424900013
 31
0.0
 11
1028.2403857534273
 21
292.99816266110213
 31
0.0
 11
1029.8219372187809
 21
292.90449794704023
 31
0.0
 11
1031.4087917174666
 21
292.91115399793847
 31
0.0
 11
1033.2157748305278
 21
293.01991138254778
 31
0.0
 11
1035.0165877657266
 21
293.21678280631807
 31
0.0
 11
1036.9925784189054
 21
293.52208692259296
 31
0.0
 11
1038.9553682308504
 21
293.90659227096182
 31
0.0
 11
1041.039777865486
 21
294.39693956375947
 31
0.0
 11
1043.106019835594
 21
294.96023388998412
 31
0.0
 11
1045.2355874519703
 21
295.61876462559331
 31
0.0
 11
1047.3428072577531
 21
296.34608340013347
 31
0.0
 11
1049.453301716625
 21
297.15101863086477
 31
0.0
 11
1051.5372963154341
 21
298.0222672169383
 31
0.0
 11
1053.5654267815444
 21
298.94749947000741
 31
0.0
 11
1055.5623433438018
 21
299.93797673165568
 31
0.0
 11
1057.4477399043046
 21
300.95381933099787
 31
0.0
 11
1059.2960273732219
 21
302.03503967152176
 31
0.0
 11
1060.9832461145172
 21
303.10913516440161
 31
0.0
 11
1062.6254465915626
 21
304.2497171465734
 31
0.0
 11
1064.0659850919274
 21
305.34814075067243
 31
0.0
 11
1065.4502684607342
 21
306.51466365847944
 31
0.0
 11
1066.6046820847473
 21
307.60346147612228
 31
0.0
 11
1067.6861145759822
 21
308.76129647435073
 31
0.0
 11
1068.5260970836127
 21
309.80898098435074
 31
0.0
 11
1069.2672917112909
 21
310.92235004359446
 31
0.0
 11
1069.7771066495839
 21
311.90681899033859
 31
0.0
 11
1070.1495007144026
 21
312.94316401326921
 31
0.0
 11
1070.3144596657285
 21
313.85795082450318
 31
0.0
 11
1070.2887841550191
 21
314.78142297760979
 31
0.0
 11
1070.0699355741162
 21
315.61753565962283
 31
0.0
 11
1069.64047408236
 21
316.38451194021047
 31
0.0
 11
1069.3730901087686
 21
316.75071598014813
 31
0.0
 11
1069.64047408236
 21
316.38451194021059
 31
0.0
 11
1069.9121051331613
 21
316.01249118354445
 31
0.0
 11
1069.657462391199
 21
316.36124507329617
 31
0.0
  0
CIRCLE
  5
F5
100
AcDbEntity
  8
WANNE
  6
CONTINUOUS
 62
           7
100
AcDbCircle
 10
979.150257592022
 20
475.259583163963
 40
45.0
  0
CIRCLE
  5
F4
100
AcDbEntity
  8
WANNE
  6
CONTINUOUS
 62
           7
100
AcDbCircle
 10
979.150257592017
 20
475.259583163963
 40
26.0
  0
ARC
  5
F3
100
AcDbEntity
  8
1
  6
CONTINUOUS
 62
           7
100
AcDbCircle
 10
1351.533248998669
 20
789.999985999492
 40
1101.533249998567
100
AcDbArc
 50
179.999999199058
 51
-149.470907839638
  0
LINE
  5
F2
100
AcDbEntity
  8
MITTELLINIEN
  6
DOT_CENTER
 62
           3
100
AcDbLine
 10
1043.14021259202
 20
475.259583163963
 11
913.47223859201
 21
475.259583163963
  0
LINE
  5
F1
100
AcDbEntity
  8
MITTELLINIEN
  6
DOT_CENTER
 62
           3
100
AcDbLine
 10
979.150257592022
 20
539.249538163961
 11
979.150257592022
 21
409.581564163962
  0
LINE
  5
F0
100
AcDbEntity
  8
WANNE
  6
CONTINUOUS
 62
           7
100
AcDbLine
 10
599.999999799019
 20
0.0
 11
0.0
 21
0.0
  0
LINE
  5
EF
100
AcDbEntity
  8
WANNE
  6
CONTINUOUS
 62
           7
100
AcDbLine
 10
0.0
 20
0.0
 11
0.0
 21
1000.0
  0
LINE
  5
EE
100
AcDbEntity
  8
WANNE
  6
CONTINUOUS
 62
           7
100
AcDbLine
 10
0.0
 20
1000.0
 11
1600.0
 21
1000.0
  0
LINE
  5
ED
100
AcDbEntity
  8
WANNE
  6
CONTINUOUS
 62
           7
100
AcDbLine
 10
1600.0
 20
1000.0
 11
1600.0
 21
399.999999873817
  0
LINE
  5
EC
100
AcDbEntity
  8
WANNE
  6
CONTINUOUS
 62
           7
100
AcDbLine
 10
1600.0
 20
399.999999873817
 11
599.999999799019
 21
0.0
  0
LINE
  5
EB
100
AcDbEntity
  8
1
  6
CONTINUOUS
 62
           7
100
AcDbLine
 10
100.0
 20
950.0
 11
1500.0
 21
950.0
  0
LINE
  5
EA
100
AcDbEntity
  8
1
  6
CONTINUOUS
 62
           7
100
AcDbLine
 10
1550.0
 20
900.0
 11
1550.0
 21
521.554944816415
  0
LINE
  5
E9
100
AcDbEntity
  8
1
  6
CONTINUOUS
 62
           7
100
AcDbLine
 10
50.0
 20
150.0
 11
50.0
 21
900.0
  0
LINE
  5
E8
100
AcDbEntity
  8
1
  6
CONTINUOUS
 62
           7
100
AcDbLine
 10
571.112637479248
 20
100.0
 11
100.0
 21
100.0
  0
LINE
  5
E7
100
AcDbEntity
  8
1
  6
CONTINUOUS
 62
           7
100
AcDbLine
 10
1518.569533809438
 20
475.131110268846
 11
589.682171288685
 21
103.57616545243
  0
LINE
  5
E6
100
AcDbEntity
  8
1
  6
CONTINUOUS
 62
           7
100
AcDbLine
 10
1480.0
 20
840.0
 11
1480.0
 21
558.176922749504
  0
LINE
  5
E5
100
AcDbEntity
  8
1
  6
CONTINUOUS
 62
           7
100
AcDbLine
 10
349.999999000102
 20
890.0
 11
1430.0
 21
890.0
  0
LINE
  5
E4
100
AcDbEntity
  8
1
  6
CONTINUOUS
 62
           7
100
AcDbLine
 10
1448.569533809438
 20
511.753088201934
 11
587.618375295407
 21
167.372624974174
  0
ENDBLK
  5
100
100
AcDbEntity
  8
0
100
AcDbBlockEnd
  0
ENDSEC
  0
SECTION
  2
ENTITIES
  0
MTEXT
  5
104
100
AcDbEntity
  8
1
 62
           3
100
AcDbMText
 10
929.150257592022
 20
525.259583163964
 30
0.0
 40
35.0
 41
0.0
 71
           9
 72
           1
  1
ø 52
  7
CONVERTER_1
  0
TEXT
  5
103
100
AcDbEntity
  8
1
 62
           2
100
AcDbText
 10
323.5066880001
 20
675.0
 40
35.0
  1
Prime-line 251
 41
0.71262
  7
CONVERTER_1
100
AcDbText
  0
INSERT
  5
2D
100
AcDbEntity
  8
0
100
AcDbBlockReference
  2
DLX
 10
0.0
 20
0.0
  0
INSERT
  5
2E
100
AcDbEntity
  8
0
100
AcDbBlockReference
  2
WANNE_PRIME_LINE_251
 10
0.0
 20
0.0
  0
ENDSEC
  0
SECTION
  2
OBJECTS
  0
DICTIONARY
  5
19
100
AcDbDictionary
  3
ACAD_GROUP
350
1A
  3
ACAD_MLINESTYLE
350
1B
  0
DICTIONARY
  5
1A
102
{ACAD_REACTORS
330
19
102
}
100
AcDbDictionary
  0
DICTIONARY
  5
1B
102
{ACAD_REACTORS
330
19
102
}
100
AcDbDictionary
  3
STANDARD
350
1C
  0
MLINESTYLE
  5
1C
102
{ACAD_REACTORS
330
1B
102
}
100
AcDbMlineStyle
  2
STANDARD
 70
           0
  3

 62
           0
 51
90.0
 52
90.0
 71
           2
 49
0.5
 62
         256
  6
BYLAYER
 49
-0.5
 62
         256
  6
BYLAYER
  0
ENDSEC
  0
EOF
