  0
SECTION
  2
HEADER
  9
$ACADVER
  1
AC1014
  9
$ACADMAINTVER
 70
           0
  9
$DWGCODEPAGE
  3
ANSI_1252
  9
$INSBASE
 10
0.0
 20
0.0
 30
0.0
  9
$EXTMIN
 10
1.000000000000E+20
 20
1.000000000000E+20
 30
1.000000000000E+20
  9
$EXTMAX
 10
-1.000000000000E+20
 20
-1.000000000000E+20
 30
-1.000000000000E+20
  9
$LIMMIN
 10
0.0
 20
0.0
  9
$LIMMAX
 10
0.0
 20
0.0
  9
$ORTHOMODE
 70
           0
  9
$REGENMODE
 70
           1
  9
$FILLMODE
 70
           1
  9
$QTEXTMODE
 70
           0
  9
$MIRRTEXT
 70
           1
  9
$DRAGMODE
 70
           2
  9
$LTSCALE
 40
1.0
  9
$OSMODE
 70
           0
  9
$ATTMODE
 70
           1
  9
$TEXTSIZE
 40
0.2
  9
$TRACEWID
 40
0.05
  9
$TEXTSTYLE
  7
STANDARD
  9
$CLAYER
  8
0
  9
$CELTYPE
  6
CONTINUOUS
  9
$CECOLOR
 62
         256
  9
$CELTSCALE
 40
1.0
  9
$DELOBJ
 70
           1
  9
$DISPSILH
 70
           0
  9
$DIMSCALE
 40
1.0
  9
$DIMASZ
 40
0.18
  9
$DIMEXO
 40
0.0625
  9
$DIMDLI
 40
0.38
  9
$DIMRND
 40
0.0
  9
$DIMDLE
 40
0.0
  9
$DIMEXE
 40
0.18
  9
$DIMTP
 40
0.0
  9
$DIMTM
 40
0.0
  9
$DIMTXT
 40
0.18
  9
$DIMCEN
 40
0.09
  9
$DIMTSZ
 40
0.0
  9
$DIMTOL
 70
           0
  9
$DIMLIM
 70
           0
  9
$DIMTIH
 70
           1
  9
$DIMTOH
 70
           1
  9
$DIMSE1
 70
           0
  9
$DIMSE2
 70
           0
  9
$DIMTAD
 70
           0
  9
$DIMZIN
 70
           0
  9
$DIMBLK
  1

  9
$DIMASO
 70
           1
  9
$DIMSHO
 70
           1
  9
$DIMPOST
  1

  9
$DIMAPOST
  1

  9
$DIMALT
 70
           0
  9
$DIMALTD
 70
           2
  9
$DIMALTF
 40
25.4
  9
$DIMLFAC
 40
1.0
  9
$DIMTOFL
 70
           0
  9
$DIMTVP
 40
0.0
  9
$DIMTIX
 70
           0
  9
$DIMSOXD
 70
           0
  9
$DIMSAH
 70
           0
  9
$DIMBLK1
  1

  9
$DIMBLK2
  1

  9
$DIMSTYLE
  2
STANDARD
  9
$DIMCLRD
 70
           0
  9
$DIMCLRE
 70
           0
  9
$DIMCLRT
 70
           0
  9
$DIMTFAC
 40
1.0
  9
$DIMGAP
 40
0.09
  9
$DIMJUST
 70
           0
  9
$DIMSD1
 70
           0
  9
$DIMSD2
 70
           0
  9
$DIMTOLJ
 70
           1
  9
$DIMTZIN
 70
           0
  9
$DIMALTZ
 70
           0
  9
$DIMALTTZ
 70
           0
  9
$DIMFIT
 70
           3
  9
$DIMUPT
 70
           0
  9
$DIMUNIT
 70
           2
  9
$DIMDEC
 70
           4
  9
$DIMTDEC
 70
           4
  9
$DIMALTU
 70
           2
  9
$DIMALTTD
 70
           2
  9
$DIMTXSTY
  7
STANDARD
  9
$DIMAUNIT
 70
           0
  9
$LUNITS
 70
           2
  9
$LUPREC
 70
           4
  9
$SKETCHINC
 40
0.1
  9
$FILLETRAD
 40
0.0
  9
$AUNITS
 70
           0
  9
$AUPREC
 70
           0
  9
$MENU
  1
acad
  9
$ELEVATION
 40
0.0
  9
$PELEVATION
 40
0.0
  9
$THICKNESS
 40
0.0
  9
$LIMCHECK
 70
           0
  9
$BLIPMODE
 70
           1
  9
$CHAMFERA
 40
0.0
  9
$CHAMFERB
 40
0.0
  9
$CHAMFERC
 40
0.0
  9
$CHAMFERD
 40
0.0
  9
$SKPOLY
 70
           0
  9
$TDCREATE
 40
0.000000000
  9
$TDUPDATE
 40
0.000000000
  9
$TDINDWG
 40
0.0000000000
  9
$TDUSRTIMER
 40
0.0000000000
  9
$USRTIMER
 70
           1
  9
$ANGBASE
 50
0.0
  9
$ANGDIR
 70
           0
  9
$PDMODE
 70
           0
  9
$PDSIZE
 40
0.0
  9
$PLINEWID
 40
0.0
  9
$COORDS
 70
           0
  9
$SPLFRAME
 70
           0
  9
$SPLINETYPE
 70
           6
  9
$SPLINESEGS
 70
           8
  9
$ATTDIA
 70
           0
  9
$ATTREQ
 70
           1
  9
$HANDLING
 70
           1
  9
$HANDSEED
  5
106
  9
$SURFTAB1
 70
           6
  9
$SURFTAB2
 70
           6
  9
$SURFTYPE
 70
           6
  9
$SURFU
 70
           6
  9
$SURFV
 70
           6
  9
$UCSNAME
  2

  9
$UCSORG
 10
0.0
 20
0.0
 30
0.0
  9
$UCSXDIR
 10
1.0
 20
0.0
 30
0.0
  9
$UCSYDIR
 10
0.0
 20
1.0
 30
0.0
  9
$PUCSNAME
  2

  9
$PUCSORG
 10
0.0
 20
0.0
 30
0.0
  9
$PUCSXDIR
 10
1.0
 20
0.0
 30
0.0
  9
$PUCSYDIR
 10
0.0
 20
1.0
 30
0.0
  9
$USERI1
 70
           0
  9
$USERI2
 70
           0
  9
$USERI3
 70
           0
  9
$USERI4
 70
           0
  9
$USERI5
 70
           0
  9
$USERR1
 40
0.0
  9
$USERR2
 40
0.0
  9
$USERR3
 40
0.0
  9
$USERR4
 40
0.0
  9
$USERR5
 40
0.0
  9
$WORLDVIEW
 70
           1
  9
$SHADEDGE
 70
           3
  9
$SHADEDIF
 70
          70
  9
$TILEMODE
 70
           1
  9
$MAXACTVP
 70
          16
  9
$PINSBASE
 10
0.0
 20
0.0
 30
0.0
  9
$PLIMCHECK
 70
           0
  9
$PEXTMIN
 10
1.000000000000E+20
 20
1.000000000000E+20
 30
1.000000000000E+20
  9
$PEXTMAX
 10
-1.000000000000E+20
 20
-1.000000000000E+20
 30
-1.000000000000E+20
  9
$PLIMMIN
 10
0.0
 20
0.0
  9
$PLIMMAX
 10
12.0
 20
9.0
  9
$UNITMODE
 70
           0
  9
$VISRETAIN
 70
           0
  9
$PLINEGEN
 70
           1
  9
$PSLTSCALE
 70
           0
  9
$TREEDEPTH
 70
        3020
  9
$PICKSTYLE
 70
           1
  9
$CMLSTYLE
  2
STANDARD
  9
$CMLJUST
 70
           0
  9
$CMLSCALE
 40
1.0
  9
$PROXYGRAPHICS
 70
           0
  9
$MEASUREMENT
 70
           0
  0
ENDSEC
  0
SECTION
  2
CLASSES
  0
CLASS
  1
LWPOLYLINE
  2
AcDbPolyline
  3
"AutoCAD"
 90
        0
280
           0
281
           1
  0
CLASS
  1
IMAGE
  2
AcDbRasterImage
  3
ISM
 90
      127
280
           0
281
           1
  0
CLASS
  1
OLE2FRAME
  2
AcDbOle2Frame
  3
""
 90
        0
280
           0
281
           1
  0
CLASS
  1
HATCH
  2
AcDbHatch
  3
"ACAD_SEDONA"
 90
        0
280
           0
281
           1
  0
CLASS
  1
DICTIONARYVAR
  2
AcDbDictionaryVar
  3
"AutoCAD"
 90
        0
280
           0
281
           0
  0
CLASS
  1
RASTERVARIABLES
  2
AcDbRasterVariables
  3
ISM
 90
        0
280
           0
281
           0
  0
CLASS
  1
IMAGEDEF
  2
AcDbRasterImageDef
  3
ISM
 90
        0
280
           0
281
           0
  0
CLASS
  1
IMAGEDEF_REACTOR
  2
AcDbRasterImageDefReactor
  3
ISM
 90
        1
280
           0
281
           0
  0
CLASS
  1
IDBUFFER
  2
AcDbIdBuffer
  3
"Acad"
 90
        0
280
           0
281
           0
  0
CLASS
  1
SPATIAL_FILTER
  2
AcDbSpatialFilter
  3
"Acad"
 90
        0
280
           0
281
           0
  0
CLASS
  1
XRECORD
  2
AcDbXrecord
  3
"<Built In>"
 90
        0
280
           0
281
           0
  0
CLASS
  1
SORTENTSTABLE
  2
AcDbSortentsTable
  3
"AutoCAD"
 90
        0
280
           0
281
           0
  0
CLASS
  1
LAYER_INDEX
  2
AcDbLayerIndex
  3
"Acad"
 90
        0
280
           0
281
           0
  0
CLASS
  1
SPATIAL_INDEX
  2
AcDbSpatialIndex
  3
"Acad"
 90
        0
280
           0
281
           0
  0
CLASS
  1
OBJECT_PTR
  2
CAseDLPNTableRecord
  3
"ASE-LPNTableRecord"
 90
        1
280
           0
281
           0
  0
CLASS
  1
LAYOUT
  2
AcDbLayout
  3
"AutoCAD 2000"
 90
        1
280
           0
281
           0
  0
CLASS
  1
PLOTSETTINGS
  2
AcDbPlotSettings
  3
"AutoCAD 2000"
 90
        1
280
           0
281
           0
  0
CLASS
  1
ACDBDICTIONARYWDFLT
  2
AcDbDictionaryWithDefault
  3
"AutoCAD 2000"
 90
        1
280
           0
281
           0
  0
CLASS
  1
ACDBPLACEHOLDER
  2
AcDbPlaceHolder
  3
"AutoCAD 2000"
 90
        1
280
           0
281
           0
  0
CLASS
  1
VBA_PROJECT
  2
AcDbVbaProject
  3
"acadvba"
 90
        1
280
           0
281
           0
  0
CLASS
  1
WIPEOUT
  2
AcDbWipeout
  3
WipeOut|AutoCAD Express Tool|expresstools@autodesk.com
 90
      127
280
           0
281
           1
  0
CLASS
  1
WIPEOUTVARIABLES
  2
AcDbWipeoutVariables
  3
WipeOut|AutoCAD Express Tool|expresstools@autodesk.com
 90
        0
280
           0
281
           0
  0
CLASS
  1
RTEXT
  2
RText
  3
RText|AutoCAD Express Tool|expresstools@autodesk.com
 90
        0
280
           0
281
           1
  0
CLASS
  1
ARCALIGNEDTEXT
  2
AcDbArcAlignedText
  3
ATEXT|AutoCAD Express Tool|expresstools@autodesk.com
 90
        0
280
           0
281
           1
  0
ENDSEC
  0
SECTION
  2
TABLES
  0
TABLE
  2
VPORT
  5
7
100
AcDbSymbolTable
 70
           1
  0
VPORT
  5
15
100
AcDbSymbolTableRecord
100
AcDbViewportTableRecord
  2
*ACTIVE
 70
           0
 10
0.0
 20
0.0
 11
1.0
 21
1.0
 12
6.591288
 22
4.579184
 13
0.0
 23
0.0
 14
1.0
 24
1.0
 15
0.0
 25
0.0
 16
0.0
 26
0.0
 36
1.0
 17
0.0
 27
0.0
 37
0.0
 40
9.158369
 41
0.688564
 42
50.0
 43
0.0
 44
0.0
 50
0.0
 51
0.0
 71
           0
 72
         100
 73
           1
 74
           1
 75
           0
 76
           0
 77
           0
 78
           0
  0
ENDTAB
  0
TABLE
  2
LTYPE
  5
4
100
AcDbSymbolTable
 70
          10
  0
LTYPE
  5
11
100
AcDbSymbolTableRecord
100
AcDbLinetypeTableRecord
  2
BYBLOCK
 70
          64
  3

 72
          65
 73
           0
 40
0.0
  0
LTYPE
  5
12
100
AcDbSymbolTableRecord
100
AcDbLinetypeTableRecord
  2
BYLAYER
 70
          64
  3

 72
          65
 73
           0
 40
0.0
  0
LTYPE
  5
13
100
AcDbSymbolTableRecord
100
AcDbLinetypeTableRecord
  2
CONTINUOUS
 70
          64
  3
Solid line
 72
          65
 73
           0
 40
0.0
  0
LTYPE
  5
1D
100
AcDbSymbolTableRecord
100
AcDbLinetypeTableRecord
  2
DASHED
 70
          64
  3
Dashed
 72
          65
 73
           2
 40
15.0
 49
12.0
 74
           0
 49
-3.0
 74
           0
  0
LTYPE
  5
1E
100
AcDbSymbolTableRecord
100
AcDbLinetypeTableRecord
  2
DOTTED
 70
          64
  3
Dotted
 72
          65
 73
           2
 40
3.5
 49
0.5
 74
           0
 49
-3.0
 74
           0
  0
LTYPE
  5
1F
100
AcDbSymbolTableRecord
100
AcDbLinetypeTableRecord
  2
DOT_CENTER
 70
          64
  3
Dot_Center
 72
          65
 73
           4
 40
2.0
 49
1.25
 74
           0
 49
-0.25
 74
           0
 49
0.25
 74
           0
 49
-0.25
 74
           0
  0
LTYPE
  5
20
100
AcDbSymbolTableRecord
100
AcDbLinetypeTableRecord
  2
LONG_DASHED
 70
          64
  3
Long_Dashed
 72
          65
 73
           2
 40
2.0
 49
1.5
 74
           0
 49
-0.5
 74
           0
  0
LTYPE
  5
21
100
AcDbSymbolTableRecord
100
AcDbLinetypeTableRecord
  2
DASH_CENTER
 70
          64
  3
Dash_Center
 72
          65
 73
           4
 40
36.0
 49
24.0
 74
           0
 49
-3.0
 74
           0
 49
6.0
 74
           0
 49
-3.0
 74
           0
  0
LTYPE
  5
22
100
AcDbSymbolTableRecord
100
AcDbLinetypeTableRecord
  2
PHANTOM
 70
          64
  3
Phantom
 72
          65
 73
           6
 40
2.5
 49
1.25
 74
           0
 49
-0.25
 74
           0
 49
0.25
 74
           0
 49
-0.25
 74
           0
 49
0.25
 74
           0
 49
-0.25
 74
           0
  0
LTYPE
  5
23
100
AcDbSymbolTableRecord
100
AcDbLinetypeTableRecord
  2
CENTER_DASH_DASH
 70
          64
  3
Center_Dash_Dash
 72
          65
 73
           6
 40
22.0
 49
12.0
 74
           0
 49
-3.0
 74
           0
 49
0.5
 74
           0
 49
-3.0
 74
           0
 49
0.5
 74
           0
 49
-3.0
 74
           0
  0
ENDTAB
  0
TABLE
  2
LAYER
  5
2
100
AcDbSymbolTable
 70
           4
  0
LAYER
  5
14
100
AcDbSymbolTableRecord
100
AcDbLayerTableRecord
  2
0
 70
           0
 62
           7
  6
CONTINUOUS
  0
LAYER
  5
24
100
AcDbSymbolTableRecord
100
AcDbLayerTableRecord
  2
MITTELLINIEN
 70
           0
 62
           7
  6
CONTINUOUS
  0
LAYER
  5
25
100
AcDbSymbolTableRecord
100
AcDbLayerTableRecord
  2
1
 70
           0
 62
           7
  6
CONTINUOUS
  0
LAYER
  5
26
100
AcDbSymbolTableRecord
100
AcDbLayerTableRecord
  2
WANNE
 70
           0
 62
           7
  6
CONTINUOUS
  0
ENDTAB
  0
TABLE
  2
STYLE
  5
3
100
AcDbSymbolTable
 70
           2
  0
STYLE
  5
17
100
AcDbSymbolTableRecord
100
AcDbTextStyleTableRecord
  2
STANDARD
 70
           0
 40
0.0
 41
1.0
 50
0.0
 71
           0
 42
0.0
  3
txt
  4

  0
STYLE
  5
102
100
AcDbSymbolTableRecord
100
AcDbTextStyleTableRecord
  2
CONVERTER_1
 70
           0
 40
0.0
 41
0.71262
 50
0.0
 71
           0
 42
0.0
  3
txt.shx
  4

  0
ENDTAB
  0
TABLE
  2
VIEW
  5
5
100
AcDbSymbolTable
 70
           0
  0
ENDTAB
  0
TABLE
  2
UCS
  5
6
100
AcDbSymbolTable
 70
           0
  0
ENDTAB
  0
TABLE
  2
APPID
  5
8
100
AcDbSymbolTable
 70
           1
  0
APPID
  5
16
100
AcDbSymbolTableRecord
100
AcDbRegAppTableRecord
  2
ACAD
 70
           0
  0
ENDTAB
  0
TABLE
  2
DIMSTYLE
  5
9
100
AcDbSymbolTable
 70
           1
  0
DIMSTYLE
105
18
100
AcDbSymbolTableRecord
100
AcDbDimStyleTableRecord
  2
STANDARD
 70
           0
  3

  4

  5

  6

  7

 40
1.0
 41
0.18
 42
0.0625
 43
0.38
 44
0.18
 45
0.0
 46
0.0
 47
0.0
 48
0.0
 71
           0
 72
           0
 73
           1
 74
           1
 75
           0
 76
           0
 77
           0
 78
           0
140
0.18
141
0.09
142
0.0
143
25.4
144
1.0
145
0.0
146
1.0
147
0.09
170
           0
171
           2
172
           0
173
           0
174
           0
175
           0
176
           0
177
           0
178
           0
270
           2
271
           4
272
           4
273
           2
274
           2
275
           0
280
           0
281
           0
282
           0
283
           1
284
           0
285
           0
286
           0
287
           0
288
           0
340
17
  0
ENDTAB
  0
TABLE
  2
BLOCK_RECORD
  5
1
100
AcDbSymbolTable
 70
           2
  0
BLOCK_RECORD
  5
A
100
AcDbSymbolTableRecord
100
AcDbBlockTableRecord
  2
*MODEL_SPACE
  0
BLOCK_RECORD
  5
B
100
AcDbSymbolTableRecord
100
AcDbBlockTableRecord
  2
*PAPER_SPACE
  0
BLOCK_RECORD
  5
27
100
AcDbSymbolTableRecord
100
AcDbBlockTableRecord
  2
DLX
  0
BLOCK_RECORD
  5
29
100
AcDbSymbolTableRecord
100
AcDbBlockTableRecord
  2
WANNE_PRIME_LINE_252
  0
ENDTAB
  0
ENDSEC
  0
SECTION
  2
BLOCKS
  0
BLOCK
  5
D
100
AcDbEntity
  8
0
100
AcDbBlockBegin
  2
*MODEL_SPACE
 70
           0
 10
0.0
 20
0.0
 30
0.0
  3
*MODEL_SPACE
  1

  0
ENDBLK
  5
E
100
AcDbEntity
  8
0
100
AcDbBlockEnd
  0
BLOCK
  5
F
100
AcDbEntity
 67
           1
  8
0
100
AcDbBlockBegin
  2
*PAPER_SPACE
 70
           0
 10
0.0
 20
0.0
 30
0.0
  3
*PAPER_SPACE
  1

  0
ENDBLK
  5
10
100
AcDbEntity
 67
           1
  8
0
100
AcDbBlockEnd
  0
BLOCK
  5
28
100
AcDbEntity
  8
0
100
AcDbBlockBegin
  2
DLX
 70
           0
 10
0.0
 20
0.0
 30
0.0
  3
DLX
  1

  0
CIRCLE
  5
E2
100
AcDbEntity
  8
1
  6
CONTINUOUS
 62
           3
100
AcDbCircle
 10
1268.89968408563
 20
815.878787878754
 40
5.530127989697
  0
CIRCLE
  5
E1
100
AcDbEntity
  8
1
  6
CONTINUOUS
 62
           3
100
AcDbCircle
 10
1268.89968408563
 20
815.878787878754
 40
5.972862778755
  0
ARC
  5
E0
100
AcDbEntity
  8
1
  6
CONTINUOUS
 62
           3
100
AcDbCircle
 10
1269.67839563929
 20
814.362233682225
 40
1.391870091328
100
AcDbArc
 50
-1.298612665717
 51
66.544866494083
  0
ARC
  5
DF
100
AcDbEntity
  8
1
  6
CONTINUOUS
 62
           3
100
AcDbCircle
 10
1268.9530024528
 20
814.053039389822
 40
1.155889798231
100
AcDbArc
 50
0.985058170486
 51
82.918254632932
  0
ARC
  5
DE
100
AcDbEntity
  8
1
  6
CONTINUOUS
 62
           3
100
AcDbCircle
 10
1269.028185090995
 20
817.264025930551
 40
1.257687287768
100
AcDbArc
 50
-74.800419047022
 51
80.931395238749
  0
ARC
  5
DD
100
AcDbEntity
  8
1
  6
CONTINUOUS
 62
           3
100
AcDbCircle
 10
1269.106502917009
 20
817.303919921381
 40
2.009798008862
100
AcDbArc
 50
-55.929988464572
 51
86.297888718258
  0
LINE
  5
DC
100
AcDbEntity
  8
1
  6
CONTINUOUS
 62
           3
100
AcDbLine
 10
1267.370444983393
 20
818.505992531278
 11
1267.370444983393
 21
816.050334541275
  0
LINE
  5
DB
100
AcDbEntity
  8
1
  6
CONTINUOUS
 62
           3
100
AcDbLine
 10
1269.226417975479
 20
818.505992531278
 11
1267.370444983393
 21
818.505992531278
  0
LINE
  5
DA
100
AcDbEntity
  8
1
  6
CONTINUOUS
 62
           3
100
AcDbLine
 10
1267.370444983393
 20
816.050334541275
 11
1269.357928211335
 21
816.050334541275
  0
LINE
  5
D9
100
AcDbEntity
  8
1
  6
CONTINUOUS
 62
           3
100
AcDbLine
 10
1267.370444983393
 20
812.451055788281
 11
1266.497997284277
 21
812.451055788281
  0
LINE
  5
D8
100
AcDbEntity
  8
1
  6
CONTINUOUS
 62
           3
100
AcDbLine
 10
1269.095506685011
 20
815.200111213841
 11
1267.370444983393
 21
815.200111213841
  0
LINE
  5
D7
100
AcDbEntity
  8
1
  6
CONTINUOUS
 62
           3
100
AcDbLine
 10
1270.10872142493
 20
812.451055788281
 11
1270.10872142493
 21
814.0729110559
  0
LINE
  5
D6
100
AcDbEntity
  8
1
  6
CONTINUOUS
 62
           3
100
AcDbLine
 10
1271.069908240436
 20
812.451055788281
 11
1270.10872142493
 21
812.451055788281
  0
LINE
  5
D5
100
AcDbEntity
  8
1
  6
CONTINUOUS
 62
           3
100
AcDbLine
 10
1271.069908240436
 20
814.330689554626
 11
1271.069908240436
 21
812.451055788281
  0
LINE
  5
D4
100
AcDbEntity
  8
1
  6
CONTINUOUS
 62
           3
100
AcDbLine
 10
1268.939917143517
 20
819.309523963456
 11
1269.236273725869
 21
819.309523963456
  0
LINE
  5
D3
100
AcDbEntity
  8
1
  6
CONTINUOUS
 62
           3
100
AcDbLine
 10
1266.497997284277
 20
819.309523963456
 11
1268.939917143517
 21
819.309523963456
  0
LINE
  5
D2
100
AcDbEntity
  8
1
  6
CONTINUOUS
 62
           3
100
AcDbLine
 10
1266.497997284277
 20
812.451055788281
 11
1266.497997284277
 21
819.309523963456
  0
LINE
  5
D1
100
AcDbEntity
  8
1
  6
CONTINUOUS
 62
           3
100
AcDbLine
 10
1267.370444983393
 20
815.200111213841
 11
1267.370444983393
 21
812.451055788281
  0
LINE
  5
D0
100
AcDbEntity
  8
1
  6
CONTINUOUS
 62
           3
100
AcDbLine
 10
1222.849209696723
 20
821.38450847832
 11
1220.755132619109
 21
821.38450847832
  0
LINE
  5
CF
100
AcDbEntity
  8
1
  6
CONTINUOUS
 62
           3
100
AcDbLine
 10
1220.13927454876
 20
810.323902417793
 11
1222.849209696723
 21
821.38450847832
  0
LINE
  5
CE
100
AcDbEntity
  8
1
  6
CONTINUOUS
 62
           3
100
AcDbLine
 10
1230.609659936781
 20
810.323902417793
 11
1220.13927454876
 21
810.323902417793
  0
LINE
  5
CD
100
AcDbEntity
  8
1
  6
CONTINUOUS
 62
           3
100
AcDbLine
 10
1230.06767290712
 20
808.111781205662
 11
1230.609659936781
 21
810.323902417793
  0
LINE
  5
CC
100
AcDbEntity
  8
1
  6
CONTINUOUS
 62
           3
100
AcDbLine
 10
1217.503210441541
 20
808.111781205662
 11
1230.06767290712
 21
808.111781205662
  0
LINE
  5
CB
100
AcDbEntity
  8
1
  6
CONTINUOUS
 62
           3
100
AcDbLine
 10
1220.755132619109
 20
821.38450847832
 11
1217.503210441541
 21
808.111781205662
  0
LINE
  5
CA
100
AcDbEntity
  8
1
  6
CONTINUOUS
 62
           3
100
AcDbLine
 10
1207.308462564252
 20
812.536023629844
 11
1211.064177703618
 21
819.172387266269
  0
LINE
  5
C9
100
AcDbEntity
  8
1
  6
CONTINUOUS
 62
           3
100
AcDbLine
 10
1212.120980848907
 20
819.172387266269
 11
1211.064177703618
 21
819.172387266269
  0
LINE
  5
C8
100
AcDbEntity
  8
1
  6
CONTINUOUS
 62
           3
100
AcDbLine
 10
1212.624773810763
 20
812.536023629844
 11
1212.120980848907
 21
819.172387266269
  0
LINE
  5
C7
100
AcDbEntity
  8
1
  6
CONTINUOUS
 62
           3
100
AcDbLine
 10
1207.308462564252
 20
812.536023629844
 11
1212.624773810763
 21
812.536023629844
  0
LINE
  5
C6
100
AcDbEntity
  8
1
  6
CONTINUOUS
 62
           3
100
AcDbLine
 10
1204.804652471358
 20
808.111781205662
 11
1202.425855482786
 21
808.111781205662
  0
LINE
  5
C5
100
AcDbEntity
  8
1
  6
CONTINUOUS
 62
           3
100
AcDbLine
 10
1206.05655751772
 20
810.323902417793
 11
1204.804652471358
 21
808.111781205662
  0
LINE
  5
C4
100
AcDbEntity
  8
1
  6
CONTINUOUS
 62
           3
100
AcDbLine
 10
1212.792704798084
 20
810.323902417793
 11
1206.05655751772
 21
810.323902417793
  0
LINE
  5
C3
100
AcDbEntity
  8
1
  6
CONTINUOUS
 62
           3
100
AcDbLine
 10
1212.960635785351
 20
808.111781205662
 11
1212.792704798084
 21
810.323902417793
  0
LINE
  5
C2
100
AcDbEntity
  8
1
  6
CONTINUOUS
 62
           3
100
AcDbLine
 10
1214.99031794842
 20
808.111781205662
 11
1212.960635785351
 21
808.111781205662
  0
LINE
  5
C1
100
AcDbEntity
  8
1
  6
CONTINUOUS
 62
           3
100
AcDbLine
 10
1213.982732024658
 20
821.38450847832
 11
1214.99031794842
 21
808.111781205662
  0
LINE
  5
C0
100
AcDbEntity
  8
1
  6
CONTINUOUS
 62
           3
100
AcDbLine
 10
1209.937285761683
 20
821.38450847832
 11
1213.982732024658
 21
821.38450847832
  0
LINE
  5
BF
100
AcDbEntity
  8
1
  6
CONTINUOUS
 62
           3
100
AcDbLine
 10
1202.425855482786
 20
808.111781205662
 11
1209.937285761683
 21
821.38450847832
  0
LINE
  5
BE
100
AcDbEntity
  8
1
  6
CONTINUOUS
 62
           3
100
AcDbLine
 10
1189.442577601753
 20
808.111781205662
 11
1187.348500524192
 21
808.111781205662
  0
LINE
  5
BD
100
AcDbEntity
  8
1
  6
CONTINUOUS
 62
           3
100
AcDbLine
 10
1192.248579898681
 20
819.564485538597
 11
1189.442577601753
 21
808.111781205662
  0
LINE
  5
BC
100
AcDbEntity
  8
1
  6
CONTINUOUS
 62
           3
100
AcDbLine
 10
1192.889128165192
 20
817.905394629534
 11
1192.248579898681
 21
819.564485538597
  0
LINE
  5
BB
100
AcDbEntity
  8
1
  6
CONTINUOUS
 62
           3
100
AcDbLine
 10
1196.670284500902
 20
808.111781205662
 11
1192.889128165192
 21
817.905394629534
  0
LINE
  5
BA
100
AcDbEntity
  8
1
  6
CONTINUOUS
 62
           3
100
AcDbLine
 10
1199.91296298967
 20
808.111781205662
 11
1196.670284500902
 21
808.111781205662
  0
LINE
  5
B9
100
AcDbEntity
  8
1
  6
CONTINUOUS
 62
           3
100
AcDbLine
 10
1203.16488516729
 20
821.38450847832
 11
1199.91296298967
 21
808.111781205662
  0
LINE
  5
B8
100
AcDbEntity
  8
1
  6
CONTINUOUS
 62
           3
100
AcDbLine
 10
1201.070808089676
 20
821.38450847832
 11
1203.16488516729
 21
821.38450847832
  0
LINE
  5
B7
100
AcDbEntity
  8
1
  6
CONTINUOUS
 62
           3
100
AcDbLine
 10
1198.225376184323
 20
809.770872114746
 11
1201.070808089676
 21
821.38450847832
  0
LINE
  5
B6
100
AcDbEntity
  8
1
  6
CONTINUOUS
 62
           3
100
AcDbLine
 10
1193.741538318048
 20
821.38450847832
 11
1198.225376184323
 21
809.770872114746
  0
LINE
  5
B5
100
AcDbEntity
  8
1
  6
CONTINUOUS
 62
           3
100
AcDbLine
 10
1190.600422701708
 20
821.38450847832
 11
1193.741538318048
 21
821.38450847832
  0
LINE
  5
B4
100
AcDbEntity
  8
1
  6
CONTINUOUS
 62
           3
100
AcDbLine
 10
1187.348500524192
 20
808.111781205662
 11
1190.600422701708
 21
821.38450847832
  0
LINE
  5
B3
100
AcDbEntity
  8
1
  6
CONTINUOUS
 62
           3
100
AcDbLine
 10
1188.087530208592
 20
821.38450847832
 11
1185.993453131028
 21
821.38450847832
  0
LINE
  5
B2
100
AcDbEntity
  8
1
  6
CONTINUOUS
 62
           3
100
AcDbLine
 10
1185.993453131028
 20
821.38450847832
 11
1182.741530953462
 21
808.111781205662
  0
LINE
  5
B1
100
AcDbEntity
  8
1
  6
CONTINUOUS
 62
           3
100
AcDbLine
 10
1184.835608031023
 20
808.111781205662
 11
1188.087530208592
 21
821.38450847832
  0
LINE
  5
B0
100
AcDbEntity
  8
1
  6
CONTINUOUS
 62
           3
100
AcDbLine
 10
1182.741530953462
 20
808.111781205662
 11
1184.835608031023
 21
808.111781205662
  0
LINE
  5
AF
100
AcDbEntity
  8
1
  6
CONTINUOUS
 62
           3
100
AcDbLine
 10
1180.248310798216
 20
816.739053932891
 11
1182.342387875742
 21
816.739053932891
  0
LINE
  5
AE
100
AcDbEntity
  8
1
  6
CONTINUOUS
 62
           3
100
AcDbLine
 10
1179.218535442066
 20
812.536023629844
 11
1178.676548412298
 21
810.323902417793
  0
LINE
  5
AD
100
AcDbEntity
  8
1
  6
CONTINUOUS
 62
           3
100
AcDbLine
 10
1175.030381286665
 20
812.536023629844
 11
1179.218535442066
 21
812.536023629844
  0
LINE
  5
AC
100
AcDbEntity
  8
1
  6
CONTINUOUS
 62
           3
100
AcDbLine
 10
1175.572368316313
 20
814.748144842033
 11
1175.030381286665
 21
812.536023629844
  0
LINE
  5
AB
100
AcDbEntity
  8
1
  6
CONTINUOUS
 62
           3
100
AcDbLine
 10
1181.854599549118
 20
814.748144842033
 11
1180.228638460346
 21
808.111781205662
  0
LINE
  5
AA
100
AcDbEntity
  8
1
  6
CONTINUOUS
 62
           3
100
AcDbLine
 10
1181.854599549118
 20
814.748144842033
 11
1175.572368316313
 21
814.748144842033
  0
LINE
  5
A9
100
AcDbEntity
  8
1
  6
CONTINUOUS
 62
           3
100
AcDbLine
 10
1170.300240101969
 20
810.323902417793
 11
1172.468188220296
 21
819.172387266269
  0
LINE
  5
A8
100
AcDbEntity
  8
1
  6
CONTINUOUS
 62
           3
100
AcDbLine
 10
1172.468188220296
 20
819.172387266269
 11
1180.844496530593
 21
819.172387266269
  0
LINE
  5
A7
100
AcDbEntity
  8
1
  6
CONTINUOUS
 62
           3
100
AcDbLine
 10
1180.844496530593
 20
819.172387266269
 11
1180.248310798216
 21
816.739053932891
  0
LINE
  5
A6
100
AcDbEntity
  8
1
  6
CONTINUOUS
 62
           3
100
AcDbLine
 10
1178.676548412298
 20
810.323902417793
 11
1170.300240101969
 21
810.323902417793
  0
LINE
  5
A5
100
AcDbEntity
  8
1
  6
CONTINUOUS
 62
           3
100
AcDbLine
 10
1180.228638460346
 20
808.111781205662
 11
1167.664175994734
 21
808.111781205662
  0
LINE
  5
A4
100
AcDbEntity
  8
1
  6
CONTINUOUS
 62
           3
100
AcDbLine
 10
1183.480560637868
 20
821.38450847832
 11
1182.342387875742
 21
816.739053932891
  0
LINE
  5
A3
100
AcDbEntity
  8
1
  6
CONTINUOUS
 62
           3
100
AcDbLine
 10
1170.916098172277
 20
821.38450847832
 11
1183.480560637868
 21
821.38450847832
  0
LINE
  5
A2
100
AcDbEntity
  8
1
  6
CONTINUOUS
 62
           3
100
AcDbLine
 10
1167.664175994734
 20
808.111781205662
 11
1170.916098172277
 21
821.38450847832
  0
LINE
  5
A1
100
AcDbEntity
  8
1
  6
CONTINUOUS
 62
           3
100
AcDbLine
 10
1165.151283501749
 20
808.111781205662
 11
1168.403205679158
 21
821.38450847832
  0
LINE
  5
A0
100
AcDbEntity
  8
1
  6
CONTINUOUS
 62
           3
100
AcDbLine
 10
1163.057206424029
 20
808.111781205662
 11
1165.151283501749
 21
808.111781205662
  0
LINE
  5
9F
100
AcDbEntity
  8
1
  6
CONTINUOUS
 62
           3
100
AcDbLine
 10
1166.309128601595
 20
821.38450847832
 11
1163.057206424029
 21
808.111781205662
  0
LINE
  5
9E
100
AcDbEntity
  8
1
  6
CONTINUOUS
 62
           3
100
AcDbLine
 10
1168.403205679158
 20
821.38450847832
 11
1166.309128601595
 21
821.38450847832
  0
LINE
  5
9D
100
AcDbEntity
  8
1
  6
CONTINUOUS
 62
           3
100
AcDbLine
 10
1150.073928542991
 20
808.111781205662
 11
1151.157902602102
 21
812.536023629844
  0
LINE
  5
9C
100
AcDbEntity
  8
1
  6
CONTINUOUS
 62
           3
100
AcDbLine
 10
1147.979851465315
 20
808.111781205662
 11
1150.073928542991
 21
808.111781205662
  0
LINE
  5
9B
100
AcDbEntity
  8
1
  6
CONTINUOUS
 62
           3
100
AcDbLine
 10
1161.492032317011
 20
811.979895810781
 11
1160.544313930899
 21
808.111781205662
  0
LINE
  5
9A
100
AcDbEntity
  8
1
  6
CONTINUOUS
 62
           3
100
AcDbLine
 10
1152.783863690878
 20
819.172387266269
 11
1151.699889631694
 21
814.748144842033
  0
LINE
  5
99
100
AcDbEntity
  8
1
  6
CONTINUOUS
 62
           3
100
AcDbLine
 10
1161.160172001396
 20
819.172387266269
 11
1152.783863690878
 21
819.172387266269
  0
LINE
  5
98
100
AcDbEntity
  8
1
  6
CONTINUOUS
 62
           3
100
AcDbLine
 10
1160.076197942074
 20
814.748144842033
 11
1161.160172001396
 21
819.172387266269
  0
LINE
  5
97
100
AcDbEntity
  8
1
  6
CONTINUOUS
 62
           3
100
AcDbLine
 10
1151.699889631694
 20
814.748144842033
 11
1160.076197942074
 21
814.748144842033
  0
LINE
  5
96
100
AcDbEntity
  8
1
  6
CONTINUOUS
 62
           3
100
AcDbLine
 10
1159.534210912632
 20
812.536023629844
 11
1151.157902602102
 21
812.536023629844
  0
LINE
  5
95
100
AcDbEntity
  8
1
  6
CONTINUOUS
 62
           3
100
AcDbLine
 10
1158.450236853259
 20
808.111781205662
 11
1159.534210912632
 21
812.536023629844
  0
LINE
  5
94
100
AcDbEntity
  8
1
  6
CONTINUOUS
 62
           3
100
AcDbLine
 10
1160.544313930899
 20
808.111781205662
 11
1158.450236853259
 21
808.111781205662
  0
LINE
  5
93
100
AcDbEntity
  8
1
  6
CONTINUOUS
 62
           3
100
AcDbLine
 10
1163.796236108431
 20
821.38450847832
 11
1161.928711998578
 21
813.762204858332
  0
LINE
  5
92
100
AcDbEntity
  8
1
  6
CONTINUOUS
 62
           3
100
AcDbLine
 10
1151.231773642852
 20
821.38450847832
 11
1163.796236108431
 21
821.38450847832
  0
LINE
  5
91
100
AcDbEntity
  8
1
  6
CONTINUOUS
 62
           3
100
AcDbLine
 10
1151.231773642852
 20
821.38450847832
 11
1147.979851465315
 21
808.111781205662
  0
LINE
  5
90
100
AcDbEntity
  8
1
  6
CONTINUOUS
 62
           3
100
AcDbLine
 10
1135.538560613826
 20
810.323902417793
 11
1137.706508732167
 21
819.172387266269
  0
LINE
  5
8F
100
AcDbEntity
  8
1
  6
CONTINUOUS
 62
           3
100
AcDbLine
 10
1137.706508732167
 20
819.172387266269
 11
1146.082817042657
 21
819.172387266269
  0
LINE
  5
8E
100
AcDbEntity
  8
1
  6
CONTINUOUS
 62
           3
100
AcDbLine
 10
1146.082817042657
 20
819.172387266269
 11
1143.914868924181
 21
810.323902417793
  0
LINE
  5
8D
100
AcDbEntity
  8
1
  6
CONTINUOUS
 62
           3
100
AcDbLine
 10
1143.914868924181
 20
810.323902417793
 11
1135.538560613826
 21
810.323902417793
  0
LINE
  5
8C
100
AcDbEntity
  8
1
  6
CONTINUOUS
 62
           3
100
AcDbLine
 10
1145.466958972185
 20
808.111781205662
 11
1132.90249650666
 21
808.111781205662
  0
LINE
  5
8B
100
AcDbEntity
  8
1
  6
CONTINUOUS
 62
           3
100
AcDbLine
 10
1148.718881149859
 20
821.38450847832
 11
1145.466958972185
 21
808.111781205662
  0
LINE
  5
8A
100
AcDbEntity
  8
1
  6
CONTINUOUS
 62
           3
100
AcDbLine
 10
1136.154418684141
 20
821.38450847832
 11
1148.718881149859
 21
821.38450847832
  0
LINE
  5
89
100
AcDbEntity
  8
1
  6
CONTINUOUS
 62
           3
100
AcDbLine
 10
1132.90249650666
 20
808.111781205662
 11
1136.154418684141
 21
821.38450847832
  0
LINE
  5
88
100
AcDbEntity
  8
1
  6
CONTINUOUS
 62
           3
100
AcDbLine
 10
1276.4933119999
 20
765.0
 11
1223.90251058109
 21
765.0
  0
LINE
  5
87
100
AcDbEntity
  8
1
  6
CONTINUOUS
 62
           3
100
AcDbLine
 10
1274.092639633381
 20
771.193939393909
 11
1231.283490081208
 21
771.193939393909
  0
LINE
  5
86
100
AcDbEntity
  8
1
  6
CONTINUOUS
 62
           3
100
AcDbLine
 10
1274.092639633381
 20
771.193939393909
 11
1276.4933119999
 21
765.0
  0
LINE
  5
85
100
AcDbEntity
  8
1
  6
CONTINUOUS
 62
           3
100
AcDbLine
 10
1266.8506395566
 20
789.878917066823
 11
1264.070786432643
 21
797.051175145079
  0
LINE
  5
84
100
AcDbEntity
  8
1
  6
CONTINUOUS
 62
           3
100
AcDbLine
 10
1272.447865736886
 20
797.051175145079
 11
1266.8506395566
 21
789.878917066823
  0
LINE
  5
83
100
AcDbEntity
  8
1
  6
CONTINUOUS
 62
           3
100
AcDbLine
 10
1276.493311999944
 20
797.051175145079
 11
1272.447865736886
 21
797.051175145079
  0
LINE
  5
82
100
AcDbEntity
  8
1
  6
CONTINUOUS
 62
           3
100
AcDbLine
 10
1268.193081954861
 20
786.415301218603
 11
1276.493311999944
 21
797.051175145079
  0
LINE
  5
81
100
AcDbEntity
  8
1
  6
CONTINUOUS
 62
           3
100
AcDbLine
 10
1273.063780047866
 20
773.848484848477
 11
1268.193081954861
 21
786.415301218603
  0
LINE
  5
80
100
AcDbEntity
  8
1
  6
CONTINUOUS
 62
           3
100
AcDbLine
 10
1269.018333784817
 20
773.848484848477
 11
1273.063780047866
 21
773.848484848477
  0
LINE
  5
7F
100
AcDbEntity
  8
1
  6
CONTINUOUS
 62
           3
100
AcDbLine
 10
1265.490078090133
 20
782.951685370502
 11
1269.018333784817
 21
773.848484848477
  0
LINE
  5
7E
100
AcDbEntity
  8
1
  6
CONTINUOUS
 62
           3
100
AcDbLine
 10
1258.385945510031
 20
773.848484848477
 11
1265.490078090133
 21
782.951685370502
  0
LINE
  5
7D
100
AcDbEntity
  8
1
  6
CONTINUOUS
 62
           3
100
AcDbLine
 10
1254.340499247035
 20
773.848484848477
 11
1258.385945510031
 21
773.848484848477
  0
LINE
  5
7C
100
AcDbEntity
  8
1
  6
CONTINUOUS
 62
           3
100
AcDbLine
 10
1264.147635691824
 20
786.415301218661
 11
1254.340499247035
 21
773.848484848477
  0
LINE
  5
7B
100
AcDbEntity
  8
1
  6
CONTINUOUS
 62
           3
100
AcDbLine
 10
1260.025340169628
 20
797.051175145079
 11
1264.147635691824
 21
786.415301218661
  0
LINE
  5
7A
100
AcDbEntity
  8
1
  6
CONTINUOUS
 62
           3
100
AcDbLine
 10
1264.070786432643
 20
797.051175145079
 11
1260.025340169628
 21
797.051175145079
  0
LINE
  5
79
100
AcDbEntity
  8
1
  6
CONTINUOUS
 62
           3
100
AcDbLine
 10
1247.042062288583
 20
797.051175145079
 11
1241.806869594661
 21
797.051175145079
  0
LINE
  5
78
100
AcDbEntity
  8
1
  6
CONTINUOUS
 62
           3
100
AcDbLine
 10
1242.441195425231
 20
778.272727272797
 11
1247.042062288583
 21
797.051175145079
  0
LINE
  5
77
100
AcDbEntity
  8
1
  6
CONTINUOUS
 62
           3
100
AcDbLine
 10
1247.676388119183
 20
778.272727272797
 11
1242.441195425231
 21
778.272727272797
  0
LINE
  5
76
100
AcDbEntity
  8
1
  6
CONTINUOUS
 62
           3
100
AcDbLine
 10
1252.277254982578
 20
797.051175145079
 11
1247.676388119183
 21
778.272727272797
  0
LINE
  5
75
100
AcDbEntity
  8
1
  6
CONTINUOUS
 62
           3
100
AcDbLine
 10
1257.512447676502
 20
797.051175145079
 11
1252.277254982578
 21
797.051175145079
  0
LINE
  5
74
100
AcDbEntity
  8
1
  6
CONTINUOUS
 62
           3
100
AcDbLine
 10
1251.827606753893
 20
773.848484848477
 11
1257.512447676502
 21
797.051175145079
  0
LINE
  5
73
100
AcDbEntity
  8
1
  6
CONTINUOUS
 62
           3
100
AcDbLine
 10
1236.122028671972
 20
773.848484848477
 11
1251.827606753893
 21
773.848484848477
  0
LINE
  5
72
100
AcDbEntity
  8
1
  6
CONTINUOUS
 62
           3
100
AcDbLine
 10
1241.806869594661
 20
797.051175145079
 11
1236.122028671972
 21
773.848484848477
  0
LINE
  5
71
100
AcDbEntity
  8
1
  6
CONTINUOUS
 62
           3
100
AcDbLine
 10
1234.465234770032
 20
808.111781205662
 11
1223.90251058109
 21
765.0
  0
LINE
  5
70
100
AcDbEntity
  8
1
  6
CONTINUOUS
 62
           3
100
AcDbLine
 10
1240.3286505873
 20
808.111781205662
 11
1234.465234770032
 21
808.111781205662
  0
LINE
  5
6F
100
AcDbEntity
  8
1
  6
CONTINUOUS
 62
           3
100
AcDbLine
 10
1231.283490081208
 20
771.193939393909
 11
1240.3286505873
 21
808.111781205662
  0
LINE
  5
6E
100
AcDbEntity
  8
1
  6
CONTINUOUS
 62
           3
100
AcDbLine
 10
1096.163808847693
 20
765.0
 11
1104.016597888748
 21
797.051175145079
  0
LINE
  5
6D
100
AcDbEntity
  8
1
  6
CONTINUOUS
 62
           3
100
AcDbLine
 10
1104.016597888748
 20
797.051175145079
 11
1110.298829121445
 21
797.051175145079
  0
LINE
  5
6C
100
AcDbEntity
  8
1
  6
CONTINUOUS
 62
           3
100
AcDbLine
 10
1110.298829121445
 20
797.051175145079
 11
1103.530014139756
 21
769.424242424182
  0
LINE
  5
6B
100
AcDbEntity
  8
1
  6
CONTINUOUS
 62
           3
100
AcDbLine
 10
1103.530014139756
 20
769.424242424182
 11
1108.765206833635
 21
769.424242424182
  0
LINE
  5
6A
100
AcDbEntity
  8
1
  6
CONTINUOUS
 62
           3
100
AcDbLine
 10
1108.765206833635
 20
769.424242424182
 11
1116.888989389517
 21
802.581478175404
  0
LINE
  5
69
100
AcDbEntity
  8
1
  6
CONTINUOUS
 62
           3
100
AcDbLine
 10
1116.888989389517
 20
802.581478175404
 11
1099.197893544984
 21
802.581478175404
  0
LINE
  5
68
100
AcDbEntity
  8
1
  6
CONTINUOUS
 62
           3
100
AcDbLine
 10
1099.197893544984
 20
802.581478175404
 11
1100.552861118969
 21
808.111781205662
  0
LINE
  5
67
100
AcDbEntity
  8
1
  6
CONTINUOUS
 62
           3
100
AcDbLine
 10
1100.552861118969
 20
808.111781205662
 11
1124.526188196261
 21
808.111781205662
  0
LINE
  5
66
100
AcDbEntity
  8
1
  6
CONTINUOUS
 62
           3
100
AcDbLine
 10
1124.526188196261
 20
808.111781205662
 11
1113.963464007341
 21
765.0
  0
LINE
  5
65
100
AcDbEntity
  8
1
  6
CONTINUOUS
 62
           3
100
AcDbLine
 10
1113.963464007341
 20
765.0
 11
1096.163808847693
 21
765.0
  0
LINE
  5
64
100
AcDbEntity
  8
1
  6
CONTINUOUS
 62
           3
100
AcDbLine
 10
1118.151618162468
 20
765.0
 11
1126.004407203461
 21
797.051175145079
  0
LINE
  5
63
100
AcDbEntity
  8
1
  6
CONTINUOUS
 62
           3
100
AcDbLine
 10
1126.004407203461
 20
797.051175145079
 11
1132.286638436271
 21
797.051175145079
  0
LINE
  5
62
100
AcDbEntity
  8
1
  6
CONTINUOUS
 62
           3
100
AcDbLine
 10
1132.286638436271
 20
797.051175145079
 11
1125.517823454476
 21
769.424242424182
  0
LINE
  5
61
100
AcDbEntity
  8
1
  6
CONTINUOUS
 62
           3
100
AcDbLine
 10
1125.517823454476
 20
769.424242424182
 11
1130.75301614846
 21
769.424242424182
  0
LINE
  5
60
100
AcDbEntity
  8
1
  6
CONTINUOUS
 62
           3
100
AcDbLine
 10
1130.75301614846
 20
769.424242424182
 11
1137.521831130266
 21
797.051175145079
  0
LINE
  5
5F
100
AcDbEntity
  8
1
  6
CONTINUOUS
 62
           3
100
AcDbLine
 10
1135.951273322058
 20
765.0
 11
1118.151618162468
 21
765.0
  0
LINE
  5
5E
100
AcDbEntity
  8
1
  6
CONTINUOUS
 62
           3
100
AcDbLine
 10
1137.521831130266
 20
797.051175145079
 11
1143.804062363073
 21
797.051175145079
  0
LINE
  5
5D
100
AcDbEntity
  8
1
  6
CONTINUOUS
 62
           3
100
AcDbLine
 10
1143.804062363073
 20
797.051175145079
 11
1135.951273322058
 21
765.0
  0
LINE
  5
5C
100
AcDbEntity
  8
1
  6
CONTINUOUS
 62
           3
100
AcDbLine
 10
1164.744833139007
 20
797.051175145079
 11
1147.992216518236
 21
797.051175145079
  0
LINE
  5
5B
100
AcDbEntity
  8
1
  6
CONTINUOUS
 62
           3
100
AcDbLine
 10
1147.992216518236
 20
797.051175145079
 11
1143.391349654844
 21
778.272727272797
  0
LINE
  5
5A
100
AcDbEntity
  8
1
  6
CONTINUOUS
 62
           3
100
AcDbLine
 10
1143.391349654844
 20
778.272727272797
 11
1153.86173504281
 21
778.272727272797
  0
LINE
  5
59
100
AcDbEntity
  8
1
  6
CONTINUOUS
 62
           3
100
AcDbLine
 10
1153.86173504281
 20
778.272727272797
 11
1151.693786924392
 21
769.424242424182
  0
LINE
  5
58
100
AcDbEntity
  8
1
  6
CONTINUOUS
 62
           3
100
AcDbLine
 10
1151.693786924392
 20
769.424242424182
 11
1141.223401536481
 21
769.424242424182
  0
LINE
  5
57
100
AcDbEntity
  8
1
  6
CONTINUOUS
 62
           3
100
AcDbLine
 10
1141.223401536481
 20
769.424242424182
 11
1140.139427477173
 21
765.0
  0
LINE
  5
56
100
AcDbEntity
  8
1
  6
CONTINUOUS
 62
           3
100
AcDbLine
 10
1140.139427477173
 20
765.0
 11
1156.892044097996
 21
765.0
  0
LINE
  5
55
100
AcDbEntity
  8
1
  6
CONTINUOUS
 62
           3
100
AcDbLine
 10
1156.892044097996
 20
765.0
 11
1161.22794033492
 21
782.696969696953
  0
LINE
  5
54
100
AcDbEntity
  8
1
  6
CONTINUOUS
 62
           3
100
AcDbLine
 10
1161.22794033492
 20
782.696969696953
 11
1150.757554946856
 21
782.696969696953
  0
LINE
  5
53
100
AcDbEntity
  8
1
  6
CONTINUOUS
 62
           3
100
AcDbLine
 10
1150.757554946856
 20
782.696969696953
 11
1153.190473691869
 21
792.626932720838
  0
LINE
  5
52
100
AcDbEntity
  8
1
  6
CONTINUOUS
 62
           3
100
AcDbLine
 10
1153.190473691869
 20
792.626932720838
 11
1163.660859079849
 21
792.626932720838
  0
LINE
  5
51
100
AcDbEntity
  8
1
  6
CONTINUOUS
 62
           3
100
AcDbLine
 10
1163.660859079849
 20
792.626932720838
 11
1164.744833139007
 21
797.051175145079
  0
LINE
  5
50
100
AcDbEntity
  8
1
  6
CONTINUOUS
 62
           3
100
AcDbLine
 10
1182.975668767015
 20
785.990569084413
 11
1185.685603914946
 21
797.051175145079
  0
LINE
  5
4F
100
AcDbEntity
  8
1
  6
CONTINUOUS
 62
           3
100
AcDbLine
 10
1185.685603914946
 20
797.051175145079
 11
1168.932987294225
 21
797.051175145079
  0
LINE
  5
4E
100
AcDbEntity
  8
1
  6
CONTINUOUS
 62
           3
100
AcDbLine
 10
1168.932987294225
 20
797.051175145079
 11
1161.080198253232
 21
765.0
  0
LINE
  5
4D
100
AcDbEntity
  8
1
  6
CONTINUOUS
 62
           3
100
AcDbLine
 10
1161.080198253232
 20
765.0
 11
1177.832814873985
 21
765.0
  0
LINE
  5
4C
100
AcDbEntity
  8
1
  6
CONTINUOUS
 62
           3
100
AcDbLine
 10
1177.832814873985
 20
765.0
 11
1180.54275002196
 21
776.060606060608
  0
LINE
  5
4B
100
AcDbEntity
  8
1
  6
CONTINUOUS
 62
           3
100
AcDbLine
 10
1180.54275002196
 20
776.060606060608
 11
1174.260518789172
 21
776.060606060608
  0
LINE
  5
4A
100
AcDbEntity
  8
1
  6
CONTINUOUS
 62
           3
100
AcDbLine
 10
1174.260518789172
 20
776.060606060608
 11
1172.634557700384
 21
769.424242424182
  0
LINE
  5
49
100
AcDbEntity
  8
1
  6
CONTINUOUS
 62
           3
100
AcDbLine
 10
1172.634557700384
 20
769.424242424182
 11
1168.446403545181
 21
769.424242424182
  0
LINE
  5
48
100
AcDbEntity
  8
1
  6
CONTINUOUS
 62
           3
100
AcDbLine
 10
1168.446403545181
 20
769.424242424182
 11
1174.131244467811
 21
792.626932720838
  0
LINE
  5
47
100
AcDbEntity
  8
1
  6
CONTINUOUS
 62
           3
100
AcDbLine
 10
1174.131244467811
 20
792.626932720838
 11
1178.319398623003
 21
792.626932720838
  0
LINE
  5
46
100
AcDbEntity
  8
1
  6
CONTINUOUS
 62
           3
100
AcDbLine
 10
1178.319398623003
 20
792.626932720838
 11
1176.693437534209
 21
785.990569084413
  0
LINE
  5
45
100
AcDbEntity
  8
1
  6
CONTINUOUS
 62
           3
100
AcDbLine
 10
1176.693437534209
 20
785.990569084413
 11
1182.975668767015
 21
785.990569084413
  0
LINE
  5
44
100
AcDbEntity
  8
1
  6
CONTINUOUS
 62
           3
100
AcDbLine
 10
1182.020969029166
 20
765.0
 11
1188.303200261954
 21
765.0
  0
LINE
  5
43
100
AcDbEntity
  8
1
  6
CONTINUOUS
 62
           3
100
AcDbLine
 10
1198.77358565003
 20
765.0
 11
1206.626374691044
 21
797.051175145079
  0
LINE
  5
42
100
AcDbEntity
  8
1
  6
CONTINUOUS
 62
           3
100
AcDbLine
 10
1192.491354417133
 20
765.0
 11
1195.875761908027
 21
778.813466360341
  0
LINE
  5
41
100
AcDbEntity
  8
1
  6
CONTINUOUS
 62
           3
100
AcDbLine
 10
1188.303200261954
 20
765.0
 11
1191.687607752839
 21
778.813466360341
  0
LINE
  5
40
100
AcDbEntity
  8
1
  6
CONTINUOUS
 62
           3
100
AcDbLine
 10
1189.873758070159
 20
797.051175145079
 11
1182.020969029166
 21
765.0
  0
LINE
  5
3F
100
AcDbEntity
  8
1
  6
CONTINUOUS
 62
           3
100
AcDbLine
 10
1206.626374691044
 20
797.051175145079
 11
1200.344143458129
 21
797.051175145079
  0
LINE
  5
3E
100
AcDbEntity
  8
1
  6
CONTINUOUS
 62
           3
100
AcDbLine
 10
1202.961739805155
 20
765.0
 11
1219.714356425964
 21
765.0
  0
LINE
  5
3D
100
AcDbEntity
  8
1
  6
CONTINUOUS
 62
           3
100
AcDbLine
 10
1214.516099252261
 20
769.424242424182
 11
1210.327945097161
 21
769.424242424182
  0
LINE
  5
3C
100
AcDbEntity
  8
1
  6
CONTINUOUS
 62
           3
100
AcDbLine
 10
1210.814528846152
 20
797.051175145079
 11
1202.961739805155
 21
765.0
  0
LINE
  5
3B
100
AcDbEntity
  8
1
  6
CONTINUOUS
 62
           3
100
AcDbLine
 10
1210.327945097161
 20
769.424242424182
 11
1216.012786019736
 21
792.626932720838
  0
LINE
  5
3A
100
AcDbEntity
  8
1
  6
CONTINUOUS
 62
           3
100
AcDbLine
 10
1227.567145466982
 20
797.051175145079
 11
1210.814528846152
 21
797.051175145079
  0
LINE
  5
39
100
AcDbEntity
  8
1
  6
CONTINUOUS
 62
           3
100
AcDbLine
 10
1216.012786019736
 20
792.626932720838
 11
1220.200940174985
 21
792.626932720838
  0
LINE
  5
38
100
AcDbEntity
  8
1
  6
CONTINUOUS
 62
           3
100
AcDbLine
 10
1220.200940174985
 20
792.626932720838
 11
1214.516099252261
 21
769.424242424182
  0
LINE
  5
37
100
AcDbEntity
  8
1
  6
CONTINUOUS
 62
           3
100
AcDbLine
 10
1227.567145466982
 20
797.051175145079
 11
1219.714356425964
 21
765.0
  0
LINE
  5
36
100
AcDbEntity
  8
1
  6
CONTINUOUS
 62
           3
100
AcDbLine
 10
1196.155989303025
 20
797.051175145079
 11
1189.873758070159
 21
797.051175145079
  0
LINE
  5
35
100
AcDbEntity
  8
1
  6
CONTINUOUS
 62
           3
100
AcDbLine
 10
1192.491354417133
 20
765.0
 11
1198.77358565003
 21
765.0
  0
LINE
  5
34
100
AcDbEntity
  8
1
  6
CONTINUOUS
 62
           3
100
AcDbLine
 10
1191.687607752839
 20
778.813466360341
 11
1195.875761908027
 21
778.813466360341
  0
LINE
  5
33
100
AcDbEntity
  8
1
  6
CONTINUOUS
 62
           3
100
AcDbLine
 10
1192.771581812008
 20
783.237708784527
 11
1196.959735967247
 21
783.237708784527
  0
LINE
  5
32
100
AcDbEntity
  8
1
  6
CONTINUOUS
 62
           3
100
AcDbLine
 10
1192.771581812008
 20
783.237708784527
 11
1196.155989303025
 21
797.051175145079
  0
LINE
  5
31
100
AcDbEntity
  8
1
  6
CONTINUOUS
 62
           3
100
AcDbLine
 10
1196.959735967247
 20
783.237708784527
 11
1200.344143458129
 21
797.051175145079
  0
LINE
  5
30
100
AcDbEntity
  8
1
  6
CONTINUOUS
 62
           3
100
AcDbLine
 10
1161.928711998578
 20
813.762204858332
 11
1161.196629229631
 21
812.978447872362
  0
LINE
  5
2F
100
AcDbEntity
  8
1
  6
CONTINUOUS
 62
           3
100
AcDbLine
 10
1161.492032317011
 20
811.979895810781
 11
1161.196629229631
 21
812.978447872362
  0
ENDBLK
  5
E3
100
AcDbEntity
  8
0
100
AcDbBlockEnd
  0
BLOCK
  5
2A
100
AcDbEntity
  8
0
100
AcDbBlockBegin
  2
WANNE_PRIME_LINE_252
 70
           0
 10
0.0
 20
0.0
 30
0.0
  3
WANNE_PRIME_LINE_252
  1

  0
ARC
  5
FF
100
AcDbEntity
  8
1
  6
CONTINUOUS
 62
           7
100
AcDbCircle
 10
170.0
 20
558.176922749504
 40
50.0
100
AcDbArc
 50
180.0
 51
-111.801409476148
  0
ARC
  5
FE
100
AcDbEntity
  8
1
  6
CONTINUOUS
 62
           7
100
AcDbCircle
 10
170.0
 20
840.0
 40
50.0
100
AcDbArc
 50
90.0
 51
180.0
  0
ARC
  5
FD
100
AcDbEntity
  8
1
  6
CONTINUOUS
 62
           7
100
AcDbCircle
 10
1068.090226132906
 20
306.644128616884
 40
150.0
100
AcDbArc
 50
-111.801409476148
 51
-30.529092160362
  0
ARC
  5
FC
100
AcDbEntity
  8
1
  6
CONTINUOUS
 62
           7
100
AcDbCircle
 10
1250.000000999898
 20
790.0
 40
100.0
100
AcDbArc
 50
0.000000800942
 51
90.0
  0
ARC
  5
FB
100
AcDbEntity
  8
1
  6
CONTINUOUS
 62
           7
100
AcDbCircle
 10
100.0
 20
521.554944816415
 40
50.0
100
AcDbArc
 50
180.0
 51
-111.801409476149
  0
ARC
  5
FA
100
AcDbEntity
  8
1
  6
CONTINUOUS
 62
           7
100
AcDbCircle
 10
1028.887362520752
 20
150.0
 40
50.0
100
AcDbArc
 50
-111.801409476147
 51
-90.0
  0
ARC
  5
F9
100
AcDbEntity
  8
1
  6
CONTINUOUS
 62
           7
100
AcDbCircle
 10
1500.0
 20
150.0
 40
50.0
100
AcDbArc
 50
-90.0
 51
0.0
  0
ARC
  5
F8
100
AcDbEntity
  8
1
  6
CONTINUOUS
 62
           7
100
AcDbCircle
 10
1500.0
 20
900.0
 40
50.0
100
AcDbArc
 50
0.0
 51
90.0
  0
ARC
  5
F7
100
AcDbEntity
  8
1
  6
CONTINUOUS
 62
           7
100
AcDbCircle
 10
100.0
 20
900.0
 40
50.0
100
AcDbArc
 50
90.0
 51
180.0
  0
SPLINE
  5
F6
100
AcDbEntity
  8
1
  6
CONTINUOUS
 62
           7
100
AcDbSpline
210
0.0
220
0.0
230
1.0
 70
           0
 71
           3
 72
          41
 73
          38
 74
          77
 42
0.00000000001
 43
0.00000000001
 44
0.00000000001
 40
-1.8732400406157694
 40
-0.0595164091871538
 40
1.7542072222414427
 40
3.6869471104627554
 40
5.9420188427611835
 40
8.6386337926945185
 40
11.806927740586815
 40
15.414858804864945
 40
19.393799186612604
 40
23.65201964895676
 40
28.083253779420282
 40
32.573045066099908
 40
37.004279196564298
 40
41.26249965890716
 40
45.241440040654339
 40
48.849371104933084
 40
52.017665052825379
 40
54.714280002759082
 40
56.969351735057927
 40
58.902091623279404
 40
60.715815254707984
 40
62.648555142929219
 40
64.903626875227644
 40
67.600241825161362
 40
70.768535773053671
 40
74.376466837331932
 40
78.355407219079495
 40
82.613627681422429
 40
87.044861811886136
 40
91.534653098566835
 40
95.965887229030926
 40
100.22410769137477
 40
104.20304807312293
 40
107.81097913740044
 40
110.97927308529191
 40
113.67588803522541
 40
115.93095976752491
 40
117.86369965574644
 40
119.67742328717458
 40
121.49114691860319
 40
123.30487055003179
 10
529.82475797045709
 20
315.6521038603355
 30
0.0
 10
530.89429386482311
 20
317.11692002008567
 30
0.0
 10
532.6624908346239
 20
318.15768068161651
 30
0.0
 10
535.03349857410194
 20
318.80728864987191
 30
0.0
 10
537.95624012211806
 20
319.07352691636902
 30
0.0
 10
541.355814339463
 20
318.95201011796257
 30
0.0
 10
545.13613325952497
 20
318.44537817438408
 30
0.0
 10
549.18581611775403
 20
317.567398433883
 30
0.0
 10
553.38371577727207
 20
316.3434938748012
 30
0.0
 10
557.60350606665997
 20
314.81000252773651
 30
0.0
 10
561.71798815347393
 20
313.01298751521131
 30
0.0
 10
565.60324887010097
 20
311.00673402052172
 30
0.0
 10
569.1427096666439
 20
308.8519725611759
 30
0.0
 10
572.23106707770899
 20
306.61377338211219
 30
0.0
 10
574.77812707114003
 20
304.3589215950995
 30
0.0
 10
576.71244544359297
 20
302.15172577120029
 30
0.0
 10
577.98277150632407
 20
300.04698352868331
 30
0.0
 10
578.54673131675008
 20
298.0742563273634
 30
0.0
 10
578.31219644954808
 20
296.27576062059347
 30
0.0
 10
577.24266055518001
 20
294.81094446084512
 30
0.0
 10
575.47446358537991
 20
293.77018379931292
 30
0.0
 10
573.10345584590209
 20
293.12057583105712
 30
0.0
 10
570.18071429788506
 20
292.85433756456018
 30
0.0
 10
566.78114008054104
 20
292.97585436296731
 30
0.0
 10
563.00082116047793
 20
293.48248630654598
 30
0.0
 10
558.95113830225
 20
294.36046604704597
 30
0.0
 10
554.75323864273309
 20
295.58437060612778
 30
0.0
 10
550.53344835334406
 20
297.1178619531936
 30
0.0
 10
546.41896626652897
 20
298.91487696571789
 30
0.0
 10
542.53370554990306
 20
300.92113046040691
 30
0.0
 10
538.99424475335809
 20
303.07589191975558
 30
0.0
 10
535.90588734229391
 20
305.31409109881838
 30
0.0
 10
533.35882734886309
 20
307.56894288582947
 30
0.0
 10
531.42450897641106
 20
309.77613870972891
 30
0.0
 10
530.15418291367905
 20
311.88088095224538
 30
0.0
 10
529.59022310325395
 20
313.85360815356688
 30
0.0
 10
529.82475797045709
 20
315.6521038603355
 30
0.0
 10
530.89429386482311
 20
317.11692002008567
 30
0.0
 11
530.34253760880097
 21
316.36124507329612
 31
0.0
 11
530.96036736892245
 21
317.04808307233361
 31
0.0
 11
531.71034413724249
 21
317.59724717586698
 31
0.0
 11
532.69440220391914
 21
318.0915325868113
 31
0.0
 11
533.74228300918605
 21
318.45352180814518
 31
0.0
 11
535.04665508270523
 21
318.74945023192902
 31
0.0
 11
536.37734017343064
 21
318.92970181982696
 31
0.0
 11
537.95889163878417
 21
319.02336653388898
 31
0.0
 11
539.54574613747025
 21
319.01671048299102
 31
0.0
 11
541.35272925053164
 21
318.90795309838205
 31
0.0
 11
543.1535421857302
 21
318.71108167461193
 31
0.0
 11
545.1295328389084
 21
318.40577755833698
 31
0.0
 11
547.09232265085348
 21
318.02127220996772
 31
0.0
 11
549.17673228549006
 21
317.53092491716961
 31
0.0
 11
551.24297425559882
 21
316.96763059094474
 31
0.0
 11
553.37254187197527
 21
316.30909985533577
 31
0.0
 11
555.47976167775801
 21
315.58178108079596
 31
0.0
 11
557.59025613662868
 21
314.77684585006506
 31
0.0
 11
559.67425073543711
 21
313.90559726399147
 31
0.0
 11
561.70238120154761
 21
312.98036501092179
 31
0.0
 11
563.69929776380559
 21
311.98988774927307
 31
0.0
 11
565.5846943243082
 21
310.97404514993127
 31
0.0
 11
567.43298179322494
 21
309.89282480940835
 31
0.0
 11
569.12020053451943
 21
308.81872931652958
 31
0.0
 11
570.76240101156475
 21
307.67814733435796
 31
0.0
 11
572.20293951193003
 21
306.57972373025814
 31
0.0
 11
573.58722288073727
 21
305.41320082245022
 31
0.0
 11
574.74163650475077
 21
304.32440300480687
 31
0.0
 11
575.82306899598586
 21
303.16656800657825
 31
0.0
 11
576.66305150361654
 21
302.11888349657829
 31
0.0
 11
577.40424613129449
 21
301.00551443733428
 31
0.0
 11
577.91406106958721
 21
300.02104549059038
 31
0.0
 11
578.2864551344062
 21
298.98470046766045
 31
0.0
 11
578.45141408573249
 21
298.06991365642682
 31
0.0
 11
578.42573857502384
 21
297.14644150331992
 31
0.0
 11
578.21113707133077
 21
296.31614553803507
 31
0.0
 11
577.79441681120318
 21
295.56661940763365
 31
0.0
 11
577.17658705108101
 21
294.87978140859673
 31
0.0
 11
576.42661028276098
 21
294.33061730506313
 31
0.0
 11
575.44255221608455
 21
293.83633189411825
 31
0.0
 11
574.39467141081786
 21
293.47434267278408
 31
0.0
 11
573.09029933729869
 21
293.17841424900013
 31
0.0
 11
571.75961424657271
 21
292.99816266110213
 31
0.0
 11
570.17806278121907
 21
292.90449794704023
 31
0.0
 11
568.59120828253333
 21
292.91115399793853
 31
0.0
 11
566.78422516947217
 21
293.01991138254778
 31
0.0
 11
564.98341223427315
 21
293.21678280631807
 31
0.0
 11
563.00742158109472
 21
293.52208692259296
 31
0.0
 11
561.04463176914965
 21
293.90659227096182
 31
0.0
 11
558.96022213451386
 21
294.39693956375947
 31
0.0
 11
556.89398016440612
 21
294.96023388998412
 31
0.0
 11
554.76441254802978
 21
295.61876462559331
 31
0.0
 11
552.65719274224671
 21
296.34608340013347
 31
0.0
 11
550.54669828337524
 21
297.15101863086477
 31
0.0
 11
548.46270368456601
 21
298.0222672169383
 31
0.0
 11
546.43457321845551
 21
298.94749947000741
 31
0.0
 11
544.4376566561981
 21
299.93797673165568
 31
0.0
 11
542.5522600956956
 21
300.95381933099787
 31
0.0
 11
540.70397262677807
 21
302.03503967152176
 31
0.0
 11
539.0167538854829
 21
303.10913516440161
 31
0.0
 11
537.37455340843735
 21
304.2497171465734
 31
0.0
 11
535.93401490807275
 21
305.34814075067243
 31
0.0
 11
534.54973153926574
 21
306.51466365847944
 31
0.0
 11
533.39531791525235
 21
307.60346147612228
 31
0.0
 11
532.31388542401783
 21
308.76129647435073
 31
0.0
 11
531.47390291638726
 21
309.80898098435074
 31
0.0
 11
530.73270828870909
 21
310.92235004359446
 31
0.0
 11
530.22289335041614
 21
311.90681899033859
 31
0.0
 11
529.85049928559727
 21
312.94316401326921
 31
0.0
 11
529.68554033427154
 21
313.85795082450318
 31
0.0
 11
529.71121584498087
 21
314.78142297760979
 31
0.0
 11
529.93006442588376
 21
315.61753565962283
 31
0.0
 11
530.35952591763998
 21
316.38451194021047
 31
0.0
 11
530.62690989123155
 21
316.75071598014813
 31
0.0
 11
530.3595259176401
 21
316.38451194021059
 31
0.0
 11
530.08789486683884
 21
316.01249118354445
 31
0.0
 11
530.34253760880097
 21
316.36124507329617
 31
0.0
  0
CIRCLE
  5
F5
100
AcDbEntity
  8
WANNE
  6
CONTINUOUS
 62
           7
100
AcDbCircle
 10
620.849742407983
 20
475.259583163963
 40
26.0
  0
CIRCLE
  5
F4
100
AcDbEntity
  8
WANNE
  6
CONTINUOUS
 62
           7
100
AcDbCircle
 10
620.849742407978
 20
475.259583163963
 40
45.0
  0
ARC
  5
F3
100
AcDbEntity
  8
1
  6
CONTINUOUS
 62
           7
100
AcDbCircle
 10
248.466751001331
 20
789.999985999492
 40
1101.533249998568
100
AcDbArc
 50
-30.529092160362
 51
0.000000800942
  0
LINE
  5
F2
100
AcDbEntity
  8
1
  6
CONTINUOUS
 62
           7
100
AcDbLine
 10
1012.381624704593
 20
167.372624974174
 11
151.430466190562
 21
511.753088201934
  0
LINE
  5
F1
100
AcDbEntity
  8
1
  6
CONTINUOUS
 62
           7
100
AcDbLine
 10
170.0
 20
890.0
 11
1250.000000999898
 21
890.0
  0
LINE
  5
F0
100
AcDbEntity
  8
1
  6
CONTINUOUS
 62
           7
100
AcDbLine
 10
120.0
 20
558.176922749504
 11
120.0
 21
840.0
  0
LINE
  5
EF
100
AcDbEntity
  8
1
  6
CONTINUOUS
 62
           7
100
AcDbLine
 10
1010.317828711315
 20
103.57616545243
 11
81.430466190562
 21
475.131110268846
  0
LINE
  5
EE
100
AcDbEntity
  8
1
  6
CONTINUOUS
 62
           7
100
AcDbLine
 10
1500.0
 20
100.0
 11
1028.887362520752
 21
100.0
  0
LINE
  5
ED
100
AcDbEntity
  8
1
  6
CONTINUOUS
 62
           7
100
AcDbLine
 10
1550.0
 20
900.0
 11
1550.0
 21
150.0
  0
LINE
  5
EC
100
AcDbEntity
  8
1
  6
CONTINUOUS
 62
           7
100
AcDbLine
 10
50.0
 20
521.554944816415
 11
50.0
 21
900.0
  0
LINE
  5
EB
100
AcDbEntity
  8
1
  6
CONTINUOUS
 62
           7
100
AcDbLine
 10
100.0
 20
950.0
 11
1500.0
 21
950.0
  0
LINE
  5
EA
100
AcDbEntity
  8
WANNE
  6
CONTINUOUS
 62
           7
100
AcDbLine
 10
1000.000000200981
 20
0.0
 11
0.0
 21
399.999999873817
  0
LINE
  5
E9
100
AcDbEntity
  8
WANNE
  6
CONTINUOUS
 62
           7
100
AcDbLine
 10
0.0
 20
399.999999873817
 11
0.0
 21
1000.0
  0
LINE
  5
E8
100
AcDbEntity
  8
WANNE
  6
CONTINUOUS
 62
           7
100
AcDbLine
 10
0.0
 20
1000.0
 11
1600.0
 21
1000.0
  0
LINE
  5
E7
100
AcDbEntity
  8
WANNE
  6
CONTINUOUS
 62
           7
100
AcDbLine
 10
1600.0
 20
1000.0
 11
1600.0
 21
0.0
  0
LINE
  5
E6
100
AcDbEntity
  8
WANNE
  6
CONTINUOUS
 62
           7
100
AcDbLine
 10
1600.0
 20
0.0
 11
1000.000000200981
 21
0.0
  0
LINE
  5
E5
100
AcDbEntity
  8
MITTELLINIEN
  6
DOT_CENTER
 62
           3
100
AcDbLine
 10
620.849742407978
 20
409.581564163962
 11
620.849742407978
 21
539.249538163961
  0
LINE
  5
E4
100
AcDbEntity
  8
MITTELLINIEN
  6
DOT_CENTER
 62
           3
100
AcDbLine
 10
686.52776140799
 20
475.259583163963
 11
556.85978740798
 21
475.259583163963
  0
ENDBLK
  5
100
100
AcDbEntity
  8
0
100
AcDbBlockEnd
  0
ENDSEC
  0
SECTION
  2
ENTITIES
  0
TEXT
  5
104
100
AcDbEntity
  8
1
 62
           3
100
AcDbText
 10
670.849742407978
 20
525.259583163964
 40
35.0
  1
ø 52
 41
0.71262
  7
CONVERTER_1
100
AcDbText
  0
MTEXT
  5
103
100
AcDbEntity
  8
1
 62
           2
100
AcDbMText
 10
1276.493311999899
 20
675.000000000001
 30
0.0
 40
35.0
 41
0.0
 71
           9
 72
           1
  1
Prime-line 252
  7
CONVERTER_1
  0
INSERT
  5
2D
100
AcDbEntity
  8
0
100
AcDbBlockReference
  2
DLX
 10
0.0
 20
0.0
  0
INSERT
  5
2E
100
AcDbEntity
  8
0
100
AcDbBlockReference
  2
WANNE_PRIME_LINE_252
 10
0.0
 20
0.0
  0
ENDSEC
  0
SECTION
  2
OBJECTS
  0
DICTIONARY
  5
19
100
AcDbDictionary
  3
ACAD_GROUP
350
1A
  3
ACAD_MLINESTYLE
350
1B
  0
DICTIONARY
  5
1A
102
{ACAD_REACTORS
330
19
102
}
100
AcDbDictionary
  0
DICTIONARY
  5
1B
102
{ACAD_REACTORS
330
19
102
}
100
AcDbDictionary
  3
STANDARD
350
1C
  0
MLINESTYLE
  5
1C
102
{ACAD_REACTORS
330
1B
102
}
100
AcDbMlineStyle
  2
STANDARD
 70
           0
  3

 62
           0
 51
90.0
 52
90.0
 71
           2
 49
0.5
 62
         256
  6
BYLAYER
 49
-0.5
 62
         256
  6
BYLAYER
  0
ENDSEC
  0
EOF
