  0
SECTION
  2
HEADER
  9
$ACADVER
  1
AC1014
  9
$ACADMAINTVER
 70
           0
  9
$DWGCODEPAGE
  3
ANSI_1252
  9
$INSBASE
 10
0.0
 20
0.0
 30
0.0
  9
$EXTMIN
 10
1.000000000000E+20
 20
1.000000000000E+20
 30
1.000000000000E+20
  9
$EXTMAX
 10
-1.000000000000E+20
 20
-1.000000000000E+20
 30
-1.000000000000E+20
  9
$LIMMIN
 10
0.0
 20
0.0
  9
$LIMMAX
 10
0.0
 20
0.0
  9
$ORTHOMODE
 70
           0
  9
$REGENMODE
 70
           1
  9
$FILLMODE
 70
           1
  9
$QTEXTMODE
 70
           0
  9
$MIRRTEXT
 70
           1
  9
$DRAGMODE
 70
           2
  9
$LTSCALE
 40
1.0
  9
$OSMODE
 70
           0
  9
$ATTMODE
 70
           1
  9
$TEXTSIZE
 40
0.2
  9
$TRACEWID
 40
0.05
  9
$TEXTSTYLE
  7
STANDARD
  9
$CLAYER
  8
0
  9
$CELTYPE
  6
CONTINUOUS
  9
$CECOLOR
 62
         256
  9
$CELTSCALE
 40
1.0
  9
$DELOBJ
 70
           1
  9
$DISPSILH
 70
           0
  9
$DIMSCALE
 40
1.0
  9
$DIMASZ
 40
0.18
  9
$DIMEXO
 40
0.0625
  9
$DIMDLI
 40
0.38
  9
$DIMRND
 40
0.0
  9
$DIMDLE
 40
0.0
  9
$DIMEXE
 40
0.18
  9
$DIMTP
 40
0.0
  9
$DIMTM
 40
0.0
  9
$DIMTXT
 40
0.18
  9
$DIMCEN
 40
0.09
  9
$DIMTSZ
 40
0.0
  9
$DIMTOL
 70
           0
  9
$DIMLIM
 70
           0
  9
$DIMTIH
 70
           1
  9
$DIMTOH
 70
           1
  9
$DIMSE1
 70
           0
  9
$DIMSE2
 70
           0
  9
$DIMTAD
 70
           0
  9
$DIMZIN
 70
           0
  9
$DIMBLK
  1

  9
$DIMASO
 70
           1
  9
$DIMSHO
 70
           1
  9
$DIMPOST
  1

  9
$DIMAPOST
  1

  9
$DIMALT
 70
           0
  9
$DIMALTD
 70
           2
  9
$DIMALTF
 40
25.4
  9
$DIMLFAC
 40
1.0
  9
$DIMTOFL
 70
           0
  9
$DIMTVP
 40
0.0
  9
$DIMTIX
 70
           0
  9
$DIMSOXD
 70
           0
  9
$DIMSAH
 70
           0
  9
$DIMBLK1
  1

  9
$DIMBLK2
  1

  9
$DIMSTYLE
  2
STANDARD
  9
$DIMCLRD
 70
           0
  9
$DIMCLRE
 70
           0
  9
$DIMCLRT
 70
           0
  9
$DIMTFAC
 40
1.0
  9
$DIMGAP
 40
0.09
  9
$DIMJUST
 70
           0
  9
$DIMSD1
 70
           0
  9
$DIMSD2
 70
           0
  9
$DIMTOLJ
 70
           1
  9
$DIMTZIN
 70
           0
  9
$DIMALTZ
 70
           0
  9
$DIMALTTZ
 70
           0
  9
$DIMFIT
 70
           3
  9
$DIMUPT
 70
           0
  9
$DIMUNIT
 70
           2
  9
$DIMDEC
 70
           4
  9
$DIMTDEC
 70
           4
  9
$DIMALTU
 70
           2
  9
$DIMALTTD
 70
           2
  9
$DIMTXSTY
  7
STANDARD
  9
$DIMAUNIT
 70
           0
  9
$LUNITS
 70
           2
  9
$LUPREC
 70
           4
  9
$SKETCHINC
 40
0.1
  9
$FILLETRAD
 40
0.0
  9
$AUNITS
 70
           0
  9
$AUPREC
 70
           0
  9
$MENU
  1
acad
  9
$ELEVATION
 40
0.0
  9
$PELEVATION
 40
0.0
  9
$THICKNESS
 40
0.0
  9
$LIMCHECK
 70
           0
  9
$BLIPMODE
 70
           1
  9
$CHAMFERA
 40
0.0
  9
$CHAMFERB
 40
0.0
  9
$CHAMFERC
 40
0.0
  9
$CHAMFERD
 40
0.0
  9
$SKPOLY
 70
           0
  9
$TDCREATE
 40
0.000000000
  9
$TDUPDATE
 40
0.000000000
  9
$TDINDWG
 40
0.0000000000
  9
$TDUSRTIMER
 40
0.0000000000
  9
$USRTIMER
 70
           1
  9
$ANGBASE
 50
0.0
  9
$ANGDIR
 70
           0
  9
$PDMODE
 70
           0
  9
$PDSIZE
 40
0.0
  9
$PLINEWID
 40
0.0
  9
$COORDS
 70
           0
  9
$SPLFRAME
 70
           0
  9
$SPLINETYPE
 70
           6
  9
$SPLINESEGS
 70
           8
  9
$ATTDIA
 70
           0
  9
$ATTREQ
 70
           1
  9
$HANDLING
 70
           1
  9
$HANDSEED
  5
10A
  9
$SURFTAB1
 70
           6
  9
$SURFTAB2
 70
           6
  9
$SURFTYPE
 70
           6
  9
$SURFU
 70
           6
  9
$SURFV
 70
           6
  9
$UCSNAME
  2

  9
$UCSORG
 10
0.0
 20
0.0
 30
0.0
  9
$UCSXDIR
 10
1.0
 20
0.0
 30
0.0
  9
$UCSYDIR
 10
0.0
 20
1.0
 30
0.0
  9
$PUCSNAME
  2

  9
$PUCSORG
 10
0.0
 20
0.0
 30
0.0
  9
$PUCSXDIR
 10
1.0
 20
0.0
 30
0.0
  9
$PUCSYDIR
 10
0.0
 20
1.0
 30
0.0
  9
$USERI1
 70
           0
  9
$USERI2
 70
           0
  9
$USERI3
 70
           0
  9
$USERI4
 70
           0
  9
$USERI5
 70
           0
  9
$USERR1
 40
0.0
  9
$USERR2
 40
0.0
  9
$USERR3
 40
0.0
  9
$USERR4
 40
0.0
  9
$USERR5
 40
0.0
  9
$WORLDVIEW
 70
           1
  9
$SHADEDGE
 70
           3
  9
$SHADEDIF
 70
          70
  9
$TILEMODE
 70
           1
  9
$MAXACTVP
 70
          16
  9
$PINSBASE
 10
0.0
 20
0.0
 30
0.0
  9
$PLIMCHECK
 70
           0
  9
$PEXTMIN
 10
1.000000000000E+20
 20
1.000000000000E+20
 30
1.000000000000E+20
  9
$PEXTMAX
 10
-1.000000000000E+20
 20
-1.000000000000E+20
 30
-1.000000000000E+20
  9
$PLIMMIN
 10
0.0
 20
0.0
  9
$PLIMMAX
 10
12.0
 20
9.0
  9
$UNITMODE
 70
           0
  9
$VISRETAIN
 70
           0
  9
$PLINEGEN
 70
           1
  9
$PSLTSCALE
 70
           0
  9
$TREEDEPTH
 70
        3020
  9
$PICKSTYLE
 70
           1
  9
$CMLSTYLE
  2
STANDARD
  9
$CMLJUST
 70
           0
  9
$CMLSCALE
 40
1.0
  9
$PROXYGRAPHICS
 70
           0
  9
$MEASUREMENT
 70
           0
  0
ENDSEC
  0
SECTION
  2
CLASSES
  0
CLASS
  1
LWPOLYLINE
  2
AcDbPolyline
  3
"AutoCAD"
 90
        0
280
           0
281
           1
  0
CLASS
  1
IMAGE
  2
AcDbRasterImage
  3
ISM
 90
      127
280
           0
281
           1
  0
CLASS
  1
OLE2FRAME
  2
AcDbOle2Frame
  3
""
 90
        0
280
           0
281
           1
  0
CLASS
  1
HATCH
  2
AcDbHatch
  3
"ACAD_SEDONA"
 90
        0
280
           0
281
           1
  0
CLASS
  1
DICTIONARYVAR
  2
AcDbDictionaryVar
  3
"AutoCAD"
 90
        0
280
           0
281
           0
  0
CLASS
  1
RASTERVARIABLES
  2
AcDbRasterVariables
  3
ISM
 90
        0
280
           0
281
           0
  0
CLASS
  1
IMAGEDEF
  2
AcDbRasterImageDef
  3
ISM
 90
        0
280
           0
281
           0
  0
CLASS
  1
IMAGEDEF_REACTOR
  2
AcDbRasterImageDefReactor
  3
ISM
 90
        1
280
           0
281
           0
  0
CLASS
  1
IDBUFFER
  2
AcDbIdBuffer
  3
"Acad"
 90
        0
280
           0
281
           0
  0
CLASS
  1
SPATIAL_FILTER
  2
AcDbSpatialFilter
  3
"Acad"
 90
        0
280
           0
281
           0
  0
CLASS
  1
XRECORD
  2
AcDbXrecord
  3
"<Built In>"
 90
        0
280
           0
281
           0
  0
CLASS
  1
SORTENTSTABLE
  2
AcDbSortentsTable
  3
"AutoCAD"
 90
        0
280
           0
281
           0
  0
CLASS
  1
LAYER_INDEX
  2
AcDbLayerIndex
  3
"Acad"
 90
        0
280
           0
281
           0
  0
CLASS
  1
SPATIAL_INDEX
  2
AcDbSpatialIndex
  3
"Acad"
 90
        0
280
           0
281
           0
  0
CLASS
  1
OBJECT_PTR
  2
CAseDLPNTableRecord
  3
"ASE-LPNTableRecord"
 90
        1
280
           0
281
           0
  0
CLASS
  1
LAYOUT
  2
AcDbLayout
  3
"AutoCAD 2000"
 90
        1
280
           0
281
           0
  0
CLASS
  1
PLOTSETTINGS
  2
AcDbPlotSettings
  3
"AutoCAD 2000"
 90
        1
280
           0
281
           0
  0
CLASS
  1
ACDBDICTIONARYWDFLT
  2
AcDbDictionaryWithDefault
  3
"AutoCAD 2000"
 90
        1
280
           0
281
           0
  0
CLASS
  1
ACDBPLACEHOLDER
  2
AcDbPlaceHolder
  3
"AutoCAD 2000"
 90
        1
280
           0
281
           0
  0
CLASS
  1
VBA_PROJECT
  2
AcDbVbaProject
  3
"acadvba"
 90
        1
280
           0
281
           0
  0
CLASS
  1
WIPEOUT
  2
AcDbWipeout
  3
WipeOut|AutoCAD Express Tool|expresstools@autodesk.com
 90
      127
280
           0
281
           1
  0
CLASS
  1
WIPEOUTVARIABLES
  2
AcDbWipeoutVariables
  3
WipeOut|AutoCAD Express Tool|expresstools@autodesk.com
 90
        0
280
           0
281
           0
  0
CLASS
  1
RTEXT
  2
RText
  3
RText|AutoCAD Express Tool|expresstools@autodesk.com
 90
        0
280
           0
281
           1
  0
CLASS
  1
ARCALIGNEDTEXT
  2
AcDbArcAlignedText
  3
ATEXT|AutoCAD Express Tool|expresstools@autodesk.com
 90
        0
280
           0
281
           1
  0
ENDSEC
  0
SECTION
  2
TABLES
  0
TABLE
  2
VPORT
  5
7
100
AcDbSymbolTable
 70
           1
  0
VPORT
  5
15
100
AcDbSymbolTableRecord
100
AcDbViewportTableRecord
  2
*ACTIVE
 70
           0
 10
0.0
 20
0.0
 11
1.0
 21
1.0
 12
6.591288
 22
4.579184
 13
0.0
 23
0.0
 14
1.0
 24
1.0
 15
0.0
 25
0.0
 16
0.0
 26
0.0
 36
1.0
 17
0.0
 27
0.0
 37
0.0
 40
9.158369
 41
0.688564
 42
50.0
 43
0.0
 44
0.0
 50
0.0
 51
0.0
 71
           0
 72
         100
 73
           1
 74
           1
 75
           0
 76
           0
 77
           0
 78
           0
  0
ENDTAB
  0
TABLE
  2
LTYPE
  5
4
100
AcDbSymbolTable
 70
          10
  0
LTYPE
  5
11
100
AcDbSymbolTableRecord
100
AcDbLinetypeTableRecord
  2
BYBLOCK
 70
          64
  3

 72
          65
 73
           0
 40
0.0
  0
LTYPE
  5
12
100
AcDbSymbolTableRecord
100
AcDbLinetypeTableRecord
  2
BYLAYER
 70
          64
  3

 72
          65
 73
           0
 40
0.0
  0
LTYPE
  5
13
100
AcDbSymbolTableRecord
100
AcDbLinetypeTableRecord
  2
CONTINUOUS
 70
          64
  3
Solid line
 72
          65
 73
           0
 40
0.0
  0
LTYPE
  5
1D
100
AcDbSymbolTableRecord
100
AcDbLinetypeTableRecord
  2
DASHED
 70
          64
  3
Dashed
 72
          65
 73
           2
 40
15.0
 49
12.0
 74
           0
 49
-3.0
 74
           0
  0
LTYPE
  5
1E
100
AcDbSymbolTableRecord
100
AcDbLinetypeTableRecord
  2
DOTTED
 70
          64
  3
Dotted
 72
          65
 73
           2
 40
3.5
 49
0.5
 74
           0
 49
-3.0
 74
           0
  0
LTYPE
  5
1F
100
AcDbSymbolTableRecord
100
AcDbLinetypeTableRecord
  2
DOT_CENTER
 70
          64
  3
Dot_Center
 72
          65
 73
           4
 40
2.0
 49
1.25
 74
           0
 49
-0.25
 74
           0
 49
0.25
 74
           0
 49
-0.25
 74
           0
  0
LTYPE
  5
20
100
AcDbSymbolTableRecord
100
AcDbLinetypeTableRecord
  2
LONG_DASHED
 70
          64
  3
Long_Dashed
 72
          65
 73
           2
 40
2.0
 49
1.5
 74
           0
 49
-0.5
 74
           0
  0
LTYPE
  5
21
100
AcDbSymbolTableRecord
100
AcDbLinetypeTableRecord
  2
DASH_CENTER
 70
          64
  3
Dash_Center
 72
          65
 73
           4
 40
36.0
 49
24.0
 74
           0
 49
-3.0
 74
           0
 49
6.0
 74
           0
 49
-3.0
 74
           0
  0
LTYPE
  5
22
100
AcDbSymbolTableRecord
100
AcDbLinetypeTableRecord
  2
PHANTOM
 70
          64
  3
Phantom
 72
          65
 73
           6
 40
2.5
 49
1.25
 74
           0
 49
-0.25
 74
           0
 49
0.25
 74
           0
 49
-0.25
 74
           0
 49
0.25
 74
           0
 49
-0.25
 74
           0
  0
LTYPE
  5
23
100
AcDbSymbolTableRecord
100
AcDbLinetypeTableRecord
  2
CENTER_DASH_DASH
 70
          64
  3
Center_Dash_Dash
 72
          65
 73
           6
 40
22.0
 49
12.0
 74
           0
 49
-3.0
 74
           0
 49
0.5
 74
           0
 49
-3.0
 74
           0
 49
0.5
 74
           0
 49
-3.0
 74
           0
  0
ENDTAB
  0
TABLE
  2
LAYER
  5
2
100
AcDbSymbolTable
 70
           4
  0
LAYER
  5
14
100
AcDbSymbolTableRecord
100
AcDbLayerTableRecord
  2
0
 70
           0
 62
           7
  6
CONTINUOUS
  0
LAYER
  5
24
100
AcDbSymbolTableRecord
100
AcDbLayerTableRecord
  2
MITTELLINIEN
 70
           0
 62
           7
  6
CONTINUOUS
  0
LAYER
  5
25
100
AcDbSymbolTableRecord
100
AcDbLayerTableRecord
  2
1
 70
           0
 62
           7
  6
CONTINUOUS
  0
LAYER
  5
26
100
AcDbSymbolTableRecord
100
AcDbLayerTableRecord
  2
WANNE
 70
           0
 62
           7
  6
CONTINUOUS
  0
ENDTAB
  0
TABLE
  2
STYLE
  5
3
100
AcDbSymbolTable
 70
           2
  0
STYLE
  5
17
100
AcDbSymbolTableRecord
100
AcDbTextStyleTableRecord
  2
STANDARD
 70
           0
 40
0.0
 41
1.0
 50
0.0
 71
           0
 42
0.0
  3
txt
  4

  0
STYLE
  5
106
100
AcDbSymbolTableRecord
100
AcDbTextStyleTableRecord
  2
CONVERTER_1
 70
           0
 40
0.0
 41
0.71262
 50
0.0
 71
           0
 42
0.0
  3
txt.shx
  4

  0
ENDTAB
  0
TABLE
  2
VIEW
  5
5
100
AcDbSymbolTable
 70
           0
  0
ENDTAB
  0
TABLE
  2
UCS
  5
6
100
AcDbSymbolTable
 70
           0
  0
ENDTAB
  0
TABLE
  2
APPID
  5
8
100
AcDbSymbolTable
 70
           1
  0
APPID
  5
16
100
AcDbSymbolTableRecord
100
AcDbRegAppTableRecord
  2
ACAD
 70
           0
  0
ENDTAB
  0
TABLE
  2
DIMSTYLE
  5
9
100
AcDbSymbolTable
 70
           1
  0
DIMSTYLE
105
18
100
AcDbSymbolTableRecord
100
AcDbDimStyleTableRecord
  2
STANDARD
 70
           0
  3

  4

  5

  6

  7

 40
1.0
 41
0.18
 42
0.0625
 43
0.38
 44
0.18
 45
0.0
 46
0.0
 47
0.0
 48
0.0
 71
           0
 72
           0
 73
           1
 74
           1
 75
           0
 76
           0
 77
           0
 78
           0
140
0.18
141
0.09
142
0.0
143
25.4
144
1.0
145
0.0
146
1.0
147
0.09
170
           0
171
           2
172
           0
173
           0
174
           0
175
           0
176
           0
177
           0
178
           0
270
           2
271
           4
272
           4
273
           2
274
           2
275
           0
280
           0
281
           0
282
           0
283
           1
284
           0
285
           0
286
           0
287
           0
288
           0
340
17
  0
ENDTAB
  0
TABLE
  2
BLOCK_RECORD
  5
1
100
AcDbSymbolTable
 70
           2
  0
BLOCK_RECORD
  5
A
100
AcDbSymbolTableRecord
100
AcDbBlockTableRecord
  2
*MODEL_SPACE
  0
BLOCK_RECORD
  5
B
100
AcDbSymbolTableRecord
100
AcDbBlockTableRecord
  2
*PAPER_SPACE
  0
BLOCK_RECORD
  5
27
100
AcDbSymbolTableRecord
100
AcDbBlockTableRecord
  2
DLX
  0
BLOCK_RECORD
  5
29
100
AcDbSymbolTableRecord
100
AcDbBlockTableRecord
  2
WANNE_PRIME_LINE_253
  0
ENDTAB
  0
ENDSEC
  0
SECTION
  2
BLOCKS
  0
BLOCK
  5
D
100
AcDbEntity
  8
0
100
AcDbBlockBegin
  2
*MODEL_SPACE
 70
           0
 10
0.0
 20
0.0
 30
0.0
  3
*MODEL_SPACE
  1

  0
ENDBLK
  5
E
100
AcDbEntity
  8
0
100
AcDbBlockEnd
  0
BLOCK
  5
F
100
AcDbEntity
 67
           1
  8
0
100
AcDbBlockBegin
  2
*PAPER_SPACE
 70
           0
 10
0.0
 20
0.0
 30
0.0
  3
*PAPER_SPACE
  1

  0
ENDBLK
  5
10
100
AcDbEntity
 67
           1
  8
0
100
AcDbBlockEnd
  0
BLOCK
  5
28
100
AcDbEntity
  8
0
100
AcDbBlockBegin
  2
DLX
 70
           0
 10
0.0
 20
0.0
 30
0.0
  3
DLX
  1

  0
CIRCLE
  5
E2
100
AcDbEntity
  8
1
  6
CONTINUOUS
 62
           3
100
AcDbCircle
 10
496.252855413653
 20
996.878787878754
 40
5.972862778755
  0
CIRCLE
  5
E1
100
AcDbEntity
  8
1
  6
CONTINUOUS
 62
           3
100
AcDbCircle
 10
496.252855413653
 20
996.878787878754
 40
5.530127989697
  0
ARC
  5
E0
100
AcDbEntity
  8
1
  6
CONTINUOUS
 62
           3
100
AcDbCircle
 10
496.459674245032
 20
998.30391992138
 40
2.009798008862
100
AcDbArc
 50
-55.929988464563
 51
86.297888718245
  0
ARC
  5
DF
100
AcDbEntity
  8
1
  6
CONTINUOUS
 62
           3
100
AcDbCircle
 10
496.381356419018
 20
998.26402593055
 40
1.257687287768
100
AcDbArc
 50
-74.800419047062
 51
80.931395238782
  0
ARC
  5
DE
100
AcDbEntity
  8
1
  6
CONTINUOUS
 62
           3
100
AcDbCircle
 10
496.306173780822
 20
995.053039389821
 40
1.155889798231
100
AcDbArc
 50
0.985058170485
 51
82.918254632946
  0
ARC
  5
DD
100
AcDbEntity
  8
1
  6
CONTINUOUS
 62
           3
100
AcDbCircle
 10
497.031566967312
 20
995.362233682225
 40
1.391870091328
100
AcDbArc
 50
-1.298612665717
 51
66.544866494049
  0
LINE
  5
DC
100
AcDbEntity
  8
1
  6
CONTINUOUS
 62
           3
100
AcDbLine
 10
388.845203645034
 20
992.979895810781
 11
388.549800557653
 21
993.978447872362
  0
LINE
  5
DB
100
AcDbEntity
  8
1
  6
CONTINUOUS
 62
           3
100
AcDbLine
 10
389.2818833266
 20
994.762204858331
 11
388.549800557653
 21
993.978447872362
  0
LINE
  5
DA
100
AcDbEntity
  8
1
  6
CONTINUOUS
 62
           3
100
AcDbLine
 10
424.31290729527
 20
964.237708784527
 11
427.697314786151
 21
978.051175145078
  0
LINE
  5
D9
100
AcDbEntity
  8
1
  6
CONTINUOUS
 62
           3
100
AcDbLine
 10
420.124753140031
 20
964.237708784527
 11
423.509160631047
 21
978.051175145078
  0
LINE
  5
D8
100
AcDbEntity
  8
1
  6
CONTINUOUS
 62
           3
100
AcDbLine
 10
420.124753140031
 20
964.237708784527
 11
424.31290729527
 21
964.237708784527
  0
LINE
  5
D7
100
AcDbEntity
  8
1
  6
CONTINUOUS
 62
           3
100
AcDbLine
 10
419.040779080862
 20
959.81346636034
 11
423.22893323605
 21
959.81346636034
  0
LINE
  5
D6
100
AcDbEntity
  8
1
  6
CONTINUOUS
 62
           3
100
AcDbLine
 10
419.844525745155
 20
946.0
 11
426.126756978053
 21
946.0
  0
LINE
  5
D5
100
AcDbEntity
  8
1
  6
CONTINUOUS
 62
           3
100
AcDbLine
 10
423.509160631047
 20
978.051175145078
 11
417.226929398182
 21
978.051175145078
  0
LINE
  5
D4
100
AcDbEntity
  8
1
  6
CONTINUOUS
 62
           3
100
AcDbLine
 10
454.920316795005
 20
978.051175145078
 11
447.067527753986
 21
946.0
  0
LINE
  5
D3
100
AcDbEntity
  8
1
  6
CONTINUOUS
 62
           3
100
AcDbLine
 10
447.554111503008
 20
973.626932720838
 11
441.869270580284
 21
950.424242424182
  0
LINE
  5
D2
100
AcDbEntity
  8
1
  6
CONTINUOUS
 62
           3
100
AcDbLine
 10
443.365957347758
 20
973.626932720838
 11
447.554111503008
 21
973.626932720838
  0
LINE
  5
D1
100
AcDbEntity
  8
1
  6
CONTINUOUS
 62
           3
100
AcDbLine
 10
454.920316795005
 20
978.051175145078
 11
438.167700174175
 21
978.051175145078
  0
LINE
  5
D0
100
AcDbEntity
  8
1
  6
CONTINUOUS
 62
           3
100
AcDbLine
 10
437.681116425184
 20
950.424242424182
 11
443.365957347758
 21
973.626932720838
  0
LINE
  5
CF
100
AcDbEntity
  8
1
  6
CONTINUOUS
 62
           3
100
AcDbLine
 10
438.167700174175
 20
978.051175145078
 11
430.314911133178
 21
946.0
  0
LINE
  5
CE
100
AcDbEntity
  8
1
  6
CONTINUOUS
 62
           3
100
AcDbLine
 10
441.869270580284
 20
950.424242424182
 11
437.681116425184
 21
950.424242424182
  0
LINE
  5
CD
100
AcDbEntity
  8
1
  6
CONTINUOUS
 62
           3
100
AcDbLine
 10
430.314911133178
 20
946.0
 11
447.067527753986
 21
946.0
  0
LINE
  5
CC
100
AcDbEntity
  8
1
  6
CONTINUOUS
 62
           3
100
AcDbLine
 10
433.979546019067
 20
978.051175145078
 11
427.697314786151
 21
978.051175145078
  0
LINE
  5
CB
100
AcDbEntity
  8
1
  6
CONTINUOUS
 62
           3
100
AcDbLine
 10
417.226929398182
 20
978.051175145078
 11
409.374140357189
 21
946.0
  0
LINE
  5
CA
100
AcDbEntity
  8
1
  6
CONTINUOUS
 62
           3
100
AcDbLine
 10
415.656371589977
 20
946.0
 11
419.040779080862
 21
959.81346636034
  0
LINE
  5
C9
100
AcDbEntity
  8
1
  6
CONTINUOUS
 62
           3
100
AcDbLine
 10
419.844525745155
 20
946.0
 11
423.22893323605
 21
959.81346636034
  0
LINE
  5
C8
100
AcDbEntity
  8
1
  6
CONTINUOUS
 62
           3
100
AcDbLine
 10
426.126756978053
 20
946.0
 11
433.979546019067
 21
978.051175145078
  0
LINE
  5
C7
100
AcDbEntity
  8
1
  6
CONTINUOUS
 62
           3
100
AcDbLine
 10
409.374140357189
 20
946.0
 11
415.656371589977
 21
946.0
  0
LINE
  5
C6
100
AcDbEntity
  8
1
  6
CONTINUOUS
 62
           3
100
AcDbLine
 10
404.046608862232
 20
966.990569084412
 11
410.328840095038
 21
966.990569084412
  0
LINE
  5
C5
100
AcDbEntity
  8
1
  6
CONTINUOUS
 62
           3
100
AcDbLine
 10
405.672569951025
 20
973.626932720838
 11
404.046608862232
 21
966.990569084412
  0
LINE
  5
C4
100
AcDbEntity
  8
1
  6
CONTINUOUS
 62
           3
100
AcDbLine
 10
401.484415795834
 20
973.626932720838
 11
405.672569951025
 21
973.626932720838
  0
LINE
  5
C3
100
AcDbEntity
  8
1
  6
CONTINUOUS
 62
           3
100
AcDbLine
 10
395.799574873204
 20
950.424242424182
 11
401.484415795834
 21
973.626932720838
  0
LINE
  5
C2
100
AcDbEntity
  8
1
  6
CONTINUOUS
 62
           3
100
AcDbLine
 10
399.987729028407
 20
950.424242424182
 11
395.799574873204
 21
950.424242424182
  0
LINE
  5
C1
100
AcDbEntity
  8
1
  6
CONTINUOUS
 62
           3
100
AcDbLine
 10
401.613690117194
 20
957.060606060607
 11
399.987729028407
 21
950.424242424182
  0
LINE
  5
C0
100
AcDbEntity
  8
1
  6
CONTINUOUS
 62
           3
100
AcDbLine
 10
407.895921349982
 20
957.060606060607
 11
401.613690117194
 21
957.060606060607
  0
LINE
  5
BF
100
AcDbEntity
  8
1
  6
CONTINUOUS
 62
           3
100
AcDbLine
 10
405.185986202008
 20
946.0
 11
407.895921349982
 21
957.060606060607
  0
LINE
  5
BE
100
AcDbEntity
  8
1
  6
CONTINUOUS
 62
           3
100
AcDbLine
 10
388.433369581254
 20
946.0
 11
405.185986202008
 21
946.0
  0
LINE
  5
BD
100
AcDbEntity
  8
1
  6
CONTINUOUS
 62
           3
100
AcDbLine
 10
396.286158622247
 20
978.051175145078
 11
388.433369581254
 21
946.0
  0
LINE
  5
BC
100
AcDbEntity
  8
1
  6
CONTINUOUS
 62
           3
100
AcDbLine
 10
413.038775242968
 20
978.051175145078
 11
396.286158622247
 21
978.051175145078
  0
LINE
  5
BB
100
AcDbEntity
  8
1
  6
CONTINUOUS
 62
           3
100
AcDbLine
 10
410.328840095038
 20
966.990569084412
 11
413.038775242968
 21
978.051175145078
  0
LINE
  5
BA
100
AcDbEntity
  8
1
  6
CONTINUOUS
 62
           3
100
AcDbLine
 10
391.014030407872
 20
973.626932720838
 11
392.09800446703
 21
978.051175145078
  0
LINE
  5
B9
100
AcDbEntity
  8
1
  6
CONTINUOUS
 62
           3
100
AcDbLine
 10
380.543645019892
 20
973.626932720838
 11
391.014030407872
 21
973.626932720838
  0
LINE
  5
B8
100
AcDbEntity
  8
1
  6
CONTINUOUS
 62
           3
100
AcDbLine
 10
378.110726274879
 20
963.696969696952
 11
380.543645019892
 21
973.626932720838
  0
LINE
  5
B7
100
AcDbEntity
  8
1
  6
CONTINUOUS
 62
           3
100
AcDbLine
 10
388.581111662942
 20
963.696969696952
 11
378.110726274879
 21
963.696969696952
  0
LINE
  5
B6
100
AcDbEntity
  8
1
  6
CONTINUOUS
 62
           3
100
AcDbLine
 10
384.245215426018
 20
946.0
 11
388.581111662942
 21
963.696969696952
  0
LINE
  5
B5
100
AcDbEntity
  8
1
  6
CONTINUOUS
 62
           3
100
AcDbLine
 10
367.492598805196
 20
946.0
 11
384.245215426018
 21
946.0
  0
LINE
  5
B4
100
AcDbEntity
  8
1
  6
CONTINUOUS
 62
           3
100
AcDbLine
 10
368.576572864503
 20
950.424242424182
 11
367.492598805196
 21
946.0
  0
LINE
  5
B3
100
AcDbEntity
  8
1
  6
CONTINUOUS
 62
           3
100
AcDbLine
 10
379.046958252414
 20
950.424242424182
 11
368.576572864503
 21
950.424242424182
  0
LINE
  5
B2
100
AcDbEntity
  8
1
  6
CONTINUOUS
 62
           3
100
AcDbLine
 10
381.214906370833
 20
959.272727272797
 11
379.046958252414
 21
950.424242424182
  0
LINE
  5
B1
100
AcDbEntity
  8
1
  6
CONTINUOUS
 62
           3
100
AcDbLine
 10
370.744520982867
 20
959.272727272797
 11
381.214906370833
 21
959.272727272797
  0
LINE
  5
B0
100
AcDbEntity
  8
1
  6
CONTINUOUS
 62
           3
100
AcDbLine
 10
375.345387846258
 20
978.051175145078
 11
370.744520982867
 21
959.272727272797
  0
LINE
  5
AF
100
AcDbEntity
  8
1
  6
CONTINUOUS
 62
           3
100
AcDbLine
 10
392.09800446703
 20
978.051175145078
 11
375.345387846258
 21
978.051175145078
  0
LINE
  5
AE
100
AcDbEntity
  8
1
  6
CONTINUOUS
 62
           3
100
AcDbLine
 10
371.157233691095
 20
978.051175145078
 11
363.30444465008
 21
946.0
  0
LINE
  5
AD
100
AcDbEntity
  8
1
  6
CONTINUOUS
 62
           3
100
AcDbLine
 10
364.875002458289
 20
978.051175145078
 11
371.157233691095
 21
978.051175145078
  0
LINE
  5
AC
100
AcDbEntity
  8
1
  6
CONTINUOUS
 62
           3
100
AcDbLine
 10
363.30444465008
 20
946.0
 11
345.50478949049
 21
946.0
  0
LINE
  5
AB
100
AcDbEntity
  8
1
  6
CONTINUOUS
 62
           3
100
AcDbLine
 10
358.106187476483
 20
950.424242424182
 11
364.875002458289
 21
978.051175145078
  0
LINE
  5
AA
100
AcDbEntity
  8
1
  6
CONTINUOUS
 62
           3
100
AcDbLine
 10
352.870994782498
 20
950.424242424182
 11
358.106187476483
 21
950.424242424182
  0
LINE
  5
A9
100
AcDbEntity
  8
1
  6
CONTINUOUS
 62
           3
100
AcDbLine
 10
359.639809764293
 20
978.051175145078
 11
352.870994782498
 21
950.424242424182
  0
LINE
  5
A8
100
AcDbEntity
  8
1
  6
CONTINUOUS
 62
           3
100
AcDbLine
 10
353.357578531484
 20
978.051175145078
 11
359.639809764293
 21
978.051175145078
  0
LINE
  5
A7
100
AcDbEntity
  8
1
  6
CONTINUOUS
 62
           3
100
AcDbLine
 10
345.50478949049
 20
946.0
 11
353.357578531484
 21
978.051175145078
  0
LINE
  5
A6
100
AcDbEntity
  8
1
  6
CONTINUOUS
 62
           3
100
AcDbLine
 10
341.316635335364
 20
946.0
 11
323.516980175716
 21
946.0
  0
LINE
  5
A5
100
AcDbEntity
  8
1
  6
CONTINUOUS
 62
           3
100
AcDbLine
 10
351.879359524283
 20
989.111781205661
 11
341.316635335364
 21
946.0
  0
LINE
  5
A4
100
AcDbEntity
  8
1
  6
CONTINUOUS
 62
           3
100
AcDbLine
 10
327.906032446991
 20
989.111781205661
 11
351.879359524283
 21
989.111781205661
  0
LINE
  5
A3
100
AcDbEntity
  8
1
  6
CONTINUOUS
 62
           3
100
AcDbLine
 10
326.551064873006
 20
983.581478175404
 11
327.906032446991
 21
989.111781205661
  0
LINE
  5
A2
100
AcDbEntity
  8
1
  6
CONTINUOUS
 62
           3
100
AcDbLine
 10
344.24216071754
 20
983.581478175404
 11
326.551064873006
 21
983.581478175404
  0
LINE
  5
A1
100
AcDbEntity
  8
1
  6
CONTINUOUS
 62
           3
100
AcDbLine
 10
336.118378161658
 20
950.424242424182
 11
344.24216071754
 21
983.581478175404
  0
LINE
  5
A0
100
AcDbEntity
  8
1
  6
CONTINUOUS
 62
           3
100
AcDbLine
 10
330.883185467779
 20
950.424242424182
 11
336.118378161658
 21
950.424242424182
  0
LINE
  5
9F
100
AcDbEntity
  8
1
  6
CONTINUOUS
 62
           3
100
AcDbLine
 10
337.652000449468
 20
978.051175145078
 11
330.883185467779
 21
950.424242424182
  0
LINE
  5
9E
100
AcDbEntity
  8
1
  6
CONTINUOUS
 62
           3
100
AcDbLine
 10
331.369769216771
 20
978.051175145078
 11
337.652000449468
 21
978.051175145078
  0
LINE
  5
9D
100
AcDbEntity
  8
1
  6
CONTINUOUS
 62
           3
100
AcDbLine
 10
323.516980175716
 20
946.0
 11
331.369769216771
 21
978.051175145078
  0
LINE
  5
9C
100
AcDbEntity
  8
1
  6
CONTINUOUS
 62
           3
100
AcDbLine
 10
458.636661409231
 20
952.193939393909
 11
467.681821915322
 21
989.111781205661
  0
LINE
  5
9B
100
AcDbEntity
  8
1
  6
CONTINUOUS
 62
           3
100
AcDbLine
 10
467.681821915322
 20
989.111781205661
 11
461.818406098054
 21
989.111781205661
  0
LINE
  5
9A
100
AcDbEntity
  8
1
  6
CONTINUOUS
 62
           3
100
AcDbLine
 10
461.818406098054
 20
989.111781205661
 11
451.255681909113
 21
946.0
  0
LINE
  5
99
100
AcDbEntity
  8
1
  6
CONTINUOUS
 62
           3
100
AcDbLine
 10
469.160040922683
 20
978.051175145078
 11
463.475199999995
 21
954.848484848476
  0
LINE
  5
98
100
AcDbEntity
  8
1
  6
CONTINUOUS
 62
           3
100
AcDbLine
 10
463.475199999995
 20
954.848484848476
 11
479.180778081916
 21
954.848484848476
  0
LINE
  5
97
100
AcDbEntity
  8
1
  6
CONTINUOUS
 62
           3
100
AcDbLine
 10
479.180778081916
 20
954.848484848476
 11
484.865619004524
 21
978.051175145078
  0
LINE
  5
96
100
AcDbEntity
  8
1
  6
CONTINUOUS
 62
           3
100
AcDbLine
 10
484.865619004524
 20
978.051175145078
 11
479.630426310601
 21
978.051175145078
  0
LINE
  5
95
100
AcDbEntity
  8
1
  6
CONTINUOUS
 62
           3
100
AcDbLine
 10
479.630426310601
 20
978.051175145078
 11
475.029559447206
 21
959.272727272797
  0
LINE
  5
94
100
AcDbEntity
  8
1
  6
CONTINUOUS
 62
           3
100
AcDbLine
 10
475.029559447206
 20
959.272727272797
 11
469.794366753254
 21
959.272727272797
  0
LINE
  5
93
100
AcDbEntity
  8
1
  6
CONTINUOUS
 62
           3
100
AcDbLine
 10
469.794366753254
 20
959.272727272797
 11
474.395233616605
 21
978.051175145078
  0
LINE
  5
92
100
AcDbEntity
  8
1
  6
CONTINUOUS
 62
           3
100
AcDbLine
 10
474.395233616605
 20
978.051175145078
 11
469.160040922683
 21
978.051175145078
  0
LINE
  5
91
100
AcDbEntity
  8
1
  6
CONTINUOUS
 62
           3
100
AcDbLine
 10
491.423957760665
 20
978.051175145078
 11
487.37851149765
 21
978.051175145078
  0
LINE
  5
90
100
AcDbEntity
  8
1
  6
CONTINUOUS
 62
           3
100
AcDbLine
 10
487.37851149765
 20
978.051175145078
 11
491.500807019847
 21
967.41530121866
  0
LINE
  5
8F
100
AcDbEntity
  8
1
  6
CONTINUOUS
 62
           3
100
AcDbLine
 10
491.500807019847
 20
967.41530121866
 11
481.693670575057
 21
954.848484848476
  0
LINE
  5
8E
100
AcDbEntity
  8
1
  6
CONTINUOUS
 62
           3
100
AcDbLine
 10
481.693670575057
 20
954.848484848476
 11
485.739116838054
 21
954.848484848476
  0
LINE
  5
8D
100
AcDbEntity
  8
1
  6
CONTINUOUS
 62
           3
100
AcDbLine
 10
485.739116838054
 20
954.848484848476
 11
492.843249418155
 21
963.951685370501
  0
LINE
  5
8C
100
AcDbEntity
  8
1
  6
CONTINUOUS
 62
           3
100
AcDbLine
 10
492.843249418155
 20
963.951685370501
 11
496.371505112839
 21
954.848484848476
  0
LINE
  5
8B
100
AcDbEntity
  8
1
  6
CONTINUOUS
 62
           3
100
AcDbLine
 10
496.371505112839
 20
954.848484848476
 11
500.416951375888
 21
954.848484848476
  0
LINE
  5
8A
100
AcDbEntity
  8
1
  6
CONTINUOUS
 62
           3
100
AcDbLine
 10
500.416951375888
 20
954.848484848476
 11
495.546253282884
 21
967.415301218602
  0
LINE
  5
89
100
AcDbEntity
  8
1
  6
CONTINUOUS
 62
           3
100
AcDbLine
 10
495.546253282884
 20
967.415301218602
 11
503.846483327966
 21
978.051175145078
  0
LINE
  5
88
100
AcDbEntity
  8
1
  6
CONTINUOUS
 62
           3
100
AcDbLine
 10
503.846483327966
 20
978.051175145078
 11
499.801037064908
 21
978.051175145078
  0
LINE
  5
87
100
AcDbEntity
  8
1
  6
CONTINUOUS
 62
           3
100
AcDbLine
 10
499.801037064908
 20
978.051175145078
 11
494.203810884622
 21
970.878917066823
  0
LINE
  5
86
100
AcDbEntity
  8
1
  6
CONTINUOUS
 62
           3
100
AcDbLine
 10
494.203810884622
 20
970.878917066823
 11
491.423957760665
 21
978.051175145078
  0
LINE
  5
85
100
AcDbEntity
  8
1
  6
CONTINUOUS
 62
           3
100
AcDbLine
 10
501.445810961404
 20
952.193939393909
 11
503.846483327922
 21
946.0
  0
LINE
  5
84
100
AcDbEntity
  8
1
  6
CONTINUOUS
 62
           3
100
AcDbLine
 10
501.445810961404
 20
952.193939393909
 11
458.636661409231
 21
952.193939393909
  0
LINE
  5
83
100
AcDbEntity
  8
1
  6
CONTINUOUS
 62
           3
100
AcDbLine
 10
503.846483327922
 20
946.0
 11
451.255681909113
 21
946.0
  0
LINE
  5
82
100
AcDbEntity
  8
1
  6
CONTINUOUS
 62
           3
100
AcDbLine
 10
360.255667834682
 20
989.111781205661
 11
363.507590012164
 21
1002.384508478319
  0
LINE
  5
81
100
AcDbEntity
  8
1
  6
CONTINUOUS
 62
           3
100
AcDbLine
 10
363.507590012164
 20
1002.384508478319
 11
376.072052477882
 21
1002.384508478319
  0
LINE
  5
80
100
AcDbEntity
  8
1
  6
CONTINUOUS
 62
           3
100
AcDbLine
 10
376.072052477882
 20
1002.384508478319
 11
372.820130300207
 21
989.111781205661
  0
LINE
  5
7F
100
AcDbEntity
  8
1
  6
CONTINUOUS
 62
           3
100
AcDbLine
 10
372.820130300207
 20
989.111781205661
 11
360.255667834682
 21
989.111781205661
  0
LINE
  5
7E
100
AcDbEntity
  8
1
  6
CONTINUOUS
 62
           3
100
AcDbLine
 10
371.268040252203
 20
991.323902417792
 11
362.891731941848
 21
991.323902417792
  0
LINE
  5
7D
100
AcDbEntity
  8
1
  6
CONTINUOUS
 62
           3
100
AcDbLine
 10
373.43598837068
 20
1000.172387266268
 11
371.268040252203
 21
991.323902417792
  0
LINE
  5
7C
100
AcDbEntity
  8
1
  6
CONTINUOUS
 62
           3
100
AcDbLine
 10
365.05968006019
 20
1000.172387266268
 11
373.43598837068
 21
1000.172387266268
  0
LINE
  5
7B
100
AcDbEntity
  8
1
  6
CONTINUOUS
 62
           3
100
AcDbLine
 10
362.891731941848
 20
991.323902417792
 11
365.05968006019
 21
1000.172387266268
  0
LINE
  5
7A
100
AcDbEntity
  8
1
  6
CONTINUOUS
 62
           3
100
AcDbLine
 10
378.584944970874
 20
1002.384508478319
 11
375.333022793338
 21
989.111781205661
  0
LINE
  5
79
100
AcDbEntity
  8
1
  6
CONTINUOUS
 62
           3
100
AcDbLine
 10
378.584944970874
 20
1002.384508478319
 11
391.149407436454
 21
1002.384508478319
  0
LINE
  5
78
100
AcDbEntity
  8
1
  6
CONTINUOUS
 62
           3
100
AcDbLine
 10
391.149407436454
 20
1002.384508478319
 11
389.2818833266
 21
994.762204858331
  0
LINE
  5
77
100
AcDbEntity
  8
1
  6
CONTINUOUS
 62
           3
100
AcDbLine
 10
387.897485258921
 20
989.111781205661
 11
385.803408181281
 21
989.111781205661
  0
LINE
  5
76
100
AcDbEntity
  8
1
  6
CONTINUOUS
 62
           3
100
AcDbLine
 10
385.803408181281
 20
989.111781205661
 11
386.887382240654
 21
993.536023629843
  0
LINE
  5
75
100
AcDbEntity
  8
1
  6
CONTINUOUS
 62
           3
100
AcDbLine
 10
386.887382240654
 20
993.536023629843
 11
378.511073930125
 21
993.536023629843
  0
LINE
  5
74
100
AcDbEntity
  8
1
  6
CONTINUOUS
 62
           3
100
AcDbLine
 10
379.053060959717
 20
995.748144842033
 11
387.429369270097
 21
995.748144842033
  0
LINE
  5
73
100
AcDbEntity
  8
1
  6
CONTINUOUS
 62
           3
100
AcDbLine
 10
387.429369270097
 20
995.748144842033
 11
388.513343329419
 21
1000.172387266268
  0
LINE
  5
72
100
AcDbEntity
  8
1
  6
CONTINUOUS
 62
           3
100
AcDbLine
 10
388.513343329419
 20
1000.172387266268
 11
380.1370350189
 21
1000.172387266268
  0
LINE
  5
71
100
AcDbEntity
  8
1
  6
CONTINUOUS
 62
           3
100
AcDbLine
 10
380.1370350189
 20
1000.172387266268
 11
379.053060959717
 21
995.748144842033
  0
LINE
  5
70
100
AcDbEntity
  8
1
  6
CONTINUOUS
 62
           3
100
AcDbLine
 10
388.845203645034
 20
992.979895810781
 11
387.897485258921
 21
989.111781205661
  0
LINE
  5
6F
100
AcDbEntity
  8
1
  6
CONTINUOUS
 62
           3
100
AcDbLine
 10
375.333022793338
 20
989.111781205661
 11
377.427099871014
 21
989.111781205661
  0
LINE
  5
6E
100
AcDbEntity
  8
1
  6
CONTINUOUS
 62
           3
100
AcDbLine
 10
377.427099871014
 20
989.111781205661
 11
378.511073930125
 21
993.536023629843
  0
LINE
  5
6D
100
AcDbEntity
  8
1
  6
CONTINUOUS
 62
           3
100
AcDbLine
 10
395.756377007181
 20
1002.384508478319
 11
393.662299929617
 21
1002.384508478319
  0
LINE
  5
6C
100
AcDbEntity
  8
1
  6
CONTINUOUS
 62
           3
100
AcDbLine
 10
393.662299929617
 20
1002.384508478319
 11
390.410377752052
 21
989.111781205661
  0
LINE
  5
6B
100
AcDbEntity
  8
1
  6
CONTINUOUS
 62
           3
100
AcDbLine
 10
390.410377752052
 20
989.111781205661
 11
392.504454829771
 21
989.111781205661
  0
LINE
  5
6A
100
AcDbEntity
  8
1
  6
CONTINUOUS
 62
           3
100
AcDbLine
 10
392.504454829771
 20
989.111781205661
 11
395.756377007181
 21
1002.384508478319
  0
LINE
  5
69
100
AcDbEntity
  8
1
  6
CONTINUOUS
 62
           3
100
AcDbLine
 10
395.017347322756
 20
989.111781205661
 11
398.2692695003
 21
1002.384508478319
  0
LINE
  5
68
100
AcDbEntity
  8
1
  6
CONTINUOUS
 62
           3
100
AcDbLine
 10
398.2692695003
 20
1002.384508478319
 11
410.833731965891
 21
1002.384508478319
  0
LINE
  5
67
100
AcDbEntity
  8
1
  6
CONTINUOUS
 62
           3
100
AcDbLine
 10
410.833731965891
 20
1002.384508478319
 11
409.695559203764
 21
997.73905393289
  0
LINE
  5
66
100
AcDbEntity
  8
1
  6
CONTINUOUS
 62
           3
100
AcDbLine
 10
407.581809788369
 20
989.111781205661
 11
395.017347322756
 21
989.111781205661
  0
LINE
  5
65
100
AcDbEntity
  8
1
  6
CONTINUOUS
 62
           3
100
AcDbLine
 10
406.029719740321
 20
991.323902417792
 11
397.653411429991
 21
991.323902417792
  0
LINE
  5
64
100
AcDbEntity
  8
1
  6
CONTINUOUS
 62
           3
100
AcDbLine
 10
408.197667858615
 20
1000.172387266268
 11
407.601482126238
 21
997.73905393289
  0
LINE
  5
63
100
AcDbEntity
  8
1
  6
CONTINUOUS
 62
           3
100
AcDbLine
 10
399.821359548319
 20
1000.172387266268
 11
408.197667858615
 21
1000.172387266268
  0
LINE
  5
62
100
AcDbEntity
  8
1
  6
CONTINUOUS
 62
           3
100
AcDbLine
 10
397.653411429991
 20
991.323902417792
 11
399.821359548319
 21
1000.172387266268
  0
LINE
  5
61
100
AcDbEntity
  8
1
  6
CONTINUOUS
 62
           3
100
AcDbLine
 10
409.207770877141
 20
995.748144842033
 11
402.925539644335
 21
995.748144842033
  0
LINE
  5
60
100
AcDbEntity
  8
1
  6
CONTINUOUS
 62
           3
100
AcDbLine
 10
409.207770877141
 20
995.748144842033
 11
407.581809788369
 21
989.111781205661
  0
LINE
  5
5F
100
AcDbEntity
  8
1
  6
CONTINUOUS
 62
           3
100
AcDbLine
 10
402.925539644335
 20
995.748144842033
 11
402.383552614688
 21
993.536023629843
  0
LINE
  5
5E
100
AcDbEntity
  8
1
  6
CONTINUOUS
 62
           3
100
AcDbLine
 10
402.383552614688
 20
993.536023629843
 11
406.571706770088
 21
993.536023629843
  0
LINE
  5
5D
100
AcDbEntity
  8
1
  6
CONTINUOUS
 62
           3
100
AcDbLine
 10
406.571706770088
 20
993.536023629843
 11
406.029719740321
 21
991.323902417792
  0
LINE
  5
5C
100
AcDbEntity
  8
1
  6
CONTINUOUS
 62
           3
100
AcDbLine
 10
407.601482126238
 20
997.73905393289
 11
409.695559203764
 21
997.73905393289
  0
LINE
  5
5B
100
AcDbEntity
  8
1
  6
CONTINUOUS
 62
           3
100
AcDbLine
 10
410.094702281485
 20
989.111781205661
 11
412.188779359045
 21
989.111781205661
  0
LINE
  5
5A
100
AcDbEntity
  8
1
  6
CONTINUOUS
 62
           3
100
AcDbLine
 10
412.188779359045
 20
989.111781205661
 11
415.440701536614
 21
1002.384508478319
  0
LINE
  5
59
100
AcDbEntity
  8
1
  6
CONTINUOUS
 62
           3
100
AcDbLine
 10
413.34662445905
 20
1002.384508478319
 11
410.094702281485
 21
989.111781205661
  0
LINE
  5
58
100
AcDbEntity
  8
1
  6
CONTINUOUS
 62
           3
100
AcDbLine
 10
415.440701536614
 20
1002.384508478319
 11
413.34662445905
 21
1002.384508478319
  0
LINE
  5
57
100
AcDbEntity
  8
1
  6
CONTINUOUS
 62
           3
100
AcDbLine
 10
414.701671852215
 20
989.111781205661
 11
417.95359402973
 21
1002.384508478319
  0
LINE
  5
56
100
AcDbEntity
  8
1
  6
CONTINUOUS
 62
           3
100
AcDbLine
 10
417.95359402973
 20
1002.384508478319
 11
421.094709646071
 21
1002.384508478319
  0
LINE
  5
55
100
AcDbEntity
  8
1
  6
CONTINUOUS
 62
           3
100
AcDbLine
 10
421.094709646071
 20
1002.384508478319
 11
425.578547512346
 21
990.770872114745
  0
LINE
  5
54
100
AcDbEntity
  8
1
  6
CONTINUOUS
 62
           3
100
AcDbLine
 10
425.578547512346
 20
990.770872114745
 11
428.423979417699
 21
1002.384508478319
  0
LINE
  5
53
100
AcDbEntity
  8
1
  6
CONTINUOUS
 62
           3
100
AcDbLine
 10
428.423979417699
 20
1002.384508478319
 11
430.518056495313
 21
1002.384508478319
  0
LINE
  5
52
100
AcDbEntity
  8
1
  6
CONTINUOUS
 62
           3
100
AcDbLine
 10
430.518056495313
 20
1002.384508478319
 11
427.266134317693
 21
989.111781205661
  0
LINE
  5
51
100
AcDbEntity
  8
1
  6
CONTINUOUS
 62
           3
100
AcDbLine
 10
427.266134317693
 20
989.111781205661
 11
424.023455828924
 21
989.111781205661
  0
LINE
  5
50
100
AcDbEntity
  8
1
  6
CONTINUOUS
 62
           3
100
AcDbLine
 10
424.023455828924
 20
989.111781205661
 11
420.242299493214
 21
998.905394629534
  0
LINE
  5
4F
100
AcDbEntity
  8
1
  6
CONTINUOUS
 62
           3
100
AcDbLine
 10
420.242299493214
 20
998.905394629534
 11
419.601751226704
 21
1000.564485538597
  0
LINE
  5
4E
100
AcDbEntity
  8
1
  6
CONTINUOUS
 62
           3
100
AcDbLine
 10
419.601751226704
 20
1000.564485538597
 11
416.795748929776
 21
989.111781205661
  0
LINE
  5
4D
100
AcDbEntity
  8
1
  6
CONTINUOUS
 62
           3
100
AcDbLine
 10
416.795748929776
 20
989.111781205661
 11
414.701671852215
 21
989.111781205661
  0
LINE
  5
4C
100
AcDbEntity
  8
1
  6
CONTINUOUS
 62
           3
100
AcDbLine
 10
429.779026810809
 20
989.111781205661
 11
437.290457089706
 21
1002.384508478319
  0
LINE
  5
4B
100
AcDbEntity
  8
1
  6
CONTINUOUS
 62
           3
100
AcDbLine
 10
437.290457089706
 20
1002.384508478319
 11
441.335903352681
 21
1002.384508478319
  0
LINE
  5
4A
100
AcDbEntity
  8
1
  6
CONTINUOUS
 62
           3
100
AcDbLine
 10
441.335903352681
 20
1002.384508478319
 11
442.343489276443
 21
989.111781205661
  0
LINE
  5
49
100
AcDbEntity
  8
1
  6
CONTINUOUS
 62
           3
100
AcDbLine
 10
442.343489276443
 20
989.111781205661
 11
440.313807113374
 21
989.111781205661
  0
LINE
  5
48
100
AcDbEntity
  8
1
  6
CONTINUOUS
 62
           3
100
AcDbLine
 10
440.313807113374
 20
989.111781205661
 11
440.145876126107
 21
991.323902417792
  0
LINE
  5
47
100
AcDbEntity
  8
1
  6
CONTINUOUS
 62
           3
100
AcDbLine
 10
440.145876126107
 20
991.323902417792
 11
433.409728845743
 21
991.323902417792
  0
LINE
  5
46
100
AcDbEntity
  8
1
  6
CONTINUOUS
 62
           3
100
AcDbLine
 10
433.409728845743
 20
991.323902417792
 11
432.15782379938
 21
989.111781205661
  0
LINE
  5
45
100
AcDbEntity
  8
1
  6
CONTINUOUS
 62
           3
100
AcDbLine
 10
432.15782379938
 20
989.111781205661
 11
429.779026810809
 21
989.111781205661
  0
LINE
  5
44
100
AcDbEntity
  8
1
  6
CONTINUOUS
 62
           3
100
AcDbLine
 10
434.661633892274
 20
993.536023629843
 11
439.977945138785
 21
993.536023629843
  0
LINE
  5
43
100
AcDbEntity
  8
1
  6
CONTINUOUS
 62
           3
100
AcDbLine
 10
439.977945138785
 20
993.536023629843
 11
439.47415217693
 21
1000.172387266268
  0
LINE
  5
42
100
AcDbEntity
  8
1
  6
CONTINUOUS
 62
           3
100
AcDbLine
 10
439.47415217693
 20
1000.172387266268
 11
438.41734903164
 21
1000.172387266268
  0
LINE
  5
41
100
AcDbEntity
  8
1
  6
CONTINUOUS
 62
           3
100
AcDbLine
 10
434.661633892274
 20
993.536023629843
 11
438.41734903164
 21
1000.172387266268
  0
LINE
  5
40
100
AcDbEntity
  8
1
  6
CONTINUOUS
 62
           3
100
AcDbLine
 10
448.108303947132
 20
1002.384508478319
 11
444.856381769563
 21
989.111781205661
  0
LINE
  5
3F
100
AcDbEntity
  8
1
  6
CONTINUOUS
 62
           3
100
AcDbLine
 10
444.856381769563
 20
989.111781205661
 11
457.420844235142
 21
989.111781205661
  0
LINE
  5
3E
100
AcDbEntity
  8
1
  6
CONTINUOUS
 62
           3
100
AcDbLine
 10
457.420844235142
 20
989.111781205661
 11
457.962831264803
 21
991.323902417792
  0
LINE
  5
3D
100
AcDbEntity
  8
1
  6
CONTINUOUS
 62
           3
100
AcDbLine
 10
457.962831264803
 20
991.323902417792
 11
447.492445876783
 21
991.323902417792
  0
LINE
  5
3C
100
AcDbEntity
  8
1
  6
CONTINUOUS
 62
           3
100
AcDbLine
 10
447.492445876783
 20
991.323902417792
 11
450.202381024746
 21
1002.384508478319
  0
LINE
  5
3B
100
AcDbEntity
  8
1
  6
CONTINUOUS
 62
           3
100
AcDbLine
 10
450.202381024746
 20
1002.384508478319
 11
448.108303947132
 21
1002.384508478319
  0
LINE
  5
3A
100
AcDbEntity
  8
1
  6
CONTINUOUS
 62
           3
100
AcDbLine
 10
494.723616311415
 20
996.200111213841
 11
494.723616311415
 21
993.451055788281
  0
LINE
  5
39
100
AcDbEntity
  8
1
  6
CONTINUOUS
 62
           3
100
AcDbLine
 10
493.851168612299
 20
993.451055788281
 11
493.851168612299
 21
1000.309523963455
  0
LINE
  5
38
100
AcDbEntity
  8
1
  6
CONTINUOUS
 62
           3
100
AcDbLine
 10
493.851168612299
 20
1000.309523963455
 11
496.29308847154
 21
1000.309523963455
  0
LINE
  5
37
100
AcDbEntity
  8
1
  6
CONTINUOUS
 62
           3
100
AcDbLine
 10
496.29308847154
 20
1000.309523963455
 11
496.589445053892
 21
1000.309523963455
  0
LINE
  5
36
100
AcDbEntity
  8
1
  6
CONTINUOUS
 62
           3
100
AcDbLine
 10
498.423079568458
 20
995.330689554625
 11
498.423079568458
 21
993.451055788281
  0
LINE
  5
35
100
AcDbEntity
  8
1
  6
CONTINUOUS
 62
           3
100
AcDbLine
 10
498.423079568458
 20
993.451055788281
 11
497.461892752953
 21
993.451055788281
  0
LINE
  5
34
100
AcDbEntity
  8
1
  6
CONTINUOUS
 62
           3
100
AcDbLine
 10
497.461892752953
 20
993.451055788281
 11
497.461892752953
 21
995.072911055899
  0
LINE
  5
33
100
AcDbEntity
  8
1
  6
CONTINUOUS
 62
           3
100
AcDbLine
 10
496.448678013033
 20
996.200111213841
 11
494.723616311415
 21
996.200111213841
  0
LINE
  5
32
100
AcDbEntity
  8
1
  6
CONTINUOUS
 62
           3
100
AcDbLine
 10
494.723616311415
 20
993.451055788281
 11
493.851168612299
 21
993.451055788281
  0
LINE
  5
31
100
AcDbEntity
  8
1
  6
CONTINUOUS
 62
           3
100
AcDbLine
 10
494.723616311415
 20
997.050334541275
 11
496.711099539357
 21
997.050334541275
  0
LINE
  5
30
100
AcDbEntity
  8
1
  6
CONTINUOUS
 62
           3
100
AcDbLine
 10
496.579589303501
 20
999.505992531278
 11
494.723616311415
 21
999.505992531278
  0
LINE
  5
2F
100
AcDbEntity
  8
1
  6
CONTINUOUS
 62
           3
100
AcDbLine
 10
494.723616311415
 20
999.505992531278
 11
494.723616311415
 21
997.050334541275
  0
ENDBLK
  5
E3
100
AcDbEntity
  8
0
100
AcDbBlockEnd
  0
BLOCK
  5
2A
100
AcDbEntity
  8
0
100
AcDbBlockBegin
  2
WANNE_PRIME_LINE_253
 70
           0
 10
0.0
 20
0.0
 30
0.0
  3
WANNE_PRIME_LINE_253
  1

  0
ARC
  5
103
100
AcDbEntity
  8
1
  6
CONTINUOUS
 62
           7
100
AcDbCircle
 10
561.750896965384
 20
150.0
 40
50.0
100
AcDbArc
 50
-90.0
 51
-61.389540343501
  0
ARC
  5
102
100
AcDbEntity
  8
1
  6
CONTINUOUS
 62
           7
100
AcDbCircle
 10
1600.0
 20
716.317692341765
 40
50.0
100
AcDbArc
 50
-61.3895403435
 51
0.0
  0
ARC
  5
101
100
AcDbEntity
  8
1
  6
CONTINUOUS
 62
           7
100
AcDbCircle
 10
100.0
 20
150.0
 40
50.0
100
AcDbArc
 50
180.0
 51
-90.0
  0
ARC
  5
100
100
AcDbEntity
  8
1
  6
CONTINUOUS
 62
           7
100
AcDbCircle
 10
100.0
 20
1100.0
 40
50.0
100
AcDbArc
 50
90.0
 51
180.0
  0
ARC
  5
FF
100
AcDbEntity
  8
1
  6
CONTINUOUS
 62
           7
100
AcDbCircle
 10
1600.0
 20
1100.0
 40
50.0
100
AcDbArc
 50
0.0
 51
90.0
  0
SPLINE
  5
FE
100
AcDbEntity
  8
1
  6
CONTINUOUS
 62
           7
100
AcDbSpline
210
0.0
220
0.0
230
1.0
 70
           0
 71
           3
 72
          41
 73
          38
 74
          77
 42
0.00000000001
 43
0.00000000001
 44
0.00000000001
 40
-1.8732400406152294
 40
-0.0595164091869833
 40
1.7542072222412615
 40
3.6869471104623743
 40
5.9420188427607652
 40
8.6386337926944172
 40
11.806927740586708
 40
15.414858804864709
 40
19.393799186612558
 40
23.652019648956674
 40
28.083253779420247
 40
32.573045066099745
 40
37.00427919656407
 40
41.262499658906904
 40
45.241440040654126
 40
48.849371104933084
 40
52.017665052825265
 40
54.714280002758912
 40
56.969351735057913
 40
58.902091623279475
 40
60.715815254707969
 40
62.648555142929183
 40
64.903626875227786
 40
67.60024182516149
 40
70.768535773053841
 40
74.376466837332046
 40
78.355407219079311
 40
82.613627681422145
 40
87.044861811885951
 40
91.534653098566906
 40
95.965887229030841
 40
100.22410769137443
 40
104.20304807312277
 40
107.81097913740038
 40
110.97927308529174
 40
113.67588803522526
 40
115.93095976752487
 40
117.86369965574643
 40
119.67742328717445
 40
121.49114691860269
 40
123.30487055003094
 10
1120.3532315532871
 20
428.6046032507769
 30
0.0
 10
1119.1171833139661
 20
429.93192316747849
 30
0.0
 10
1117.237824790984
 20
430.75515753307383
 30
0.0
 10
1114.8064164398679
 20
431.11836772457281
 30
0.0
 10
1111.8727481953499
 20
431.0353520504043
 30
0.0
 10
1108.51171151573
 20
430.51065820655231
 30
0.0
 10
1104.818399567285
 20
429.5583274262508
 30
0.0
 10
1100.901767431455
 20
428.2052670471295
 30
0.0
 10
1096.8790820725139
 20
426.491118155089
 30
0.0
 10
1092.8714555310939
 20
424.46697505183721
 30
0.0
 10
1088.9997104995441
 20
422.19369191755328
 30
0.0
 10
1085.3804301039911
 20
419.73989621711547
 30
0.0
 10
1082.122148812784
 20
417.17974334974332
 30
0.0
 10
1079.3216901494161
 20
414.59035764297568
 30
0.0
 10
1077.0606714845251
 20
412.04877038526718
 30
0.0
 10
1075.402387589965
 20
409.62732546619759
 30
0.0
 10
1074.3912132231519
 20
407.38652324087951
 30
0.0
 10
1074.0657086209139
 20
405.36075177486327
 30
0.0
 10
1074.512331813891
 20
403.6028777365151
 30
0.0
 10
1075.7483800532141
 20
402.27555781981562
 30
0.0
 10
1077.627738576196
 20
401.45232345421891
 30
0.0
 10
1080.059146927312
 20
401.08911326271931
 30
0.0
 10
1082.99281517183
 20
401.17212893688799
 30
0.0
 10
1086.3538518514499
 20
401.69682278074072
 30
0.0
 10
1090.0471637998951
 20
402.64915356104251
 30
0.0
 10
1093.963795935724
 20
404.00221394016262
 30
0.0
 10
1097.9864812946639
 20
405.716362832203
 30
0.0
 10
1101.994107836085
 20
407.74050593545599
 30
0.0
 10
1105.8658528676369
 20
410.01378906973912
 30
0.0
 10
1109.4851332631879
 20
412.46758477017607
 30
0.0
 10
1112.7434145543971
 20
415.02773763755158
 30
0.0
 10
1115.543873217764
 20
417.61712334431809
 30
0.0
 10
1117.8048918826551
 20
420.15871060202488
 30
0.0
 10
1119.463175777214
 20
422.58015552109481
 30
0.0
 10
1120.474350144028
 20
424.8209577464126
 30
0.0
 10
1120.7998547462651
 20
426.84672921243009
 30
0.0
 10
1120.3532315532871
 20
428.6046032507769
 30
0.0
 10
1119.1171833139661
 20
429.93192316747849
 30
0.0
 11
1119.7548405935236
 21
429.24718030691554
 31
0.0
 11
1119.0597593713703
 21
429.85572130308844
 31
0.0
 11
1118.2498302640251
 21
430.31185857048098
 31
0.0
 11
1117.2140012814734
 21
430.68568562269814
 31
0.0
 11
1116.1305252799
 21
430.92056885416389
 31
0.0
 11
1114.8002272589595
 21
431.05937560350185
 31
0.0
 11
1113.4575508762023
 21
431.08019811069789
 31
0.0
 11
1111.8760770176109
 21
430.98523205984634
 31
0.0
 11
1110.3012608035415
 21
430.79002602787898
 31
0.0
 11
1108.5200109012501
 21
430.46728011360176
 31
0.0
 11
1106.7553597699991
 21
430.05777801342373
 31
0.0
 11
1104.8296597265703
 21
429.51979194705956
 31
0.0
 11
1102.9264800017127
 21
428.90473492231297
 31
0.0
 11
1100.9151217458361
 21
428.1701316558914
 31
0.0
 11
1098.9304721187211
 21
427.36525760699351
 31
0.0
 11
1096.8942644984365
 21
426.45829592668088
 31
0.0
 11
1094.8884217299969
 21
425.48568978955205
 31
0.0
 11
1092.888552209741
 21
424.43562813014984
 31
0.0
 11
1090.922876046779
 21
423.3228726273727
 31
0.0
 11
1089.0190840077853
 21
422.16315551447474
 31
0.0
 11
1087.154038985273
 21
420.9423655954194
 31
0.0
 11
1085.4027382019285
 21
419.7096442387259
 31
0.0
 11
1083.6960536144579
 21
418.4164189252532
 31
0.0
 11
1082.1484493551477
 21
417.14941092789815
 31
0.0
 11
1080.6534461805645
 21
415.82173808685286
 31
0.0
 11
1079.3536651446698
 21
414.55989227859953
 31
0.0
 11
1078.1178340992817
 21
413.23711574159381
 31
0.0
 11
1077.101005938785
 21
412.01883334615587
 31
0.0
 11
1076.1648466868082
 21
410.74067687249556
 31
0.0
 11
1075.4553347324413
 21
409.60058642335156
 31
0.0
 11
1074.8517170630269
 21
408.40701788851527
 31
0.0
 11
1074.4625193857089
 21
407.36893525867305
 31
0.0
 11
1074.2159340335047
 21
406.2956766644179
 31
0.0
 11
1074.160866393076
 21
405.36776830654662
 31
0.0
 11
1074.2961142969721
 21
404.45389301204204
 31
0.0
 11
1074.6078751746022
 21
403.65498729136243
 31
0.0
 11
1075.1107227736557
 21
402.96030068037749
 31
0.0
 11
1075.8058039958098
 21
402.35175968420532
 31
0.0
 11
1076.615733103155
 21
401.89562241681256
 31
0.0
 11
1077.6515620857067
 21
401.52179536459471
 31
0.0
 11
1078.7350380872799
 21
401.28691213312857
 31
0.0
 11
1080.0653361082204
 21
401.14810538379038
 31
0.0
 11
1081.4080124909774
 21
401.12728287659434
 31
0.0
 11
1082.989486349569
 21
401.22224892744606
 31
0.0
 11
1084.5643025636386
 21
401.4174549594137
 31
0.0
 11
1086.34555246593
 21
401.74020087369115
 31
0.0
 11
1088.1102035971812
 21
402.14970297386947
 31
0.0
 11
1090.0359036406096
 21
402.68768904023364
 31
0.0
 11
1091.939083365467
 21
403.30274606497983
 31
0.0
 11
1093.9504416213429
 21
404.03734933140083
 31
0.0
 11
1095.935091248457
 21
404.84222338029838
 31
0.0
 11
1097.9712988687415
 21
405.74918506061124
 31
0.0
 11
1099.9771416371811
 21
406.72179119774046
 31
0.0
 11
1101.9770111574383
 21
407.77185285714319
 31
0.0
 11
1103.9426873204013
 21
408.88460835992032
 31
0.0
 11
1105.8464793593955
 21
410.04432547281772
 31
0.0
 11
1107.7115243819067
 21
411.26511539187243
 31
0.0
 11
1109.4628251652512
 21
412.49783674856621
 31
0.0
 11
1111.1695097527218
 21
413.79106206203994
 31
0.0
 11
1112.7171140120331
 21
415.05807005939619
 31
0.0
 11
1114.2121171866165
 21
416.38574290044187
 31
0.0
 11
1115.5118982225108
 21
417.64758870869429
 31
0.0
 11
1116.7477292678982
 21
418.97036524569899
 31
0.0
 11
1117.7645574283949
 21
420.18864764113636
 31
0.0
 11
1118.700716680371
 21
421.46680411479656
 31
0.0
 11
1119.4102286347379
 21
422.60689456394073
 31
0.0
 11
1120.0138463041526
 21
423.80046309877685
 31
0.0
 11
1120.4030439814708
 21
424.83854572861924
 31
0.0
 11
1120.6496293336745
 21
425.91180432287501
 31
0.0
 11
1120.7046969741027
 21
426.83971268074646
 31
0.0
 11
1120.5694490702065
 21
427.75358797525064
 31
0.0
 11
1120.2527799026018
 21
428.557764421483
 31
0.0
 11
1119.7352074336266
 21
429.26826320912767
 31
0.0
 11
1119.4261953737962
 21
429.60009318830305
 31
0.0
 11
1119.7352074336263
 21
429.26826320912767
 31
0.0
 11
1120.049127783431
 21
428.93116250439925
 31
0.0
 11
1119.7548405935236
 21
429.24718030691554
 31
0.0
  0
CIRCLE
  5
FD
100
AcDbEntity
  8
WANNE
  6
CONTINUOUS
 62
           7
100
AcDbCircle
 10
1010.935502999992
 20
576.173810999993
 40
26.0
  0
CIRCLE
  5
FC
100
AcDbEntity
  8
WANNE
  6
CONTINUOUS
 62
           7
100
AcDbCircle
 10
1010.935502999997
 20
576.173810999993
 40
45.0
  0
ARC
  5
FB
100
AcDbEntity
  8
1
  6
CONTINUOUS
 62
           7
100
AcDbCircle
 10
1613.335600008511
 20
974.999821629575
 40
1363.335599902088
100
AcDbArc
 50
-179.818596696898
 51
-147.22656995762
  0
ARC
  5
FA
100
AcDbEntity
  8
1
  6
CONTINUOUS
 62
           7
100
AcDbCircle
 10
551.10064015448
 20
291.133076275778
 40
100.000001046072
100
AcDbArc
 50
-147.226569428289
 51
-61.389540427724
  0
ARC
  5
F9
100
AcDbEntity
  8
1
  6
CONTINUOUS
 62
           7
100
AcDbCircle
 10
1465.079257000011
 20
789.666865999996
 40
100.000000000034
100
AcDbArc
 50
-61.389539999999
 51
10.80421800001
  0
ARC
  5
F8
100
AcDbEntity
  8
1
  6
CONTINUOUS
 62
           7
100
AcDbCircle
 10
350.006332344632
 20
970.999999632836
 40
100.000000445526
100
AcDbArc
 50
89.997731756879
 51
-179.818602121189
  0
ARC
  5
F7
100
AcDbEntity
  8
1
  6
CONTINUOUS
 62
           7
100
AcDbCircle
 10
1416.265509000012
 20
971.000000000088
 40
99.999999999912
100
AcDbArc
 50
19.328803999965
 51
90.0
  0
ARC
  5
F6
100
AcDbEntity
  8
1
  6
CONTINUOUS
 62
           7
100
AcDbCircle
 10
794.289956118437
 20
5558.048606090769
 40
5462.999999999999
100
AcDbArc
 50
-96.987025262543
 51
-92.439599728823
  0
ARC
  5
F5
100
AcDbEntity
  8
1
  6
CONTINUOUS
 62
           7
100
AcDbCircle
 10
110.268463999989
 20
1099.999999999993
 40
50.000000000007
100
AcDbArc
 50
89.999999999991
 51
179.752194000015
  0
ARC
  5
F4
100
AcDbEntity
  8
1
  6
CONTINUOUS
 62
           7
100
AcDbCircle
 10
135.307991999984
 20
185.307991999976
 40
49.99999999995
100
AcDbArc
 50
-176.616053999971
 51
-96.38721199999
  0
ARC
  5
F3
100
AcDbEntity
  8
1
  6
CONTINUOUS
 62
           7
100
AcDbCircle
 10
14548.45436050635
 20
1037.553992813205
 40
14488.320937210427
100
AcDbArc
 50
179.752193913328
 51
-176.616053976945
  0
LINE
  5
F2
100
AcDbEntity
  8
1
  6
CONTINUOUS
 62
           7
100
AcDbLine
 10
1510.628978047698
 20
1004.098876811397
 11
1563.306600927299
 21
808.412235272393
  0
LINE
  5
F1
100
AcDbEntity
  8
1
  6
CONTINUOUS
 62
           7
100
AcDbLine
 10
598.985852999998
 20
203.343517999994
 11
1512.964469999999
 21
701.877308999996
  0
LINE
  5
F0
100
AcDbEntity
  8
1
  6
CONTINUOUS
 62
           7
100
AcDbLine
 10
1623.942606526777
 20
672.42291369209
 11
585.69350349216
 21
106.105221350325
  0
LINE
  5
EF
100
AcDbEntity
  8
1
  6
CONTINUOUS
 62
           7
100
AcDbLine
 10
350.010291175718
 20
1071.0
 11
1416.265509000012
 21
1071.0
  0
LINE
  5
EE
100
AcDbEntity
  8
1
  6
CONTINUOUS
 62
           7
100
AcDbLine
 10
561.750896965384
 20
100.0
 11
100.0
 21
100.0
  0
LINE
  5
ED
100
AcDbEntity
  8
1
  6
CONTINUOUS
 62
           7
100
AcDbLine
 10
50.0
 20
150.0
 11
50.0
 21
1100.0
  0
LINE
  5
EC
100
AcDbEntity
  8
1
  6
CONTINUOUS
 62
           7
100
AcDbLine
 10
1650.0
 20
1100.0
 11
1650.0
 21
716.317692341765
  0
LINE
  5
EB
100
AcDbEntity
  8
1
  6
CONTINUOUS
 62
           7
100
AcDbLine
 10
100.0
 20
1150.0
 11
1600.0
 21
1150.0
  0
LINE
  5
EA
100
AcDbEntity
  8
WANNE
  6
CONTINUOUS
 62
           7
100
AcDbLine
 10
1700.0
 20
599.999999873817
 11
599.999999799019
 21
0.0
  0
LINE
  5
E9
100
AcDbEntity
  8
WANNE
  6
CONTINUOUS
 62
           7
100
AcDbLine
 10
1700.0
 20
1200.0
 11
1700.0
 21
599.999999873817
  0
LINE
  5
E8
100
AcDbEntity
  8
WANNE
  6
CONTINUOUS
 62
           7
100
AcDbLine
 10
0.0
 20
1200.0
 11
1700.0
 21
1200.0
  0
LINE
  5
E7
100
AcDbEntity
  8
WANNE
  6
CONTINUOUS
 62
           7
100
AcDbLine
 10
0.0
 20
0.0
 11
0.0
 21
1200.0
  0
LINE
  5
E6
100
AcDbEntity
  8
WANNE
  6
CONTINUOUS
 62
           7
100
AcDbLine
 10
599.999999799019
 20
0.0
 11
0.0
 21
0.0
  0
LINE
  5
E5
100
AcDbEntity
  8
MITTELLINIEN
  6
DOT_CENTER
 62
           3
100
AcDbLine
 10
1010.935502999997
 20
640.163765999991
 11
1010.935502999997
 21
510.495791999992
  0
LINE
  5
E4
100
AcDbEntity
  8
MITTELLINIEN
  6
DOT_CENTER
 62
           3
100
AcDbLine
 10
1074.925457999995
 20
576.173810999993
 11
945.257483999985
 21
576.173810999993
  0
ENDBLK
  5
104
100
AcDbEntity
  8
0
100
AcDbBlockEnd
  0
ENDSEC
  0
SECTION
  2
ENTITIES
  0
MTEXT
  5
108
100
AcDbEntity
  8
1
 62
           3
100
AcDbMText
 10
960.935502999997
 20
626.173810999994
 30
0.0
 40
35.0
 41
0.0
 71
           9
 72
           1
  1
ø 52
  7
CONVERTER_1
  0
TEXT
  5
107
100
AcDbEntity
  8
1
 62
           2
100
AcDbText
 10
323.516980175716
 20
856.0
 40
35.0
  1
Prime-line 253
 41
0.71262
  7
CONVERTER_1
100
AcDbText
  0
INSERT
  5
2D
100
AcDbEntity
  8
0
100
AcDbBlockReference
  2
DLX
 10
0.0
 20
0.0
  0
INSERT
  5
2E
100
AcDbEntity
  8
0
100
AcDbBlockReference
  2
WANNE_PRIME_LINE_253
 10
0.0
 20
0.0
  0
ENDSEC
  0
SECTION
  2
OBJECTS
  0
DICTIONARY
  5
19
100
AcDbDictionary
  3
ACAD_GROUP
350
1A
  3
ACAD_MLINESTYLE
350
1B
  0
DICTIONARY
  5
1A
102
{ACAD_REACTORS
330
19
102
}
100
AcDbDictionary
  0
DICTIONARY
  5
1B
102
{ACAD_REACTORS
330
19
102
}
100
AcDbDictionary
  3
STANDARD
350
1C
  0
MLINESTYLE
  5
1C
102
{ACAD_REACTORS
330
1B
102
}
100
AcDbMlineStyle
  2
STANDARD
 70
           0
  3

 62
           0
 51
90.0
 52
90.0
 71
           2
 49
0.5
 62
         256
  6
BYLAYER
 49
-0.5
 62
         256
  6
BYLAYER
  0
ENDSEC
  0
EOF
