  0
SECTION
  2
HEADER
  9
$ACADVER
  1
AC1014
  9
$ACADMAINTVER
 70
           0
  9
$DWGCODEPAGE
  3
ANSI_1252
  9
$INSBASE
 10
0.0
 20
0.0
 30
0.0
  9
$EXTMIN
 10
1.000000000000E+20
 20
1.000000000000E+20
 30
1.000000000000E+20
  9
$EXTMAX
 10
-1.000000000000E+20
 20
-1.000000000000E+20
 30
-1.000000000000E+20
  9
$LIMMIN
 10
0.0
 20
0.0
  9
$LIMMAX
 10
0.0
 20
0.0
  9
$ORTHOMODE
 70
           0
  9
$REGENMODE
 70
           1
  9
$FILLMODE
 70
           1
  9
$QTEXTMODE
 70
           0
  9
$MIRRTEXT
 70
           1
  9
$DRAGMODE
 70
           2
  9
$LTSCALE
 40
1.0
  9
$OSMODE
 70
           0
  9
$ATTMODE
 70
           1
  9
$TEXTSIZE
 40
0.2
  9
$TRACEWID
 40
0.05
  9
$TEXTSTYLE
  7
STANDARD
  9
$CLAYER
  8
0
  9
$CELTYPE
  6
CONTINUOUS
  9
$CECOLOR
 62
         256
  9
$CELTSCALE
 40
1.0
  9
$DELOBJ
 70
           1
  9
$DISPSILH
 70
           0
  9
$DIMSCALE
 40
1.0
  9
$DIMASZ
 40
0.18
  9
$DIMEXO
 40
0.0625
  9
$DIMDLI
 40
0.38
  9
$DIMRND
 40
0.0
  9
$DIMDLE
 40
0.0
  9
$DIMEXE
 40
0.18
  9
$DIMTP
 40
0.0
  9
$DIMTM
 40
0.0
  9
$DIMTXT
 40
0.18
  9
$DIMCEN
 40
0.09
  9
$DIMTSZ
 40
0.0
  9
$DIMTOL
 70
           0
  9
$DIMLIM
 70
           0
  9
$DIMTIH
 70
           1
  9
$DIMTOH
 70
           1
  9
$DIMSE1
 70
           0
  9
$DIMSE2
 70
           0
  9
$DIMTAD
 70
           0
  9
$DIMZIN
 70
           0
  9
$DIMBLK
  1

  9
$DIMASO
 70
           1
  9
$DIMSHO
 70
           1
  9
$DIMPOST
  1

  9
$DIMAPOST
  1

  9
$DIMALT
 70
           0
  9
$DIMALTD
 70
           2
  9
$DIMALTF
 40
25.4
  9
$DIMLFAC
 40
1.0
  9
$DIMTOFL
 70
           0
  9
$DIMTVP
 40
0.0
  9
$DIMTIX
 70
           0
  9
$DIMSOXD
 70
           0
  9
$DIMSAH
 70
           0
  9
$DIMBLK1
  1

  9
$DIMBLK2
  1

  9
$DIMSTYLE
  2
STANDARD
  9
$DIMCLRD
 70
           0
  9
$DIMCLRE
 70
           0
  9
$DIMCLRT
 70
           0
  9
$DIMTFAC
 40
1.0
  9
$DIMGAP
 40
0.09
  9
$DIMJUST
 70
           0
  9
$DIMSD1
 70
           0
  9
$DIMSD2
 70
           0
  9
$DIMTOLJ
 70
           1
  9
$DIMTZIN
 70
           0
  9
$DIMALTZ
 70
           0
  9
$DIMALTTZ
 70
           0
  9
$DIMFIT
 70
           3
  9
$DIMUPT
 70
           0
  9
$DIMUNIT
 70
           2
  9
$DIMDEC
 70
           4
  9
$DIMTDEC
 70
           4
  9
$DIMALTU
 70
           2
  9
$DIMALTTD
 70
           2
  9
$DIMTXSTY
  7
STANDARD
  9
$DIMAUNIT
 70
           0
  9
$LUNITS
 70
           2
  9
$LUPREC
 70
           4
  9
$SKETCHINC
 40
0.1
  9
$FILLETRAD
 40
0.0
  9
$AUNITS
 70
           0
  9
$AUPREC
 70
           0
  9
$MENU
  1
acad
  9
$ELEVATION
 40
0.0
  9
$PELEVATION
 40
0.0
  9
$THICKNESS
 40
0.0
  9
$LIMCHECK
 70
           0
  9
$BLIPMODE
 70
           1
  9
$CHAMFERA
 40
0.0
  9
$CHAMFERB
 40
0.0
  9
$CHAMFERC
 40
0.0
  9
$CHAMFERD
 40
0.0
  9
$SKPOLY
 70
           0
  9
$TDCREATE
 40
0.000000000
  9
$TDUPDATE
 40
0.000000000
  9
$TDINDWG
 40
0.0000000000
  9
$TDUSRTIMER
 40
0.0000000000
  9
$USRTIMER
 70
           1
  9
$ANGBASE
 50
0.0
  9
$ANGDIR
 70
           0
  9
$PDMODE
 70
           0
  9
$PDSIZE
 40
0.0
  9
$PLINEWID
 40
0.0
  9
$COORDS
 70
           0
  9
$SPLFRAME
 70
           0
  9
$SPLINETYPE
 70
           6
  9
$SPLINESEGS
 70
           8
  9
$ATTDIA
 70
           0
  9
$ATTREQ
 70
           1
  9
$HANDLING
 70
           1
  9
$HANDSEED
  5
10A
  9
$SURFTAB1
 70
           6
  9
$SURFTAB2
 70
           6
  9
$SURFTYPE
 70
           6
  9
$SURFU
 70
           6
  9
$SURFV
 70
           6
  9
$UCSNAME
  2

  9
$UCSORG
 10
0.0
 20
0.0
 30
0.0
  9
$UCSXDIR
 10
1.0
 20
0.0
 30
0.0
  9
$UCSYDIR
 10
0.0
 20
1.0
 30
0.0
  9
$PUCSNAME
  2

  9
$PUCSORG
 10
0.0
 20
0.0
 30
0.0
  9
$PUCSXDIR
 10
1.0
 20
0.0
 30
0.0
  9
$PUCSYDIR
 10
0.0
 20
1.0
 30
0.0
  9
$USERI1
 70
           0
  9
$USERI2
 70
           0
  9
$USERI3
 70
           0
  9
$USERI4
 70
           0
  9
$USERI5
 70
           0
  9
$USERR1
 40
0.0
  9
$USERR2
 40
0.0
  9
$USERR3
 40
0.0
  9
$USERR4
 40
0.0
  9
$USERR5
 40
0.0
  9
$WORLDVIEW
 70
           1
  9
$SHADEDGE
 70
           3
  9
$SHADEDIF
 70
          70
  9
$TILEMODE
 70
           1
  9
$MAXACTVP
 70
          16
  9
$PINSBASE
 10
0.0
 20
0.0
 30
0.0
  9
$PLIMCHECK
 70
           0
  9
$PEXTMIN
 10
1.000000000000E+20
 20
1.000000000000E+20
 30
1.000000000000E+20
  9
$PEXTMAX
 10
-1.000000000000E+20
 20
-1.000000000000E+20
 30
-1.000000000000E+20
  9
$PLIMMIN
 10
0.0
 20
0.0
  9
$PLIMMAX
 10
12.0
 20
9.0
  9
$UNITMODE
 70
           0
  9
$VISRETAIN
 70
           0
  9
$PLINEGEN
 70
           1
  9
$PSLTSCALE
 70
           0
  9
$TREEDEPTH
 70
        3020
  9
$PICKSTYLE
 70
           1
  9
$CMLSTYLE
  2
STANDARD
  9
$CMLJUST
 70
           0
  9
$CMLSCALE
 40
1.0
  9
$PROXYGRAPHICS
 70
           0
  9
$MEASUREMENT
 70
           0
  0
ENDSEC
  0
SECTION
  2
CLASSES
  0
CLASS
  1
LWPOLYLINE
  2
AcDbPolyline
  3
"AutoCAD"
 90
        0
280
           0
281
           1
  0
CLASS
  1
IMAGE
  2
AcDbRasterImage
  3
ISM
 90
      127
280
           0
281
           1
  0
CLASS
  1
OLE2FRAME
  2
AcDbOle2Frame
  3
""
 90
        0
280
           0
281
           1
  0
CLASS
  1
HATCH
  2
AcDbHatch
  3
"ACAD_SEDONA"
 90
        0
280
           0
281
           1
  0
CLASS
  1
DICTIONARYVAR
  2
AcDbDictionaryVar
  3
"AutoCAD"
 90
        0
280
           0
281
           0
  0
CLASS
  1
RASTERVARIABLES
  2
AcDbRasterVariables
  3
ISM
 90
        0
280
           0
281
           0
  0
CLASS
  1
IMAGEDEF
  2
AcDbRasterImageDef
  3
ISM
 90
        0
280
           0
281
           0
  0
CLASS
  1
IMAGEDEF_REACTOR
  2
AcDbRasterImageDefReactor
  3
ISM
 90
        1
280
           0
281
           0
  0
CLASS
  1
IDBUFFER
  2
AcDbIdBuffer
  3
"Acad"
 90
        0
280
           0
281
           0
  0
CLASS
  1
SPATIAL_FILTER
  2
AcDbSpatialFilter
  3
"Acad"
 90
        0
280
           0
281
           0
  0
CLASS
  1
XRECORD
  2
AcDbXrecord
  3
"<Built In>"
 90
        0
280
           0
281
           0
  0
CLASS
  1
SORTENTSTABLE
  2
AcDbSortentsTable
  3
"AutoCAD"
 90
        0
280
           0
281
           0
  0
CLASS
  1
LAYER_INDEX
  2
AcDbLayerIndex
  3
"Acad"
 90
        0
280
           0
281
           0
  0
CLASS
  1
SPATIAL_INDEX
  2
AcDbSpatialIndex
  3
"Acad"
 90
        0
280
           0
281
           0
  0
CLASS
  1
OBJECT_PTR
  2
CAseDLPNTableRecord
  3
"ASE-LPNTableRecord"
 90
        1
280
           0
281
           0
  0
CLASS
  1
LAYOUT
  2
AcDbLayout
  3
"AutoCAD 2000"
 90
        1
280
           0
281
           0
  0
CLASS
  1
PLOTSETTINGS
  2
AcDbPlotSettings
  3
"AutoCAD 2000"
 90
        1
280
           0
281
           0
  0
CLASS
  1
ACDBDICTIONARYWDFLT
  2
AcDbDictionaryWithDefault
  3
"AutoCAD 2000"
 90
        1
280
           0
281
           0
  0
CLASS
  1
ACDBPLACEHOLDER
  2
AcDbPlaceHolder
  3
"AutoCAD 2000"
 90
        1
280
           0
281
           0
  0
CLASS
  1
VBA_PROJECT
  2
AcDbVbaProject
  3
"acadvba"
 90
        1
280
           0
281
           0
  0
CLASS
  1
WIPEOUT
  2
AcDbWipeout
  3
WipeOut|AutoCAD Express Tool|expresstools@autodesk.com
 90
      127
280
           0
281
           1
  0
CLASS
  1
WIPEOUTVARIABLES
  2
AcDbWipeoutVariables
  3
WipeOut|AutoCAD Express Tool|expresstools@autodesk.com
 90
        0
280
           0
281
           0
  0
CLASS
  1
RTEXT
  2
RText
  3
RText|AutoCAD Express Tool|expresstools@autodesk.com
 90
        0
280
           0
281
           1
  0
CLASS
  1
ARCALIGNEDTEXT
  2
AcDbArcAlignedText
  3
ATEXT|AutoCAD Express Tool|expresstools@autodesk.com
 90
        0
280
           0
281
           1
  0
ENDSEC
  0
SECTION
  2
TABLES
  0
TABLE
  2
VPORT
  5
7
100
AcDbSymbolTable
 70
           1
  0
VPORT
  5
15
100
AcDbSymbolTableRecord
100
AcDbViewportTableRecord
  2
*ACTIVE
 70
           0
 10
0.0
 20
0.0
 11
1.0
 21
1.0
 12
6.591288
 22
4.579184
 13
0.0
 23
0.0
 14
1.0
 24
1.0
 15
0.0
 25
0.0
 16
0.0
 26
0.0
 36
1.0
 17
0.0
 27
0.0
 37
0.0
 40
9.158369
 41
0.688564
 42
50.0
 43
0.0
 44
0.0
 50
0.0
 51
0.0
 71
           0
 72
         100
 73
           1
 74
           1
 75
           0
 76
           0
 77
           0
 78
           0
  0
ENDTAB
  0
TABLE
  2
LTYPE
  5
4
100
AcDbSymbolTable
 70
          10
  0
LTYPE
  5
11
100
AcDbSymbolTableRecord
100
AcDbLinetypeTableRecord
  2
BYBLOCK
 70
          64
  3

 72
          65
 73
           0
 40
0.0
  0
LTYPE
  5
12
100
AcDbSymbolTableRecord
100
AcDbLinetypeTableRecord
  2
BYLAYER
 70
          64
  3

 72
          65
 73
           0
 40
0.0
  0
LTYPE
  5
13
100
AcDbSymbolTableRecord
100
AcDbLinetypeTableRecord
  2
CONTINUOUS
 70
          64
  3
Solid line
 72
          65
 73
           0
 40
0.0
  0
LTYPE
  5
1D
100
AcDbSymbolTableRecord
100
AcDbLinetypeTableRecord
  2
DASHED
 70
          64
  3
Dashed
 72
          65
 73
           2
 40
15.0
 49
12.0
 74
           0
 49
-3.0
 74
           0
  0
LTYPE
  5
1E
100
AcDbSymbolTableRecord
100
AcDbLinetypeTableRecord
  2
DOTTED
 70
          64
  3
Dotted
 72
          65
 73
           2
 40
3.5
 49
0.5
 74
           0
 49
-3.0
 74
           0
  0
LTYPE
  5
1F
100
AcDbSymbolTableRecord
100
AcDbLinetypeTableRecord
  2
DOT_CENTER
 70
          64
  3
Dot_Center
 72
          65
 73
           4
 40
2.0
 49
1.25
 74
           0
 49
-0.25
 74
           0
 49
0.25
 74
           0
 49
-0.25
 74
           0
  0
LTYPE
  5
20
100
AcDbSymbolTableRecord
100
AcDbLinetypeTableRecord
  2
LONG_DASHED
 70
          64
  3
Long_Dashed
 72
          65
 73
           2
 40
2.0
 49
1.5
 74
           0
 49
-0.5
 74
           0
  0
LTYPE
  5
21
100
AcDbSymbolTableRecord
100
AcDbLinetypeTableRecord
  2
DASH_CENTER
 70
          64
  3
Dash_Center
 72
          65
 73
           4
 40
36.0
 49
24.0
 74
           0
 49
-3.0
 74
           0
 49
6.0
 74
           0
 49
-3.0
 74
           0
  0
LTYPE
  5
22
100
AcDbSymbolTableRecord
100
AcDbLinetypeTableRecord
  2
PHANTOM
 70
          64
  3
Phantom
 72
          65
 73
           6
 40
2.5
 49
1.25
 74
           0
 49
-0.25
 74
           0
 49
0.25
 74
           0
 49
-0.25
 74
           0
 49
0.25
 74
           0
 49
-0.25
 74
           0
  0
LTYPE
  5
23
100
AcDbSymbolTableRecord
100
AcDbLinetypeTableRecord
  2
CENTER_DASH_DASH
 70
          64
  3
Center_Dash_Dash
 72
          65
 73
           6
 40
22.0
 49
12.0
 74
           0
 49
-3.0
 74
           0
 49
0.5
 74
           0
 49
-3.0
 74
           0
 49
0.5
 74
           0
 49
-3.0
 74
           0
  0
ENDTAB
  0
TABLE
  2
LAYER
  5
2
100
AcDbSymbolTable
 70
           4
  0
LAYER
  5
14
100
AcDbSymbolTableRecord
100
AcDbLayerTableRecord
  2
0
 70
           0
 62
           7
  6
CONTINUOUS
  0
LAYER
  5
24
100
AcDbSymbolTableRecord
100
AcDbLayerTableRecord
  2
MITTELLINIEN
 70
           0
 62
           7
  6
CONTINUOUS
  0
LAYER
  5
25
100
AcDbSymbolTableRecord
100
AcDbLayerTableRecord
  2
1
 70
           0
 62
           7
  6
CONTINUOUS
  0
LAYER
  5
26
100
AcDbSymbolTableRecord
100
AcDbLayerTableRecord
  2
WANNE
 70
           0
 62
           7
  6
CONTINUOUS
  0
ENDTAB
  0
TABLE
  2
STYLE
  5
3
100
AcDbSymbolTable
 70
           2
  0
STYLE
  5
17
100
AcDbSymbolTableRecord
100
AcDbTextStyleTableRecord
  2
STANDARD
 70
           0
 40
0.0
 41
1.0
 50
0.0
 71
           0
 42
0.0
  3
txt
  4

  0
STYLE
  5
106
100
AcDbSymbolTableRecord
100
AcDbTextStyleTableRecord
  2
CONVERTER_1
 70
           0
 40
0.0
 41
0.71262
 50
0.0
 71
           0
 42
0.0
  3
txt.shx
  4

  0
ENDTAB
  0
TABLE
  2
VIEW
  5
5
100
AcDbSymbolTable
 70
           0
  0
ENDTAB
  0
TABLE
  2
UCS
  5
6
100
AcDbSymbolTable
 70
           0
  0
ENDTAB
  0
TABLE
  2
APPID
  5
8
100
AcDbSymbolTable
 70
           1
  0
APPID
  5
16
100
AcDbSymbolTableRecord
100
AcDbRegAppTableRecord
  2
ACAD
 70
           0
  0
ENDTAB
  0
TABLE
  2
DIMSTYLE
  5
9
100
AcDbSymbolTable
 70
           1
  0
DIMSTYLE
105
18
100
AcDbSymbolTableRecord
100
AcDbDimStyleTableRecord
  2
STANDARD
 70
           0
  3

  4

  5

  6

  7

 40
1.0
 41
0.18
 42
0.0625
 43
0.38
 44
0.18
 45
0.0
 46
0.0
 47
0.0
 48
0.0
 71
           0
 72
           0
 73
           1
 74
           1
 75
           0
 76
           0
 77
           0
 78
           0
140
0.18
141
0.09
142
0.0
143
25.4
144
1.0
145
0.0
146
1.0
147
0.09
170
           0
171
           2
172
           0
173
           0
174
           0
175
           0
176
           0
177
           0
178
           0
270
           2
271
           4
272
           4
273
           2
274
           2
275
           0
280
           0
281
           0
282
           0
283
           1
284
           0
285
           0
286
           0
287
           0
288
           0
340
17
  0
ENDTAB
  0
TABLE
  2
BLOCK_RECORD
  5
1
100
AcDbSymbolTable
 70
           2
  0
BLOCK_RECORD
  5
A
100
AcDbSymbolTableRecord
100
AcDbBlockTableRecord
  2
*MODEL_SPACE
  0
BLOCK_RECORD
  5
B
100
AcDbSymbolTableRecord
100
AcDbBlockTableRecord
  2
*PAPER_SPACE
  0
BLOCK_RECORD
  5
27
100
AcDbSymbolTableRecord
100
AcDbBlockTableRecord
  2
DLX
  0
BLOCK_RECORD
  5
29
100
AcDbSymbolTableRecord
100
AcDbBlockTableRecord
  2
WANNE_PRIME_LINE_254
  0
ENDTAB
  0
ENDSEC
  0
SECTION
  2
BLOCKS
  0
BLOCK
  5
D
100
AcDbEntity
  8
0
100
AcDbBlockBegin
  2
*MODEL_SPACE
 70
           0
 10
0.0
 20
0.0
 30
0.0
  3
*MODEL_SPACE
  1

  0
ENDBLK
  5
E
100
AcDbEntity
  8
0
100
AcDbBlockEnd
  0
BLOCK
  5
F
100
AcDbEntity
 67
           1
  8
0
100
AcDbBlockBegin
  2
*PAPER_SPACE
 70
           0
 10
0.0
 20
0.0
 30
0.0
  3
*PAPER_SPACE
  1

  0
ENDBLK
  5
10
100
AcDbEntity
 67
           1
  8
0
100
AcDbBlockEnd
  0
BLOCK
  5
28
100
AcDbEntity
  8
0
100
AcDbBlockBegin
  2
DLX
 70
           0
 10
0.0
 20
0.0
 30
0.0
  3
DLX
  1

  0
CIRCLE
  5
E2
100
AcDbEntity
  8
1
  6
CONTINUOUS
 62
           3
100
AcDbCircle
 10
1368.889391910014
 20
996.878787878754
 40
5.972862778755
  0
CIRCLE
  5
E1
100
AcDbEntity
  8
1
  6
CONTINUOUS
 62
           3
100
AcDbCircle
 10
1368.889391910014
 20
996.878787878754
 40
5.530127989697
  0
ARC
  5
E0
100
AcDbEntity
  8
1
  6
CONTINUOUS
 62
           3
100
AcDbCircle
 10
1369.096210741393
 20
998.303919921381
 40
2.009798008862
100
AcDbArc
 50
-55.929988464572
 51
86.297888718259
  0
ARC
  5
DF
100
AcDbEntity
  8
1
  6
CONTINUOUS
 62
           3
100
AcDbCircle
 10
1369.017892915379
 20
998.264025930551
 40
1.257687287768
100
AcDbArc
 50
-74.800419047022
 51
80.931395238749
  0
ARC
  5
DE
100
AcDbEntity
  8
1
  6
CONTINUOUS
 62
           3
100
AcDbCircle
 10
1368.942710277184
 20
995.053039389822
 40
1.155889798231
100
AcDbArc
 50
0.985058170486
 51
82.918254632932
  0
ARC
  5
DD
100
AcDbEntity
  8
1
  6
CONTINUOUS
 62
           3
100
AcDbCircle
 10
1369.668103463674
 20
995.362233682225
 40
1.391870091328
100
AcDbArc
 50
-1.298612665717
 51
66.544866494083
  0
LINE
  5
DC
100
AcDbEntity
  8
1
  6
CONTINUOUS
 62
           3
100
AcDbLine
 10
1261.481740141395
 20
992.979895810781
 11
1261.186337054015
 21
993.978447872362
  0
LINE
  5
DB
100
AcDbEntity
  8
1
  6
CONTINUOUS
 62
           3
100
AcDbLine
 10
1261.918419822962
 20
994.762204858332
 11
1261.186337054015
 21
993.978447872362
  0
LINE
  5
DA
100
AcDbEntity
  8
1
  6
CONTINUOUS
 62
           3
100
AcDbLine
 10
1296.949443791631
 20
964.237708784528
 11
1300.333851282513
 21
978.051175145079
  0
LINE
  5
D9
100
AcDbEntity
  8
1
  6
CONTINUOUS
 62
           3
100
AcDbLine
 10
1292.761289636392
 20
964.237708784528
 11
1296.145697127409
 21
978.051175145079
  0
LINE
  5
D8
100
AcDbEntity
  8
1
  6
CONTINUOUS
 62
           3
100
AcDbLine
 10
1292.761289636392
 20
964.237708784528
 11
1296.949443791631
 21
964.237708784528
  0
LINE
  5
D7
100
AcDbEntity
  8
1
  6
CONTINUOUS
 62
           3
100
AcDbLine
 10
1291.677315577223
 20
959.813466360341
 11
1295.865469732411
 21
959.813466360341
  0
LINE
  5
D6
100
AcDbEntity
  8
1
  6
CONTINUOUS
 62
           3
100
AcDbLine
 10
1292.481062241517
 20
946.0
 11
1298.763293474414
 21
946.0
  0
LINE
  5
D5
100
AcDbEntity
  8
1
  6
CONTINUOUS
 62
           3
100
AcDbLine
 10
1296.145697127409
 20
978.051175145079
 11
1289.863465894543
 21
978.051175145079
  0
LINE
  5
D4
100
AcDbEntity
  8
1
  6
CONTINUOUS
 62
           3
100
AcDbLine
 10
1327.556853291366
 20
978.051175145079
 11
1319.704064250348
 21
946.0
  0
LINE
  5
D3
100
AcDbEntity
  8
1
  6
CONTINUOUS
 62
           3
100
AcDbLine
 10
1320.190647999369
 20
973.626932720838
 11
1314.505807076645
 21
950.424242424182
  0
LINE
  5
D2
100
AcDbEntity
  8
1
  6
CONTINUOUS
 62
           3
100
AcDbLine
 10
1316.00249384412
 20
973.626932720838
 11
1320.190647999369
 21
973.626932720838
  0
LINE
  5
D1
100
AcDbEntity
  8
1
  6
CONTINUOUS
 62
           3
100
AcDbLine
 10
1327.556853291366
 20
978.051175145079
 11
1310.804236670536
 21
978.051175145079
  0
LINE
  5
D0
100
AcDbEntity
  8
1
  6
CONTINUOUS
 62
           3
100
AcDbLine
 10
1310.317652921545
 20
950.424242424182
 11
1316.00249384412
 21
973.626932720838
  0
LINE
  5
CF
100
AcDbEntity
  8
1
  6
CONTINUOUS
 62
           3
100
AcDbLine
 10
1310.804236670536
 20
978.051175145079
 11
1302.951447629539
 21
946.0
  0
LINE
  5
CE
100
AcDbEntity
  8
1
  6
CONTINUOUS
 62
           3
100
AcDbLine
 10
1314.505807076645
 20
950.424242424182
 11
1310.317652921545
 21
950.424242424182
  0
LINE
  5
CD
100
AcDbEntity
  8
1
  6
CONTINUOUS
 62
           3
100
AcDbLine
 10
1302.951447629539
 20
946.0
 11
1319.704064250348
 21
946.0
  0
LINE
  5
CC
100
AcDbEntity
  8
1
  6
CONTINUOUS
 62
           3
100
AcDbLine
 10
1306.616082515428
 20
978.051175145079
 11
1300.333851282513
 21
978.051175145079
  0
LINE
  5
CB
100
AcDbEntity
  8
1
  6
CONTINUOUS
 62
           3
100
AcDbLine
 10
1289.863465894543
 20
978.051175145079
 11
1282.01067685355
 21
946.0
  0
LINE
  5
CA
100
AcDbEntity
  8
1
  6
CONTINUOUS
 62
           3
100
AcDbLine
 10
1288.292908086338
 20
946.0
 11
1291.677315577223
 21
959.813466360341
  0
LINE
  5
C9
100
AcDbEntity
  8
1
  6
CONTINUOUS
 62
           3
100
AcDbLine
 10
1292.481062241517
 20
946.0
 11
1295.865469732411
 21
959.813466360341
  0
LINE
  5
C8
100
AcDbEntity
  8
1
  6
CONTINUOUS
 62
           3
100
AcDbLine
 10
1298.763293474414
 20
946.0
 11
1306.616082515428
 21
978.051175145079
  0
LINE
  5
C7
100
AcDbEntity
  8
1
  6
CONTINUOUS
 62
           3
100
AcDbLine
 10
1282.01067685355
 20
946.0
 11
1288.292908086338
 21
946.0
  0
LINE
  5
C6
100
AcDbEntity
  8
1
  6
CONTINUOUS
 62
           3
100
AcDbLine
 10
1276.683145358593
 20
966.990569084413
 11
1282.965376591399
 21
966.990569084413
  0
LINE
  5
C5
100
AcDbEntity
  8
1
  6
CONTINUOUS
 62
           3
100
AcDbLine
 10
1278.309106447387
 20
973.626932720838
 11
1276.683145358593
 21
966.990569084413
  0
LINE
  5
C4
100
AcDbEntity
  8
1
  6
CONTINUOUS
 62
           3
100
AcDbLine
 10
1274.120952292195
 20
973.626932720838
 11
1278.309106447387
 21
973.626932720838
  0
LINE
  5
C3
100
AcDbEntity
  8
1
  6
CONTINUOUS
 62
           3
100
AcDbLine
 10
1268.436111369565
 20
950.424242424182
 11
1274.120952292195
 21
973.626932720838
  0
LINE
  5
C2
100
AcDbEntity
  8
1
  6
CONTINUOUS
 62
           3
100
AcDbLine
 10
1272.624265524768
 20
950.424242424182
 11
1268.436111369565
 21
950.424242424182
  0
LINE
  5
C1
100
AcDbEntity
  8
1
  6
CONTINUOUS
 62
           3
100
AcDbLine
 10
1274.250226613556
 20
957.060606060608
 11
1272.624265524768
 21
950.424242424182
  0
LINE
  5
C0
100
AcDbEntity
  8
1
  6
CONTINUOUS
 62
           3
100
AcDbLine
 10
1280.532457846344
 20
957.060606060608
 11
1274.250226613556
 21
957.060606060608
  0
LINE
  5
BF
100
AcDbEntity
  8
1
  6
CONTINUOUS
 62
           3
100
AcDbLine
 10
1277.822522698369
 20
946.0
 11
1280.532457846344
 21
957.060606060608
  0
LINE
  5
BE
100
AcDbEntity
  8
1
  6
CONTINUOUS
 62
           3
100
AcDbLine
 10
1261.069906077616
 20
946.0
 11
1277.822522698369
 21
946.0
  0
LINE
  5
BD
100
AcDbEntity
  8
1
  6
CONTINUOUS
 62
           3
100
AcDbLine
 10
1268.922695118609
 20
978.051175145079
 11
1261.069906077616
 21
946.0
  0
LINE
  5
BC
100
AcDbEntity
  8
1
  6
CONTINUOUS
 62
           3
100
AcDbLine
 10
1285.67531173933
 20
978.051175145079
 11
1268.922695118609
 21
978.051175145079
  0
LINE
  5
BB
100
AcDbEntity
  8
1
  6
CONTINUOUS
 62
           3
100
AcDbLine
 10
1282.965376591399
 20
966.990569084413
 11
1285.67531173933
 21
978.051175145079
  0
LINE
  5
BA
100
AcDbEntity
  8
1
  6
CONTINUOUS
 62
           3
100
AcDbLine
 10
1263.650566904233
 20
973.626932720838
 11
1264.734540963391
 21
978.051175145079
  0
LINE
  5
B9
100
AcDbEntity
  8
1
  6
CONTINUOUS
 62
           3
100
AcDbLine
 10
1253.180181516253
 20
973.626932720838
 11
1263.650566904233
 21
973.626932720838
  0
LINE
  5
B8
100
AcDbEntity
  8
1
  6
CONTINUOUS
 62
           3
100
AcDbLine
 10
1250.74726277124
 20
963.696969696953
 11
1253.180181516253
 21
973.626932720838
  0
LINE
  5
B7
100
AcDbEntity
  8
1
  6
CONTINUOUS
 62
           3
100
AcDbLine
 10
1261.217648159304
 20
963.696969696953
 11
1250.74726277124
 21
963.696969696953
  0
LINE
  5
B6
100
AcDbEntity
  8
1
  6
CONTINUOUS
 62
           3
100
AcDbLine
 10
1256.88175192238
 20
946.0
 11
1261.217648159304
 21
963.696969696953
  0
LINE
  5
B5
100
AcDbEntity
  8
1
  6
CONTINUOUS
 62
           3
100
AcDbLine
 10
1240.129135301557
 20
946.0
 11
1256.88175192238
 21
946.0
  0
LINE
  5
B4
100
AcDbEntity
  8
1
  6
CONTINUOUS
 62
           3
100
AcDbLine
 10
1241.213109360865
 20
950.424242424182
 11
1240.129135301557
 21
946.0
  0
LINE
  5
B3
100
AcDbEntity
  8
1
  6
CONTINUOUS
 62
           3
100
AcDbLine
 10
1251.683494748776
 20
950.424242424182
 11
1241.213109360865
 21
950.424242424182
  0
LINE
  5
B2
100
AcDbEntity
  8
1
  6
CONTINUOUS
 62
           3
100
AcDbLine
 10
1253.851442867194
 20
959.272727272798
 11
1251.683494748776
 21
950.424242424182
  0
LINE
  5
B1
100
AcDbEntity
  8
1
  6
CONTINUOUS
 62
           3
100
AcDbLine
 10
1243.381057479228
 20
959.272727272798
 11
1253.851442867194
 21
959.272727272798
  0
LINE
  5
B0
100
AcDbEntity
  8
1
  6
CONTINUOUS
 62
           3
100
AcDbLine
 10
1247.98192434262
 20
978.051175145079
 11
1243.381057479228
 21
959.272727272798
  0
LINE
  5
AF
100
AcDbEntity
  8
1
  6
CONTINUOUS
 62
           3
100
AcDbLine
 10
1264.734540963391
 20
978.051175145079
 11
1247.98192434262
 21
978.051175145079
  0
LINE
  5
AE
100
AcDbEntity
  8
1
  6
CONTINUOUS
 62
           3
100
AcDbLine
 10
1243.793770187457
 20
978.051175145079
 11
1235.940981146442
 21
946.0
  0
LINE
  5
AD
100
AcDbEntity
  8
1
  6
CONTINUOUS
 62
           3
100
AcDbLine
 10
1237.51153895465
 20
978.051175145079
 11
1243.793770187457
 21
978.051175145079
  0
LINE
  5
AC
100
AcDbEntity
  8
1
  6
CONTINUOUS
 62
           3
100
AcDbLine
 10
1235.940981146442
 20
946.0
 11
1218.141325986852
 21
946.0
  0
LINE
  5
AB
100
AcDbEntity
  8
1
  6
CONTINUOUS
 62
           3
100
AcDbLine
 10
1230.742723972844
 20
950.424242424182
 11
1237.51153895465
 21
978.051175145079
  0
LINE
  5
AA
100
AcDbEntity
  8
1
  6
CONTINUOUS
 62
           3
100
AcDbLine
 10
1225.50753127886
 20
950.424242424182
 11
1230.742723972844
 21
950.424242424182
  0
LINE
  5
A9
100
AcDbEntity
  8
1
  6
CONTINUOUS
 62
           3
100
AcDbLine
 10
1232.276346260655
 20
978.051175145079
 11
1225.50753127886
 21
950.424242424182
  0
LINE
  5
A8
100
AcDbEntity
  8
1
  6
CONTINUOUS
 62
           3
100
AcDbLine
 10
1225.994115027845
 20
978.051175145079
 11
1232.276346260655
 21
978.051175145079
  0
LINE
  5
A7
100
AcDbEntity
  8
1
  6
CONTINUOUS
 62
           3
100
AcDbLine
 10
1218.141325986852
 20
946.0
 11
1225.994115027845
 21
978.051175145079
  0
LINE
  5
A6
100
AcDbEntity
  8
1
  6
CONTINUOUS
 62
           3
100
AcDbLine
 10
1213.953171831725
 20
946.0
 11
1196.153516672077
 21
946.0
  0
LINE
  5
A5
100
AcDbEntity
  8
1
  6
CONTINUOUS
 62
           3
100
AcDbLine
 10
1224.515896020645
 20
989.111781205662
 11
1213.953171831725
 21
946.0
  0
LINE
  5
A4
100
AcDbEntity
  8
1
  6
CONTINUOUS
 62
           3
100
AcDbLine
 10
1200.542568943353
 20
989.111781205662
 11
1224.515896020645
 21
989.111781205662
  0
LINE
  5
A3
100
AcDbEntity
  8
1
  6
CONTINUOUS
 62
           3
100
AcDbLine
 10
1199.187601369368
 20
983.581478175404
 11
1200.542568943353
 21
989.111781205662
  0
LINE
  5
A2
100
AcDbEntity
  8
1
  6
CONTINUOUS
 62
           3
100
AcDbLine
 10
1216.878697213901
 20
983.581478175404
 11
1199.187601369368
 21
983.581478175404
  0
LINE
  5
A1
100
AcDbEntity
  8
1
  6
CONTINUOUS
 62
           3
100
AcDbLine
 10
1208.754914658019
 20
950.424242424182
 11
1216.878697213901
 21
983.581478175404
  0
LINE
  5
A0
100
AcDbEntity
  8
1
  6
CONTINUOUS
 62
           3
100
AcDbLine
 10
1203.51972196414
 20
950.424242424182
 11
1208.754914658019
 21
950.424242424182
  0
LINE
  5
9F
100
AcDbEntity
  8
1
  6
CONTINUOUS
 62
           3
100
AcDbLine
 10
1210.288536945829
 20
978.051175145079
 11
1203.51972196414
 21
950.424242424182
  0
LINE
  5
9E
100
AcDbEntity
  8
1
  6
CONTINUOUS
 62
           3
100
AcDbLine
 10
1204.006305713132
 20
978.051175145079
 11
1210.288536945829
 21
978.051175145079
  0
LINE
  5
9D
100
AcDbEntity
  8
1
  6
CONTINUOUS
 62
           3
100
AcDbLine
 10
1196.153516672077
 20
946.0
 11
1204.006305713132
 21
978.051175145079
  0
LINE
  5
9C
100
AcDbEntity
  8
1
  6
CONTINUOUS
 62
           3
100
AcDbLine
 10
1331.273197905592
 20
952.19393939391
 11
1340.318358411684
 21
989.111781205662
  0
LINE
  5
9B
100
AcDbEntity
  8
1
  6
CONTINUOUS
 62
           3
100
AcDbLine
 10
1340.318358411684
 20
989.111781205662
 11
1334.454942594416
 21
989.111781205662
  0
LINE
  5
9A
100
AcDbEntity
  8
1
  6
CONTINUOUS
 62
           3
100
AcDbLine
 10
1334.454942594416
 20
989.111781205662
 11
1323.892218405474
 21
946.0
  0
LINE
  5
99
100
AcDbEntity
  8
1
  6
CONTINUOUS
 62
           3
100
AcDbLine
 10
1341.796577419045
 20
978.051175145079
 11
1336.111736496356
 21
954.848484848477
  0
LINE
  5
98
100
AcDbEntity
  8
1
  6
CONTINUOUS
 62
           3
100
AcDbLine
 10
1336.111736496356
 20
954.848484848477
 11
1351.817314578277
 21
954.848484848477
  0
LINE
  5
97
100
AcDbEntity
  8
1
  6
CONTINUOUS
 62
           3
100
AcDbLine
 10
1351.817314578277
 20
954.848484848477
 11
1357.502155500886
 21
978.051175145079
  0
LINE
  5
96
100
AcDbEntity
  8
1
  6
CONTINUOUS
 62
           3
100
AcDbLine
 10
1357.502155500886
 20
978.051175145079
 11
1352.266962806962
 21
978.051175145079
  0
LINE
  5
95
100
AcDbEntity
  8
1
  6
CONTINUOUS
 62
           3
100
AcDbLine
 10
1352.266962806962
 20
978.051175145079
 11
1347.666095943567
 21
959.272727272798
  0
LINE
  5
94
100
AcDbEntity
  8
1
  6
CONTINUOUS
 62
           3
100
AcDbLine
 10
1347.666095943567
 20
959.272727272798
 11
1342.430903249615
 21
959.272727272798
  0
LINE
  5
93
100
AcDbEntity
  8
1
  6
CONTINUOUS
 62
           3
100
AcDbLine
 10
1342.430903249615
 20
959.272727272798
 11
1347.031770112967
 21
978.051175145079
  0
LINE
  5
92
100
AcDbEntity
  8
1
  6
CONTINUOUS
 62
           3
100
AcDbLine
 10
1347.031770112967
 20
978.051175145079
 11
1341.796577419045
 21
978.051175145079
  0
LINE
  5
91
100
AcDbEntity
  8
1
  6
CONTINUOUS
 62
           3
100
AcDbLine
 10
1364.060494257027
 20
978.051175145079
 11
1360.015047994012
 21
978.051175145079
  0
LINE
  5
90
100
AcDbEntity
  8
1
  6
CONTINUOUS
 62
           3
100
AcDbLine
 10
1360.015047994012
 20
978.051175145079
 11
1364.137343516208
 21
967.415301218661
  0
LINE
  5
8F
100
AcDbEntity
  8
1
  6
CONTINUOUS
 62
           3
100
AcDbLine
 10
1364.137343516208
 20
967.415301218661
 11
1354.330207071419
 21
954.848484848477
  0
LINE
  5
8E
100
AcDbEntity
  8
1
  6
CONTINUOUS
 62
           3
100
AcDbLine
 10
1354.330207071419
 20
954.848484848477
 11
1358.375653334415
 21
954.848484848477
  0
LINE
  5
8D
100
AcDbEntity
  8
1
  6
CONTINUOUS
 62
           3
100
AcDbLine
 10
1358.375653334415
 20
954.848484848477
 11
1365.479785914517
 21
963.951685370502
  0
LINE
  5
8C
100
AcDbEntity
  8
1
  6
CONTINUOUS
 62
           3
100
AcDbLine
 10
1365.479785914517
 20
963.951685370502
 11
1369.008041609201
 21
954.848484848477
  0
LINE
  5
8B
100
AcDbEntity
  8
1
  6
CONTINUOUS
 62
           3
100
AcDbLine
 10
1369.008041609201
 20
954.848484848477
 11
1373.05348787225
 21
954.848484848477
  0
LINE
  5
8A
100
AcDbEntity
  8
1
  6
CONTINUOUS
 62
           3
100
AcDbLine
 10
1373.05348787225
 20
954.848484848477
 11
1368.182789779245
 21
967.415301218603
  0
LINE
  5
89
100
AcDbEntity
  8
1
  6
CONTINUOUS
 62
           3
100
AcDbLine
 10
1368.182789779245
 20
967.415301218603
 11
1376.483019824328
 21
978.051175145079
  0
LINE
  5
88
100
AcDbEntity
  8
1
  6
CONTINUOUS
 62
           3
100
AcDbLine
 10
1376.483019824328
 20
978.051175145079
 11
1372.43757356127
 21
978.051175145079
  0
LINE
  5
87
100
AcDbEntity
  8
1
  6
CONTINUOUS
 62
           3
100
AcDbLine
 10
1372.43757356127
 20
978.051175145079
 11
1366.840347380984
 21
970.878917066823
  0
LINE
  5
86
100
AcDbEntity
  8
1
  6
CONTINUOUS
 62
           3
100
AcDbLine
 10
1366.840347380984
 20
970.878917066823
 11
1364.060494257027
 21
978.051175145079
  0
LINE
  5
85
100
AcDbEntity
  8
1
  6
CONTINUOUS
 62
           3
100
AcDbLine
 10
1374.082347457765
 20
952.19393939391
 11
1376.483019824284
 21
946.0
  0
LINE
  5
84
100
AcDbEntity
  8
1
  6
CONTINUOUS
 62
           3
100
AcDbLine
 10
1374.082347457765
 20
952.19393939391
 11
1331.273197905592
 21
952.19393939391
  0
LINE
  5
83
100
AcDbEntity
  8
1
  6
CONTINUOUS
 62
           3
100
AcDbLine
 10
1376.483019824284
 20
946.0
 11
1323.892218405474
 21
946.0
  0
LINE
  5
82
100
AcDbEntity
  8
1
  6
CONTINUOUS
 62
           3
100
AcDbLine
 10
1232.892204331044
 20
989.111781205662
 11
1236.144126508525
 21
1002.38450847832
  0
LINE
  5
81
100
AcDbEntity
  8
1
  6
CONTINUOUS
 62
           3
100
AcDbLine
 10
1236.144126508525
 20
1002.38450847832
 11
1248.708588974243
 21
1002.38450847832
  0
LINE
  5
80
100
AcDbEntity
  8
1
  6
CONTINUOUS
 62
           3
100
AcDbLine
 10
1248.708588974243
 20
1002.38450847832
 11
1245.456666796569
 21
989.111781205662
  0
LINE
  5
7F
100
AcDbEntity
  8
1
  6
CONTINUOUS
 62
           3
100
AcDbLine
 10
1245.456666796569
 20
989.111781205662
 11
1232.892204331044
 21
989.111781205662
  0
LINE
  5
7E
100
AcDbEntity
  8
1
  6
CONTINUOUS
 62
           3
100
AcDbLine
 10
1243.904576748565
 20
991.323902417793
 11
1235.52826843821
 21
991.323902417793
  0
LINE
  5
7D
100
AcDbEntity
  8
1
  6
CONTINUOUS
 62
           3
100
AcDbLine
 10
1246.072524867041
 20
1000.172387266269
 11
1243.904576748565
 21
991.323902417793
  0
LINE
  5
7C
100
AcDbEntity
  8
1
  6
CONTINUOUS
 62
           3
100
AcDbLine
 10
1237.696216556551
 20
1000.172387266269
 11
1246.072524867041
 21
1000.172387266269
  0
LINE
  5
7B
100
AcDbEntity
  8
1
  6
CONTINUOUS
 62
           3
100
AcDbLine
 10
1235.52826843821
 20
991.323902417793
 11
1237.696216556551
 21
1000.172387266269
  0
LINE
  5
7A
100
AcDbEntity
  8
1
  6
CONTINUOUS
 62
           3
100
AcDbLine
 10
1251.221481467236
 20
1002.38450847832
 11
1247.969559289699
 21
989.111781205662
  0
LINE
  5
79
100
AcDbEntity
  8
1
  6
CONTINUOUS
 62
           3
100
AcDbLine
 10
1251.221481467236
 20
1002.38450847832
 11
1263.785943932815
 21
1002.38450847832
  0
LINE
  5
78
100
AcDbEntity
  8
1
  6
CONTINUOUS
 62
           3
100
AcDbLine
 10
1263.785943932815
 20
1002.38450847832
 11
1261.918419822962
 21
994.762204858332
  0
LINE
  5
77
100
AcDbEntity
  8
1
  6
CONTINUOUS
 62
           3
100
AcDbLine
 10
1260.534021755283
 20
989.111781205662
 11
1258.439944677643
 21
989.111781205662
  0
LINE
  5
76
100
AcDbEntity
  8
1
  6
CONTINUOUS
 62
           3
100
AcDbLine
 10
1258.439944677643
 20
989.111781205662
 11
1259.523918737016
 21
993.536023629844
  0
LINE
  5
75
100
AcDbEntity
  8
1
  6
CONTINUOUS
 62
           3
100
AcDbLine
 10
1259.523918737016
 20
993.536023629844
 11
1251.147610426486
 21
993.536023629844
  0
LINE
  5
74
100
AcDbEntity
  8
1
  6
CONTINUOUS
 62
           3
100
AcDbLine
 10
1251.689597456078
 20
995.748144842033
 11
1260.065905766458
 21
995.748144842033
  0
LINE
  5
73
100
AcDbEntity
  8
1
  6
CONTINUOUS
 62
           3
100
AcDbLine
 10
1260.065905766458
 20
995.748144842033
 11
1261.14987982578
 21
1000.172387266269
  0
LINE
  5
72
100
AcDbEntity
  8
1
  6
CONTINUOUS
 62
           3
100
AcDbLine
 10
1261.14987982578
 20
1000.172387266269
 11
1252.773571515262
 21
1000.172387266269
  0
LINE
  5
71
100
AcDbEntity
  8
1
  6
CONTINUOUS
 62
           3
100
AcDbLine
 10
1252.773571515262
 20
1000.172387266269
 11
1251.689597456078
 21
995.748144842033
  0
LINE
  5
70
100
AcDbEntity
  8
1
  6
CONTINUOUS
 62
           3
100
AcDbLine
 10
1261.481740141395
 20
992.979895810781
 11
1260.534021755283
 21
989.111781205662
  0
LINE
  5
6F
100
AcDbEntity
  8
1
  6
CONTINUOUS
 62
           3
100
AcDbLine
 10
1247.969559289699
 20
989.111781205662
 11
1250.063636367375
 21
989.111781205662
  0
LINE
  5
6E
100
AcDbEntity
  8
1
  6
CONTINUOUS
 62
           3
100
AcDbLine
 10
1250.063636367375
 20
989.111781205662
 11
1251.147610426486
 21
993.536023629844
  0
LINE
  5
6D
100
AcDbEntity
  8
1
  6
CONTINUOUS
 62
           3
100
AcDbLine
 10
1268.392913503542
 20
1002.38450847832
 11
1266.298836425979
 21
1002.38450847832
  0
LINE
  5
6C
100
AcDbEntity
  8
1
  6
CONTINUOUS
 62
           3
100
AcDbLine
 10
1266.298836425979
 20
1002.38450847832
 11
1263.046914248413
 21
989.111781205662
  0
LINE
  5
6B
100
AcDbEntity
  8
1
  6
CONTINUOUS
 62
           3
100
AcDbLine
 10
1263.046914248413
 20
989.111781205662
 11
1265.140991326133
 21
989.111781205662
  0
LINE
  5
6A
100
AcDbEntity
  8
1
  6
CONTINUOUS
 62
           3
100
AcDbLine
 10
1265.140991326133
 20
989.111781205662
 11
1268.392913503542
 21
1002.38450847832
  0
LINE
  5
69
100
AcDbEntity
  8
1
  6
CONTINUOUS
 62
           3
100
AcDbLine
 10
1267.653883819118
 20
989.111781205662
 11
1270.905805996661
 21
1002.38450847832
  0
LINE
  5
68
100
AcDbEntity
  8
1
  6
CONTINUOUS
 62
           3
100
AcDbLine
 10
1270.905805996661
 20
1002.38450847832
 11
1283.470268462252
 21
1002.38450847832
  0
LINE
  5
67
100
AcDbEntity
  8
1
  6
CONTINUOUS
 62
           3
100
AcDbLine
 10
1283.470268462252
 20
1002.38450847832
 11
1282.332095700126
 21
997.739053932891
  0
LINE
  5
66
100
AcDbEntity
  8
1
  6
CONTINUOUS
 62
           3
100
AcDbLine
 10
1280.21834628473
 20
989.111781205662
 11
1267.653883819118
 21
989.111781205662
  0
LINE
  5
65
100
AcDbEntity
  8
1
  6
CONTINUOUS
 62
           3
100
AcDbLine
 10
1278.666256236682
 20
991.323902417793
 11
1270.289947926353
 21
991.323902417793
  0
LINE
  5
64
100
AcDbEntity
  8
1
  6
CONTINUOUS
 62
           3
100
AcDbLine
 10
1280.834204354977
 20
1000.172387266269
 11
1280.2380186226
 21
997.739053932891
  0
LINE
  5
63
100
AcDbEntity
  8
1
  6
CONTINUOUS
 62
           3
100
AcDbLine
 10
1272.45789604468
 20
1000.172387266269
 11
1280.834204354977
 21
1000.172387266269
  0
LINE
  5
62
100
AcDbEntity
  8
1
  6
CONTINUOUS
 62
           3
100
AcDbLine
 10
1270.289947926353
 20
991.323902417793
 11
1272.45789604468
 21
1000.172387266269
  0
LINE
  5
61
100
AcDbEntity
  8
1
  6
CONTINUOUS
 62
           3
100
AcDbLine
 10
1281.844307373502
 20
995.748144842033
 11
1275.562076140697
 21
995.748144842033
  0
LINE
  5
60
100
AcDbEntity
  8
1
  6
CONTINUOUS
 62
           3
100
AcDbLine
 10
1281.844307373502
 20
995.748144842033
 11
1280.21834628473
 21
989.111781205662
  0
LINE
  5
5F
100
AcDbEntity
  8
1
  6
CONTINUOUS
 62
           3
100
AcDbLine
 10
1275.562076140697
 20
995.748144842033
 11
1275.020089111049
 21
993.536023629844
  0
LINE
  5
5E
100
AcDbEntity
  8
1
  6
CONTINUOUS
 62
           3
100
AcDbLine
 10
1275.020089111049
 20
993.536023629844
 11
1279.20824326645
 21
993.536023629844
  0
LINE
  5
5D
100
AcDbEntity
  8
1
  6
CONTINUOUS
 62
           3
100
AcDbLine
 10
1279.20824326645
 20
993.536023629844
 11
1278.666256236682
 21
991.323902417793
  0
LINE
  5
5C
100
AcDbEntity
  8
1
  6
CONTINUOUS
 62
           3
100
AcDbLine
 10
1280.2380186226
 20
997.739053932891
 11
1282.332095700126
 21
997.739053932891
  0
LINE
  5
5B
100
AcDbEntity
  8
1
  6
CONTINUOUS
 62
           3
100
AcDbLine
 10
1282.731238777846
 20
989.111781205662
 11
1284.825315855407
 21
989.111781205662
  0
LINE
  5
5A
100
AcDbEntity
  8
1
  6
CONTINUOUS
 62
           3
100
AcDbLine
 10
1284.825315855407
 20
989.111781205662
 11
1288.077238032976
 21
1002.38450847832
  0
LINE
  5
59
100
AcDbEntity
  8
1
  6
CONTINUOUS
 62
           3
100
AcDbLine
 10
1285.983160955412
 20
1002.38450847832
 11
1282.731238777846
 21
989.111781205662
  0
LINE
  5
58
100
AcDbEntity
  8
1
  6
CONTINUOUS
 62
           3
100
AcDbLine
 10
1288.077238032976
 20
1002.38450847832
 11
1285.983160955412
 21
1002.38450847832
  0
LINE
  5
57
100
AcDbEntity
  8
1
  6
CONTINUOUS
 62
           3
100
AcDbLine
 10
1287.338208348576
 20
989.111781205662
 11
1290.590130526092
 21
1002.38450847832
  0
LINE
  5
56
100
AcDbEntity
  8
1
  6
CONTINUOUS
 62
           3
100
AcDbLine
 10
1290.590130526092
 20
1002.38450847832
 11
1293.731246142432
 21
1002.38450847832
  0
LINE
  5
55
100
AcDbEntity
  8
1
  6
CONTINUOUS
 62
           3
100
AcDbLine
 10
1293.731246142432
 20
1002.38450847832
 11
1298.215084008707
 21
990.770872114746
  0
LINE
  5
54
100
AcDbEntity
  8
1
  6
CONTINUOUS
 62
           3
100
AcDbLine
 10
1298.215084008707
 20
990.770872114746
 11
1301.06051591406
 21
1002.38450847832
  0
LINE
  5
53
100
AcDbEntity
  8
1
  6
CONTINUOUS
 62
           3
100
AcDbLine
 10
1301.06051591406
 20
1002.38450847832
 11
1303.154592991674
 21
1002.38450847832
  0
LINE
  5
52
100
AcDbEntity
  8
1
  6
CONTINUOUS
 62
           3
100
AcDbLine
 10
1303.154592991674
 20
1002.38450847832
 11
1299.902670814054
 21
989.111781205662
  0
LINE
  5
51
100
AcDbEntity
  8
1
  6
CONTINUOUS
 62
           3
100
AcDbLine
 10
1299.902670814054
 20
989.111781205662
 11
1296.659992325286
 21
989.111781205662
  0
LINE
  5
50
100
AcDbEntity
  8
1
  6
CONTINUOUS
 62
           3
100
AcDbLine
 10
1296.659992325286
 20
989.111781205662
 11
1292.878835989576
 21
998.905394629534
  0
LINE
  5
4F
100
AcDbEntity
  8
1
  6
CONTINUOUS
 62
           3
100
AcDbLine
 10
1292.878835989576
 20
998.905394629534
 11
1292.238287723065
 21
1000.564485538597
  0
LINE
  5
4E
100
AcDbEntity
  8
1
  6
CONTINUOUS
 62
           3
100
AcDbLine
 10
1292.238287723065
 20
1000.564485538597
 11
1289.432285426137
 21
989.111781205662
  0
LINE
  5
4D
100
AcDbEntity
  8
1
  6
CONTINUOUS
 62
           3
100
AcDbLine
 10
1289.432285426137
 20
989.111781205662
 11
1287.338208348576
 21
989.111781205662
  0
LINE
  5
4C
100
AcDbEntity
  8
1
  6
CONTINUOUS
 62
           3
100
AcDbLine
 10
1302.41556330717
 20
989.111781205662
 11
1309.926993586067
 21
1002.38450847832
  0
LINE
  5
4B
100
AcDbEntity
  8
1
  6
CONTINUOUS
 62
           3
100
AcDbLine
 10
1309.926993586067
 20
1002.38450847832
 11
1313.972439849042
 21
1002.38450847832
  0
LINE
  5
4A
100
AcDbEntity
  8
1
  6
CONTINUOUS
 62
           3
100
AcDbLine
 10
1313.972439849042
 20
1002.38450847832
 11
1314.980025772804
 21
989.111781205662
  0
LINE
  5
49
100
AcDbEntity
  8
1
  6
CONTINUOUS
 62
           3
100
AcDbLine
 10
1314.980025772804
 20
989.111781205662
 11
1312.950343609735
 21
989.111781205662
  0
LINE
  5
48
100
AcDbEntity
  8
1
  6
CONTINUOUS
 62
           3
100
AcDbLine
 10
1312.950343609735
 20
989.111781205662
 11
1312.782412622468
 21
991.323902417793
  0
LINE
  5
47
100
AcDbEntity
  8
1
  6
CONTINUOUS
 62
           3
100
AcDbLine
 10
1312.782412622468
 20
991.323902417793
 11
1306.046265342104
 21
991.323902417793
  0
LINE
  5
46
100
AcDbEntity
  8
1
  6
CONTINUOUS
 62
           3
100
AcDbLine
 10
1306.046265342104
 20
991.323902417793
 11
1304.794360295742
 21
989.111781205662
  0
LINE
  5
45
100
AcDbEntity
  8
1
  6
CONTINUOUS
 62
           3
100
AcDbLine
 10
1304.794360295742
 20
989.111781205662
 11
1302.41556330717
 21
989.111781205662
  0
LINE
  5
44
100
AcDbEntity
  8
1
  6
CONTINUOUS
 62
           3
100
AcDbLine
 10
1307.298170388636
 20
993.536023629844
 11
1312.614481635147
 21
993.536023629844
  0
LINE
  5
43
100
AcDbEntity
  8
1
  6
CONTINUOUS
 62
           3
100
AcDbLine
 10
1312.614481635147
 20
993.536023629844
 11
1312.110688673291
 21
1000.172387266269
  0
LINE
  5
42
100
AcDbEntity
  8
1
  6
CONTINUOUS
 62
           3
100
AcDbLine
 10
1312.110688673291
 20
1000.172387266269
 11
1311.053885528002
 21
1000.172387266269
  0
LINE
  5
41
100
AcDbEntity
  8
1
  6
CONTINUOUS
 62
           3
100
AcDbLine
 10
1307.298170388636
 20
993.536023629844
 11
1311.053885528002
 21
1000.172387266269
  0
LINE
  5
40
100
AcDbEntity
  8
1
  6
CONTINUOUS
 62
           3
100
AcDbLine
 10
1320.744840443493
 20
1002.38450847832
 11
1317.492918265925
 21
989.111781205662
  0
LINE
  5
3F
100
AcDbEntity
  8
1
  6
CONTINUOUS
 62
           3
100
AcDbLine
 10
1317.492918265925
 20
989.111781205662
 11
1330.057380731504
 21
989.111781205662
  0
LINE
  5
3E
100
AcDbEntity
  8
1
  6
CONTINUOUS
 62
           3
100
AcDbLine
 10
1330.057380731504
 20
989.111781205662
 11
1330.599367761165
 21
991.323902417793
  0
LINE
  5
3D
100
AcDbEntity
  8
1
  6
CONTINUOUS
 62
           3
100
AcDbLine
 10
1330.599367761165
 20
991.323902417793
 11
1320.128982373144
 21
991.323902417793
  0
LINE
  5
3C
100
AcDbEntity
  8
1
  6
CONTINUOUS
 62
           3
100
AcDbLine
 10
1320.128982373144
 20
991.323902417793
 11
1322.838917521107
 21
1002.38450847832
  0
LINE
  5
3B
100
AcDbEntity
  8
1
  6
CONTINUOUS
 62
           3
100
AcDbLine
 10
1322.838917521107
 20
1002.38450847832
 11
1320.744840443493
 21
1002.38450847832
  0
LINE
  5
3A
100
AcDbEntity
  8
1
  6
CONTINUOUS
 62
           3
100
AcDbLine
 10
1367.360152807777
 20
996.200111213841
 11
1367.360152807777
 21
993.451055788281
  0
LINE
  5
39
100
AcDbEntity
  8
1
  6
CONTINUOUS
 62
           3
100
AcDbLine
 10
1366.487705108661
 20
993.451055788281
 11
1366.487705108661
 21
1000.309523963456
  0
LINE
  5
38
100
AcDbEntity
  8
1
  6
CONTINUOUS
 62
           3
100
AcDbLine
 10
1366.487705108661
 20
1000.309523963456
 11
1368.929624967901
 21
1000.309523963456
  0
LINE
  5
37
100
AcDbEntity
  8
1
  6
CONTINUOUS
 62
           3
100
AcDbLine
 10
1368.929624967901
 20
1000.309523963456
 11
1369.225981550253
 21
1000.309523963456
  0
LINE
  5
36
100
AcDbEntity
  8
1
  6
CONTINUOUS
 62
           3
100
AcDbLine
 10
1371.05961606482
 20
995.330689554626
 11
1371.05961606482
 21
993.451055788281
  0
LINE
  5
35
100
AcDbEntity
  8
1
  6
CONTINUOUS
 62
           3
100
AcDbLine
 10
1371.05961606482
 20
993.451055788281
 11
1370.098429249314
 21
993.451055788281
  0
LINE
  5
34
100
AcDbEntity
  8
1
  6
CONTINUOUS
 62
           3
100
AcDbLine
 10
1370.098429249314
 20
993.451055788281
 11
1370.098429249314
 21
995.0729110559
  0
LINE
  5
33
100
AcDbEntity
  8
1
  6
CONTINUOUS
 62
           3
100
AcDbLine
 10
1369.085214509395
 20
996.200111213841
 11
1367.360152807777
 21
996.200111213841
  0
LINE
  5
32
100
AcDbEntity
  8
1
  6
CONTINUOUS
 62
           3
100
AcDbLine
 10
1367.360152807777
 20
993.451055788281
 11
1366.487705108661
 21
993.451055788281
  0
LINE
  5
31
100
AcDbEntity
  8
1
  6
CONTINUOUS
 62
           3
100
AcDbLine
 10
1367.360152807777
 20
997.050334541275
 11
1369.347636035719
 21
997.050334541275
  0
LINE
  5
30
100
AcDbEntity
  8
1
  6
CONTINUOUS
 62
           3
100
AcDbLine
 10
1369.216125799863
 20
999.505992531278
 11
1367.360152807777
 21
999.505992531278
  0
LINE
  5
2F
100
AcDbEntity
  8
1
  6
CONTINUOUS
 62
           3
100
AcDbLine
 10
1367.360152807777
 20
999.505992531278
 11
1367.360152807777
 21
997.050334541275
  0
ENDBLK
  5
E3
100
AcDbEntity
  8
0
100
AcDbBlockEnd
  0
BLOCK
  5
2A
100
AcDbEntity
  8
0
100
AcDbBlockBegin
  2
WANNE_PRIME_LINE_254
 70
           0
 10
0.0
 20
0.0
 30
0.0
  3
WANNE_PRIME_LINE_254
  1

  0
ARC
  5
103
100
AcDbEntity
  8
1
  6
CONTINUOUS
 62
           7
100
AcDbCircle
 10
1138.249103034616
 20
150.0
 40
50.0
100
AcDbArc
 50
-118.610459656498
 51
-90.0
  0
ARC
  5
102
100
AcDbEntity
  8
1
  6
CONTINUOUS
 62
           7
100
AcDbCircle
 10
100.0
 20
716.317692341765
 40
50.0
100
AcDbArc
 50
180.0
 51
-118.610459656499
  0
ARC
  5
101
100
AcDbEntity
  8
1
  6
CONTINUOUS
 62
           7
100
AcDbCircle
 10
1600.0
 20
150.0
 40
50.0
100
AcDbArc
 50
-90.0
 51
0.0
  0
ARC
  5
100
100
AcDbEntity
  8
1
  6
CONTINUOUS
 62
           7
100
AcDbCircle
 10
1600.0
 20
1100.0
 40
50.0
100
AcDbArc
 50
0.0
 51
90.0
  0
ARC
  5
FF
100
AcDbEntity
  8
1
  6
CONTINUOUS
 62
           7
100
AcDbCircle
 10
100.0
 20
1100.0
 40
50.0
100
AcDbArc
 50
90.0
 51
180.0
  0
SPLINE
  5
FE
100
AcDbEntity
  8
1
  6
CONTINUOUS
 62
           7
100
AcDbSpline
210
0.0
220
0.0
230
1.0
 70
           0
 71
           3
 72
          41
 73
          38
 74
          77
 42
0.00000000001
 43
0.00000000001
 44
0.00000000001
 40
-1.8732400406152294
 40
-0.0595164091869833
 40
1.7542072222412615
 40
3.6869471104623743
 40
5.9420188427607572
 40
8.6386337926943995
 40
11.806927740586689
 40
15.414858804864689
 40
19.39379918661254
 40
23.65201964895666
 40
28.083253779420254
 40
32.573045066099738
 40
37.004279196564013
 40
41.262499658906876
 40
45.241440040654098
 40
48.849371104933027
 40
52.017665052825237
 40
54.714280002758969
 40
56.969351735057934
 40
58.902091623279432
 40
60.715815254707955
 40
62.648555142929169
 40
64.903626875227786
 40
67.60024182516149
 40
70.768535773053841
 40
74.376466837332032
 40
78.355407219079297
 40
82.613627681422173
 40
87.044861811885966
 40
91.534653098566935
 40
95.965887229030869
 40
100.22410769137448
 40
104.2030480731228
 40
107.81097913740041
 40
110.97927308529172
 40
113.67588803522517
 40
115.93095976752483
 40
117.86369965574644
 40
119.67742328717446
 40
121.49114691860271
 40
123.30487055003096
 10
579.64676844671294
 20
428.60460325077679
 30
0.0
 10
580.88281668603395
 20
429.93192316747837
 30
0.0
 10
582.76217520901605
 20
430.75515753307371
 30
0.0
 10
585.19358356013208
 20
431.11836772457258
 30
0.0
 10
588.12725180465009
 20
431.03535205040419
 30
0.0
 10
591.48828848427002
 20
430.51065820655219
 30
0.0
 10
595.18160043271496
 20
429.55832742625068
 30
0.0
 10
599.09823256854497
 20
428.20526704712938
 30
0.0
 10
603.12091792748606
 20
426.49111815508888
 30
0.0
 10
607.12854446890606
 20
424.46697505183698
 30
0.0
 10
611.00028950045589
 20
422.19369191755322
 30
0.0
 10
614.6195698960089
 20
419.73989621711542
 30
0.0
 10
617.87785118721604
 20
417.17974334974321
 30
0.0
 10
620.6783098505839
 20
414.59035764297562
 30
0.0
 10
622.93932851547493
 20
412.04877038526712
 30
0.0
 10
624.59761241003503
 20
409.62732546619748
 30
0.0
 10
625.60878677684809
 20
407.38652324087928
 30
0.0
 10
625.93429137908606
 20
405.36075177486322
 30
0.0
 10
625.48766818610898
 20
403.60287773651498
 30
0.0
 10
624.25161994678592
 20
402.2755578198155
 30
0.0
 10
622.37226142380405
 20
401.4523234542188
 30
0.0
 10
619.94085307268801
 20
401.08911326271908
 30
0.0
 10
617.00718482817001
 20
401.17212893688787
 30
0.0
 10
613.64614814855008
 20
401.6968227807406
 30
0.0
 10
609.95283620010491
 20
402.64915356104228
 30
0.0
 10
606.03620406427603
 20
404.00221394016251
 30
0.0
 10
602.01351870533608
 20
405.71636283220289
 30
0.0
 10
598.00589216391495
 20
407.74050593545587
 30
0.0
 10
594.13414713236307
 20
410.013789069739
 30
0.0
 10
590.51486673681211
 20
412.46758477017602
 30
0.0
 10
587.25658544560292
 20
415.02773763755152
 30
0.0
 10
584.45612678223597
 20
417.61712334431797
 30
0.0
 10
582.19510811734494
 20
420.15871060202483
 30
0.0
 10
580.53682422278598
 20
422.58015552109458
 30
0.0
 10
579.52564985597201
 20
424.82095774641238
 30
0.0
 10
579.20014525373495
 20
426.84672921242998
 30
0.0
 10
579.64676844671294
 20
428.60460325077679
 30
0.0
 10
580.88281668603395
 20
429.93192316747837
 30
0.0
 11
580.24515940647643
 21
429.24718030691542
 31
0.0
 11
580.94024062862979
 21
429.85572130308833
 31
0.0
 11
581.75016973597485
 21
430.31185857048087
 31
0.0
 11
582.7859987185268
 21
430.68568562269797
 31
0.0
 11
583.8694747200999
 21
430.92056885416372
 31
0.0
 11
585.19977274104031
 21
431.05937560350162
 31
0.0
 11
586.54244912379761
 21
431.08019811069767
 31
0.0
 11
588.1239229823891
 21
430.98523205984623
 31
0.0
 11
589.69873919645875
 21
430.79002602787881
 31
0.0
 11
591.47998909874991
 21
430.4672801136017
 31
0.0
 11
593.24464023000087
 21
430.05777801342356
 31
0.0
 11
595.17034027342959
 21
429.5197919470595
 31
0.0
 11
597.07351999828745
 21
428.90473492231285
 31
0.0
 11
599.08487825416398
 21
428.17013165589128
 31
0.0
 11
601.06952788127887
 21
427.3652576069934
 31
0.0
 11
603.10573550156346
 21
426.45829592668076
 31
0.0
 11
605.11157827000295
 21
425.48568978955183
 31
0.0
 11
607.11144779025892
 21
424.4356281301495
 31
0.0
 11
609.07712395322073
 21
423.32287262737259
 31
0.0
 11
610.98091599221482
 21
422.16315551447462
 31
0.0
 11
612.84596101472675
 21
420.94236559541935
 31
0.0
 11
614.5972617980716
 21
419.7096442387259
 31
0.0
 11
616.30394638554185
 21
418.4164189252532
 31
0.0
 11
617.85155064485241
 21
417.14941092789809
 31
0.0
 11
619.34655381943537
 21
415.82173808685275
 31
0.0
 11
620.64633485533045
 21
414.55989227859948
 31
0.0
 11
621.88216590071841
 21
413.2371157415937
 31
0.0
 11
622.89899406121503
 21
412.01883334615587
 31
0.0
 11
623.83515331319165
 21
410.7406768724955
 31
0.0
 11
624.5446652675588
 21
409.60058642335139
 31
0.0
 11
625.14828293697326
 21
408.40701788851504
 31
0.0
 11
625.53748061429121
 21
407.36893525867276
 31
0.0
 11
625.78406596649529
 21
406.29567666441767
 31
0.0
 11
625.83913360692395
 21
405.36776830654657
 31
0.0
 11
625.70388570302805
 21
404.45389301204204
 31
0.0
 11
625.39212482539767
 21
403.65498729136237
 31
0.0
 11
624.88927722634446
 21
402.96030068037737
 31
0.0
 11
624.19419600419042
 21
402.35175968420521
 31
0.0
 11
623.38426689684502
 21
401.89562241681244
 31
0.0
 11
622.34843791429341
 21
401.5217953645946
 31
0.0
 11
621.26496191272008
 21
401.2869121331284
 31
0.0
 11
619.93466389177956
 21
401.14810538379015
 31
0.0
 11
618.59198750902249
 21
401.12728287659411
 31
0.0
 11
617.01051365043099
 21
401.22224892744583
 31
0.0
 11
615.43569743636135
 21
401.41745495941359
 31
0.0
 11
613.65444753407019
 21
401.74020087369098
 31
0.0
 11
611.88979640281889
 21
402.14970297386935
 31
0.0
 11
609.96409635939028
 21
402.68768904023335
 31
0.0
 11
608.06091663453276
 21
403.30274606497966
 31
0.0
 11
606.04955837865691
 21
404.03734933140072
 31
0.0
 11
604.06490875154316
 21
404.84222338029826
 31
0.0
 11
602.02870113125857
 21
405.74918506061107
 31
0.0
 11
600.02285836281885
 21
406.72179119774029
 31
0.0
 11
598.02298884256186
 21
407.77185285714302
 31
0.0
 11
596.05731267959868
 21
408.88460835992021
 31
0.0
 11
594.1535206406046
 21
410.04432547281766
 31
0.0
 11
592.28847561809346
 21
411.26511539187231
 31
0.0
 11
590.53717483474895
 21
412.49783674856599
 31
0.0
 11
588.83049024727802
 21
413.79106206203994
 31
0.0
 11
587.28288598796689
 21
415.05807005939619
 31
0.0
 11
585.7878828133837
 21
416.38574290044176
 31
0.0
 11
584.48810177748931
 21
417.64758870869417
 31
0.0
 11
583.25227073210147
 21
418.97036524569887
 31
0.0
 11
582.23544257160506
 21
420.1886476411363
 31
0.0
 11
581.29928331962901
 21
421.46680411479645
 31
0.0
 11
580.5897713652621
 21
422.6068945639405
 31
0.0
 11
579.98615369584741
 21
423.80046309877662
 31
0.0
 11
579.59695601852923
 21
424.83854572861912
 31
0.0
 11
579.35037066632526
 21
425.9118043228749
 31
0.0
 11
579.29530302589717
 21
426.83971268074646
 31
0.0
 11
579.43055092979353
 21
427.75358797525064
 31
0.0
 11
579.74722009739821
 21
428.55776442148294
 31
0.0
 11
580.26479256637333
 21
429.26826320912755
 31
0.0
 11
580.57380462620358
 21
429.60009318830288
 31
0.0
 11
580.26479256637344
 21
429.26826320912755
 31
0.0
 11
579.95087221656888
 21
428.93116250439908
 31
0.0
 11
580.24515940647643
 21
429.24718030691542
 31
0.0
  0
CIRCLE
  5
FD
100
AcDbEntity
  8
WANNE
  6
CONTINUOUS
 62
           7
100
AcDbCircle
 10
689.064497000008
 20
576.173810999993
 40
26.0
  0
CIRCLE
  5
FC
100
AcDbEntity
  8
WANNE
  6
CONTINUOUS
 62
           7
100
AcDbCircle
 10
689.064497000003
 20
576.173810999993
 40
45.0
  0
ARC
  5
FB
100
AcDbEntity
  8
1
  6
CONTINUOUS
 62
           7
100
AcDbCircle
 10
86.664399991489
 20
974.999821629575
 40
1363.335599902088
100
AcDbArc
 50
-32.77343004238
 51
-0.181403303102
  0
ARC
  5
FA
100
AcDbEntity
  8
1
  6
CONTINUOUS
 62
           7
100
AcDbCircle
 10
1148.89935984552
 20
291.133076275778
 40
100.000001046071
100
AcDbArc
 50
-118.610459572276
 51
-32.773430571711
  0
ARC
  5
F9
100
AcDbEntity
  8
1
  6
CONTINUOUS
 62
           7
100
AcDbCircle
 10
234.920742999989
 20
789.666865999996
 40
100.000000000035
100
AcDbArc
 50
169.195781999989
 51
-118.610460000001
  0
ARC
  5
F8
100
AcDbEntity
  8
1
  6
CONTINUOUS
 62
           7
100
AcDbCircle
 10
1349.993667655368
 20
970.999999632836
 40
100.000000445527
100
AcDbArc
 50
-0.18139787881
 51
90.002268243121
  0
ARC
  5
F7
100
AcDbEntity
  8
1
  6
CONTINUOUS
 62
           7
100
AcDbCircle
 10
283.734490999988
 20
971.000000000088
 40
99.999999999912
100
AcDbArc
 50
90.0
 51
160.671196000034
  0
ARC
  5
F6
100
AcDbEntity
  8
1
  6
CONTINUOUS
 62
           7
100
AcDbCircle
 10
905.710043881563
 20
5558.048606090769
 40
5463.0
100
AcDbArc
 50
-87.560400271177
 51
-83.012974737456
  0
ARC
  5
F5
100
AcDbEntity
  8
1
  6
CONTINUOUS
 62
           7
100
AcDbCircle
 10
1589.731536000011
 20
1099.999999999993
 40
50.000000000007
100
AcDbArc
 50
0.247805999985
 51
90.000000000009
  0
ARC
  5
F4
100
AcDbEntity
  8
1
  6
CONTINUOUS
 62
           7
100
AcDbCircle
 10
1564.692008000016
 20
185.307991999976
 40
49.999999999951
100
AcDbArc
 50
-83.612788000009
 51
-3.383946000028
  0
ARC
  5
F3
100
AcDbEntity
  8
1
  6
CONTINUOUS
 62
           7
100
AcDbCircle
 10
-12848.45436050635
 20
1037.553992813205
 40
14488.320937210427
100
AcDbArc
 50
-3.383946023055
 51
0.247806086671
  0
LINE
  5
F2
100
AcDbEntity
  8
1
  6
CONTINUOUS
 62
           7
100
AcDbLine
 10
136.693399072701
 20
808.412235272393
 11
189.371021952302
 21
1004.098876811397
  0
LINE
  5
F1
100
AcDbEntity
  8
1
  6
CONTINUOUS
 62
           7
100
AcDbLine
 10
187.035530000001
 20
701.877308999996
 11
1101.014147000002
 21
203.343517999994
  0
LINE
  5
F0
100
AcDbEntity
  8
1
  6
CONTINUOUS
 62
           7
100
AcDbLine
 10
1114.30649650784
 20
106.105221350325
 11
76.057393473223
 21
672.42291369209
  0
LINE
  5
EF
100
AcDbEntity
  8
1
  6
CONTINUOUS
 62
           7
100
AcDbLine
 10
283.734490999988
 20
1071.0
 11
1349.989708824282
 21
1071.0
  0
LINE
  5
EE
100
AcDbEntity
  8
1
  6
CONTINUOUS
 62
           7
100
AcDbLine
 10
1600.0
 20
100.0
 11
1138.249103034616
 21
100.0
  0
LINE
  5
ED
100
AcDbEntity
  8
1
  6
CONTINUOUS
 62
           7
100
AcDbLine
 10
1650.0
 20
1100.0
 11
1650.0
 21
150.0
  0
LINE
  5
EC
100
AcDbEntity
  8
1
  6
CONTINUOUS
 62
           7
100
AcDbLine
 10
50.0
 20
716.317692341765
 11
50.0
 21
1100.0
  0
LINE
  5
EB
100
AcDbEntity
  8
1
  6
CONTINUOUS
 62
           7
100
AcDbLine
 10
100.0
 20
1150.0
 11
1600.0
 21
1150.0
  0
LINE
  5
EA
100
AcDbEntity
  8
WANNE
  6
CONTINUOUS
 62
           7
100
AcDbLine
 10
1100.000000200981
 20
0.0
 11
0.0
 21
599.999999873817
  0
LINE
  5
E9
100
AcDbEntity
  8
WANNE
  6
CONTINUOUS
 62
           7
100
AcDbLine
 10
0.0
 20
599.999999873817
 11
0.0
 21
1200.0
  0
LINE
  5
E8
100
AcDbEntity
  8
WANNE
  6
CONTINUOUS
 62
           7
100
AcDbLine
 10
0.0
 20
1200.0
 11
1700.0
 21
1200.0
  0
LINE
  5
E7
100
AcDbEntity
  8
WANNE
  6
CONTINUOUS
 62
           7
100
AcDbLine
 10
1700.0
 20
1200.0
 11
1700.0
 21
0.0
  0
LINE
  5
E6
100
AcDbEntity
  8
WANNE
  6
CONTINUOUS
 62
           7
100
AcDbLine
 10
1700.0
 20
0.0
 11
1100.000000200981
 21
0.0
  0
LINE
  5
E5
100
AcDbEntity
  8
MITTELLINIEN
  6
DOT_CENTER
 62
           3
100
AcDbLine
 10
689.064497000003
 20
510.495791999992
 11
689.064497000003
 21
640.163765999991
  0
LINE
  5
E4
100
AcDbEntity
  8
MITTELLINIEN
  6
DOT_CENTER
 62
           3
100
AcDbLine
 10
754.742516000015
 20
576.173810999993
 11
625.074542000005
 21
576.173810999993
  0
ENDBLK
  5
104
100
AcDbEntity
  8
0
100
AcDbBlockEnd
  0
ENDSEC
  0
SECTION
  2
ENTITIES
  0
TEXT
  5
108
100
AcDbEntity
  8
1
 62
           3
100
AcDbText
 10
739.064497000003
 20
626.173810999994
 40
35.0
  1
ø 52
 41
0.71262
  7
CONVERTER_1
100
AcDbText
  0
MTEXT
  5
107
100
AcDbEntity
  8
1
 62
           2
100
AcDbMText
 10
1376.483019824283
 20
856.000000000001
 30
0.0
 40
35.0
 41
0.0
 71
           9
 72
           1
  1
Prime-line 254
  7
CONVERTER_1
  0
INSERT
  5
2D
100
AcDbEntity
  8
0
100
AcDbBlockReference
  2
DLX
 10
0.0
 20
0.0
  0
INSERT
  5
2E
100
AcDbEntity
  8
0
100
AcDbBlockReference
  2
WANNE_PRIME_LINE_254
 10
0.0
 20
0.0
  0
ENDSEC
  0
SECTION
  2
OBJECTS
  0
DICTIONARY
  5
19
100
AcDbDictionary
  3
ACAD_GROUP
350
1A
  3
ACAD_MLINESTYLE
350
1B
  0
DICTIONARY
  5
1A
102
{ACAD_REACTORS
330
19
102
}
100
AcDbDictionary
  0
DICTIONARY
  5
1B
102
{ACAD_REACTORS
330
19
102
}
100
AcDbDictionary
  3
STANDARD
350
1C
  0
MLINESTYLE
  5
1C
102
{ACAD_REACTORS
330
1B
102
}
100
AcDbMlineStyle
  2
STANDARD
 70
           0
  3

 62
           0
 51
90.0
 52
90.0
 71
           2
 49
0.5
 62
         256
  6
BYLAYER
 49
-0.5
 62
         256
  6
BYLAYER
  0
ENDSEC
  0
EOF
