  0
SECTION
  2
HEADER
  9
$ACADVER
  1
AC1014
  9
$ACADMAINTVER
 70
           0
  9
$DWGCODEPAGE
  3
ANSI_1252
  9
$INSBASE
 10
0.0
 20
0.0
 30
0.0
  9
$EXTMIN
 10
1.000000000000E+20
 20
1.000000000000E+20
 30
1.000000000000E+20
  9
$EXTMAX
 10
-1.000000000000E+20
 20
-1.000000000000E+20
 30
-1.000000000000E+20
  9
$LIMMIN
 10
0.0
 20
0.0
  9
$LIMMAX
 10
0.0
 20
0.0
  9
$ORTHOMODE
 70
           0
  9
$REGENMODE
 70
           1
  9
$FILLMODE
 70
           1
  9
$QTEXTMODE
 70
           0
  9
$MIRRTEXT
 70
           1
  9
$DRAGMODE
 70
           2
  9
$LTSCALE
 40
1.0
  9
$OSMODE
 70
           0
  9
$ATTMODE
 70
           1
  9
$TEXTSIZE
 40
0.2
  9
$TRACEWID
 40
0.05
  9
$TEXTSTYLE
  7
STANDARD
  9
$CLAYER
  8
0
  9
$CELTYPE
  6
CONTINUOUS
  9
$CECOLOR
 62
         256
  9
$CELTSCALE
 40
1.0
  9
$DELOBJ
 70
           1
  9
$DISPSILH
 70
           0
  9
$DIMSCALE
 40
1.0
  9
$DIMASZ
 40
0.18
  9
$DIMEXO
 40
0.0625
  9
$DIMDLI
 40
0.38
  9
$DIMRND
 40
0.0
  9
$DIMDLE
 40
0.0
  9
$DIMEXE
 40
0.18
  9
$DIMTP
 40
0.0
  9
$DIMTM
 40
0.0
  9
$DIMTXT
 40
0.18
  9
$DIMCEN
 40
0.09
  9
$DIMTSZ
 40
0.0
  9
$DIMTOL
 70
           0
  9
$DIMLIM
 70
           0
  9
$DIMTIH
 70
           1
  9
$DIMTOH
 70
           1
  9
$DIMSE1
 70
           0
  9
$DIMSE2
 70
           0
  9
$DIMTAD
 70
           0
  9
$DIMZIN
 70
           0
  9
$DIMBLK
  1

  9
$DIMASO
 70
           1
  9
$DIMSHO
 70
           1
  9
$DIMPOST
  1

  9
$DIMAPOST
  1

  9
$DIMALT
 70
           0
  9
$DIMALTD
 70
           2
  9
$DIMALTF
 40
25.4
  9
$DIMLFAC
 40
1.0
  9
$DIMTOFL
 70
           0
  9
$DIMTVP
 40
0.0
  9
$DIMTIX
 70
           0
  9
$DIMSOXD
 70
           0
  9
$DIMSAH
 70
           0
  9
$DIMBLK1
  1

  9
$DIMBLK2
  1

  9
$DIMSTYLE
  2
STANDARD
  9
$DIMCLRD
 70
           0
  9
$DIMCLRE
 70
           0
  9
$DIMCLRT
 70
           0
  9
$DIMTFAC
 40
1.0
  9
$DIMGAP
 40
0.09
  9
$DIMJUST
 70
           0
  9
$DIMSD1
 70
           0
  9
$DIMSD2
 70
           0
  9
$DIMTOLJ
 70
           1
  9
$DIMTZIN
 70
           0
  9
$DIMALTZ
 70
           0
  9
$DIMALTTZ
 70
           0
  9
$DIMFIT
 70
           3
  9
$DIMUPT
 70
           0
  9
$DIMUNIT
 70
           2
  9
$DIMDEC
 70
           4
  9
$DIMTDEC
 70
           4
  9
$DIMALTU
 70
           2
  9
$DIMALTTD
 70
           2
  9
$DIMTXSTY
  7
STANDARD
  9
$DIMAUNIT
 70
           0
  9
$LUNITS
 70
           2
  9
$LUPREC
 70
           4
  9
$SKETCHINC
 40
0.1
  9
$FILLETRAD
 40
0.0
  9
$AUNITS
 70
           0
  9
$AUPREC
 70
           0
  9
$MENU
  1
acad
  9
$ELEVATION
 40
0.0
  9
$PELEVATION
 40
0.0
  9
$THICKNESS
 40
0.0
  9
$LIMCHECK
 70
           0
  9
$BLIPMODE
 70
           1
  9
$CHAMFERA
 40
0.0
  9
$CHAMFERB
 40
0.0
  9
$CHAMFERC
 40
0.0
  9
$CHAMFERD
 40
0.0
  9
$SKPOLY
 70
           0
  9
$TDCREATE
 40
0.000000000
  9
$TDUPDATE
 40
0.000000000
  9
$TDINDWG
 40
0.0000000000
  9
$TDUSRTIMER
 40
0.0000000000
  9
$USRTIMER
 70
           1
  9
$ANGBASE
 50
0.0
  9
$ANGDIR
 70
           0
  9
$PDMODE
 70
           0
  9
$PDSIZE
 40
0.0
  9
$PLINEWID
 40
0.0
  9
$COORDS
 70
           0
  9
$SPLFRAME
 70
           0
  9
$SPLINETYPE
 70
           6
  9
$SPLINESEGS
 70
           8
  9
$ATTDIA
 70
           0
  9
$ATTREQ
 70
           1
  9
$HANDLING
 70
           1
  9
$HANDSEED
  5
101
  9
$SURFTAB1
 70
           6
  9
$SURFTAB2
 70
           6
  9
$SURFTYPE
 70
           6
  9
$SURFU
 70
           6
  9
$SURFV
 70
           6
  9
$UCSNAME
  2

  9
$UCSORG
 10
0.0
 20
0.0
 30
0.0
  9
$UCSXDIR
 10
1.0
 20
0.0
 30
0.0
  9
$UCSYDIR
 10
0.0
 20
1.0
 30
0.0
  9
$PUCSNAME
  2

  9
$PUCSORG
 10
0.0
 20
0.0
 30
0.0
  9
$PUCSXDIR
 10
1.0
 20
0.0
 30
0.0
  9
$PUCSYDIR
 10
0.0
 20
1.0
 30
0.0
  9
$USERI1
 70
           0
  9
$USERI2
 70
           0
  9
$USERI3
 70
           0
  9
$USERI4
 70
           0
  9
$USERI5
 70
           0
  9
$USERR1
 40
0.0
  9
$USERR2
 40
0.0
  9
$USERR3
 40
0.0
  9
$USERR4
 40
0.0
  9
$USERR5
 40
0.0
  9
$WORLDVIEW
 70
           1
  9
$SHADEDGE
 70
           3
  9
$SHADEDIF
 70
          70
  9
$TILEMODE
 70
           1
  9
$MAXACTVP
 70
          16
  9
$PINSBASE
 10
0.0
 20
0.0
 30
0.0
  9
$PLIMCHECK
 70
           0
  9
$PEXTMIN
 10
1.000000000000E+20
 20
1.000000000000E+20
 30
1.000000000000E+20
  9
$PEXTMAX
 10
-1.000000000000E+20
 20
-1.000000000000E+20
 30
-1.000000000000E+20
  9
$PLIMMIN
 10
0.0
 20
0.0
  9
$PLIMMAX
 10
12.0
 20
9.0
  9
$UNITMODE
 70
           0
  9
$VISRETAIN
 70
           0
  9
$PLINEGEN
 70
           1
  9
$PSLTSCALE
 70
           0
  9
$TREEDEPTH
 70
        3020
  9
$PICKSTYLE
 70
           1
  9
$CMLSTYLE
  2
STANDARD
  9
$CMLJUST
 70
           0
  9
$CMLSCALE
 40
1.0
  9
$PROXYGRAPHICS
 70
           0
  9
$MEASUREMENT
 70
           0
  0
ENDSEC
  0
SECTION
  2
CLASSES
  0
CLASS
  1
LWPOLYLINE
  2
AcDbPolyline
  3
"AutoCAD"
 90
        0
280
           0
281
           1
  0
CLASS
  1
IMAGE
  2
AcDbRasterImage
  3
ISM
 90
      127
280
           0
281
           1
  0
CLASS
  1
OLE2FRAME
  2
AcDbOle2Frame
  3
""
 90
        0
280
           0
281
           1
  0
CLASS
  1
HATCH
  2
AcDbHatch
  3
"ACAD_SEDONA"
 90
        0
280
           0
281
           1
  0
CLASS
  1
DICTIONARYVAR
  2
AcDbDictionaryVar
  3
"AutoCAD"
 90
        0
280
           0
281
           0
  0
CLASS
  1
RASTERVARIABLES
  2
AcDbRasterVariables
  3
ISM
 90
        0
280
           0
281
           0
  0
CLASS
  1
IMAGEDEF
  2
AcDbRasterImageDef
  3
ISM
 90
        0
280
           0
281
           0
  0
CLASS
  1
IMAGEDEF_REACTOR
  2
AcDbRasterImageDefReactor
  3
ISM
 90
        1
280
           0
281
           0
  0
CLASS
  1
IDBUFFER
  2
AcDbIdBuffer
  3
"Acad"
 90
        0
280
           0
281
           0
  0
CLASS
  1
SPATIAL_FILTER
  2
AcDbSpatialFilter
  3
"Acad"
 90
        0
280
           0
281
           0
  0
CLASS
  1
XRECORD
  2
AcDbXrecord
  3
"<Built In>"
 90
        0
280
           0
281
           0
  0
CLASS
  1
SORTENTSTABLE
  2
AcDbSortentsTable
  3
"AutoCAD"
 90
        0
280
           0
281
           0
  0
CLASS
  1
LAYER_INDEX
  2
AcDbLayerIndex
  3
"Acad"
 90
        0
280
           0
281
           0
  0
CLASS
  1
SPATIAL_INDEX
  2
AcDbSpatialIndex
  3
"Acad"
 90
        0
280
           0
281
           0
  0
CLASS
  1
OBJECT_PTR
  2
CAseDLPNTableRecord
  3
"ASE-LPNTableRecord"
 90
        1
280
           0
281
           0
  0
CLASS
  1
LAYOUT
  2
AcDbLayout
  3
"AutoCAD 2000"
 90
        1
280
           0
281
           0
  0
CLASS
  1
PLOTSETTINGS
  2
AcDbPlotSettings
  3
"AutoCAD 2000"
 90
        1
280
           0
281
           0
  0
CLASS
  1
ACDBDICTIONARYWDFLT
  2
AcDbDictionaryWithDefault
  3
"AutoCAD 2000"
 90
        1
280
           0
281
           0
  0
CLASS
  1
ACDBPLACEHOLDER
  2
AcDbPlaceHolder
  3
"AutoCAD 2000"
 90
        1
280
           0
281
           0
  0
CLASS
  1
VBA_PROJECT
  2
AcDbVbaProject
  3
"acadvba"
 90
        1
280
           0
281
           0
  0
CLASS
  1
WIPEOUT
  2
AcDbWipeout
  3
WipeOut|AutoCAD Express Tool|expresstools@autodesk.com
 90
      127
280
           0
281
           1
  0
CLASS
  1
WIPEOUTVARIABLES
  2
AcDbWipeoutVariables
  3
WipeOut|AutoCAD Express Tool|expresstools@autodesk.com
 90
        0
280
           0
281
           0
  0
CLASS
  1
RTEXT
  2
RText
  3
RText|AutoCAD Express Tool|expresstools@autodesk.com
 90
        0
280
           0
281
           1
  0
CLASS
  1
ARCALIGNEDTEXT
  2
AcDbArcAlignedText
  3
ATEXT|AutoCAD Express Tool|expresstools@autodesk.com
 90
        0
280
           0
281
           1
  0
ENDSEC
  0
SECTION
  2
TABLES
  0
TABLE
  2
VPORT
  5
7
100
AcDbSymbolTable
 70
           1
  0
VPORT
  5
15
100
AcDbSymbolTableRecord
100
AcDbViewportTableRecord
  2
*ACTIVE
 70
           0
 10
0.0
 20
0.0
 11
1.0
 21
1.0
 12
6.591288
 22
4.579184
 13
0.0
 23
0.0
 14
1.0
 24
1.0
 15
0.0
 25
0.0
 16
0.0
 26
0.0
 36
1.0
 17
0.0
 27
0.0
 37
0.0
 40
9.158369
 41
0.688564
 42
50.0
 43
0.0
 44
0.0
 50
0.0
 51
0.0
 71
           0
 72
         100
 73
           1
 74
           1
 75
           0
 76
           0
 77
           0
 78
           0
  0
ENDTAB
  0
TABLE
  2
LTYPE
  5
4
100
AcDbSymbolTable
 70
          10
  0
LTYPE
  5
11
100
AcDbSymbolTableRecord
100
AcDbLinetypeTableRecord
  2
BYBLOCK
 70
          64
  3

 72
          65
 73
           0
 40
0.0
  0
LTYPE
  5
12
100
AcDbSymbolTableRecord
100
AcDbLinetypeTableRecord
  2
BYLAYER
 70
          64
  3

 72
          65
 73
           0
 40
0.0
  0
LTYPE
  5
13
100
AcDbSymbolTableRecord
100
AcDbLinetypeTableRecord
  2
CONTINUOUS
 70
          64
  3
Solid line
 72
          65
 73
           0
 40
0.0
  0
LTYPE
  5
1D
100
AcDbSymbolTableRecord
100
AcDbLinetypeTableRecord
  2
DASHED
 70
          64
  3
Dashed
 72
          65
 73
           2
 40
15.0
 49
12.0
 74
           0
 49
-3.0
 74
           0
  0
LTYPE
  5
1E
100
AcDbSymbolTableRecord
100
AcDbLinetypeTableRecord
  2
DOTTED
 70
          64
  3
Dotted
 72
          65
 73
           2
 40
3.5
 49
0.5
 74
           0
 49
-3.0
 74
           0
  0
LTYPE
  5
1F
100
AcDbSymbolTableRecord
100
AcDbLinetypeTableRecord
  2
DOT_CENTER
 70
          64
  3
Dot_Center
 72
          65
 73
           4
 40
2.0
 49
1.25
 74
           0
 49
-0.25
 74
           0
 49
0.25
 74
           0
 49
-0.25
 74
           0
  0
LTYPE
  5
20
100
AcDbSymbolTableRecord
100
AcDbLinetypeTableRecord
  2
LONG_DASHED
 70
          64
  3
Long_Dashed
 72
          65
 73
           2
 40
2.0
 49
1.5
 74
           0
 49
-0.5
 74
           0
  0
LTYPE
  5
21
100
AcDbSymbolTableRecord
100
AcDbLinetypeTableRecord
  2
DASH_CENTER
 70
          64
  3
Dash_Center
 72
          65
 73
           4
 40
36.0
 49
24.0
 74
           0
 49
-3.0
 74
           0
 49
6.0
 74
           0
 49
-3.0
 74
           0
  0
LTYPE
  5
22
100
AcDbSymbolTableRecord
100
AcDbLinetypeTableRecord
  2
PHANTOM
 70
          64
  3
Phantom
 72
          65
 73
           6
 40
2.5
 49
1.25
 74
           0
 49
-0.25
 74
           0
 49
0.25
 74
           0
 49
-0.25
 74
           0
 49
0.25
 74
           0
 49
-0.25
 74
           0
  0
LTYPE
  5
23
100
AcDbSymbolTableRecord
100
AcDbLinetypeTableRecord
  2
CENTER_DASH_DASH
 70
          64
  3
Center_Dash_Dash
 72
          65
 73
           6
 40
22.0
 49
12.0
 74
           0
 49
-3.0
 74
           0
 49
0.5
 74
           0
 49
-3.0
 74
           0
 49
0.5
 74
           0
 49
-3.0
 74
           0
  0
ENDTAB
  0
TABLE
  2
LAYER
  5
2
100
AcDbSymbolTable
 70
           4
  0
LAYER
  5
14
100
AcDbSymbolTableRecord
100
AcDbLayerTableRecord
  2
0
 70
           0
 62
           7
  6
CONTINUOUS
  0
LAYER
  5
24
100
AcDbSymbolTableRecord
100
AcDbLayerTableRecord
  2
MITTELLINIEN
 70
           0
 62
           7
  6
CONTINUOUS
  0
LAYER
  5
25
100
AcDbSymbolTableRecord
100
AcDbLayerTableRecord
  2
1
 70
           0
 62
           7
  6
CONTINUOUS
  0
LAYER
  5
26
100
AcDbSymbolTableRecord
100
AcDbLayerTableRecord
  2
WANNE
 70
           0
 62
           7
  6
CONTINUOUS
  0
ENDTAB
  0
TABLE
  2
STYLE
  5
3
100
AcDbSymbolTable
 70
           2
  0
STYLE
  5
17
100
AcDbSymbolTableRecord
100
AcDbTextStyleTableRecord
  2
STANDARD
 70
           0
 40
0.0
 41
1.0
 50
0.0
 71
           0
 42
0.0
  3
txt
  4

  0
STYLE
  5
FD
100
AcDbSymbolTableRecord
100
AcDbTextStyleTableRecord
  2
CONVERTER_1
 70
           0
 40
0.0
 41
0.71262
 50
0.0
 71
           0
 42
0.0
  3
txt.shx
  4

  0
ENDTAB
  0
TABLE
  2
VIEW
  5
5
100
AcDbSymbolTable
 70
           0
  0
ENDTAB
  0
TABLE
  2
UCS
  5
6
100
AcDbSymbolTable
 70
           0
  0
ENDTAB
  0
TABLE
  2
APPID
  5
8
100
AcDbSymbolTable
 70
           1
  0
APPID
  5
16
100
AcDbSymbolTableRecord
100
AcDbRegAppTableRecord
  2
ACAD
 70
           0
  0
ENDTAB
  0
TABLE
  2
DIMSTYLE
  5
9
100
AcDbSymbolTable
 70
           1
  0
DIMSTYLE
105
18
100
AcDbSymbolTableRecord
100
AcDbDimStyleTableRecord
  2
STANDARD
 70
           0
  3

  4

  5

  6

  7

 40
1.0
 41
0.18
 42
0.0625
 43
0.38
 44
0.18
 45
0.0
 46
0.0
 47
0.0
 48
0.0
 71
           0
 72
           0
 73
           1
 74
           1
 75
           0
 76
           0
 77
           0
 78
           0
140
0.18
141
0.09
142
0.0
143
25.4
144
1.0
145
0.0
146
1.0
147
0.09
170
           0
171
           2
172
           0
173
           0
174
           0
175
           0
176
           0
177
           0
178
           0
270
           2
271
           4
272
           4
273
           2
274
           2
275
           0
280
           0
281
           0
282
           0
283
           1
284
           0
285
           0
286
           0
287
           0
288
           0
340
17
  0
ENDTAB
  0
TABLE
  2
BLOCK_RECORD
  5
1
100
AcDbSymbolTable
 70
           2
  0
BLOCK_RECORD
  5
A
100
AcDbSymbolTableRecord
100
AcDbBlockTableRecord
  2
*MODEL_SPACE
  0
BLOCK_RECORD
  5
B
100
AcDbSymbolTableRecord
100
AcDbBlockTableRecord
  2
*PAPER_SPACE
  0
BLOCK_RECORD
  5
27
100
AcDbSymbolTableRecord
100
AcDbBlockTableRecord
  2
WANNE_PRIME_LINE_255
  0
BLOCK_RECORD
  5
29
100
AcDbSymbolTableRecord
100
AcDbBlockTableRecord
  2
DLX
  0
ENDTAB
  0
ENDSEC
  0
SECTION
  2
BLOCKS
  0
BLOCK
  5
D
100
AcDbEntity
  8
0
100
AcDbBlockBegin
  2
*MODEL_SPACE
 70
           0
 10
0.0
 20
0.0
 30
0.0
  3
*MODEL_SPACE
  1

  0
ENDBLK
  5
E
100
AcDbEntity
  8
0
100
AcDbBlockEnd
  0
BLOCK
  5
F
100
AcDbEntity
 67
           1
  8
0
100
AcDbBlockBegin
  2
*PAPER_SPACE
 70
           0
 10
0.0
 20
0.0
 30
0.0
  3
*PAPER_SPACE
  1

  0
ENDBLK
  5
10
100
AcDbEntity
 67
           1
  8
0
100
AcDbBlockEnd
  0
BLOCK
  5
28
100
AcDbEntity
  8
0
100
AcDbBlockBegin
  2
WANNE_PRIME_LINE_255
 70
           0
 10
0.0
 20
0.0
 30
0.0
  3
WANNE_PRIME_LINE_255
  1

  0
ARC
  5
45
100
AcDbEntity
  8
1
  6
CONTINUOUS
 62
           7
100
AcDbCircle
 10
1458.578643762694
 20
150.000000000003
 40
50.0
100
AcDbArc
 50
-90.0
 51
-44.999999999999
  0
ARC
  5
44
100
AcDbEntity
  8
1
  6
CONTINUOUS
 62
           7
100
AcDbCircle
 10
441.421356237306
 20
150.000000000003
 40
50.0
100
AcDbArc
 50
-134.999999999999
 51
-90.0
  0
ARC
  5
43
100
AcDbEntity
  8
1
  6
CONTINUOUS
 62
           7
100
AcDbCircle
 10
441.421356237311
 20
750.0
 40
50.0
100
AcDbArc
 50
90.0
 51
135.000000000001
  0
ARC
  5
42
100
AcDbEntity
  8
1
  6
CONTINUOUS
 62
           7
100
AcDbCircle
 10
1458.578643762691
 20
750.0
 40
49.999999999999
100
AcDbArc
 50
45.0
 51
90.0
  0
ARC
  5
41
100
AcDbEntity
  8
1
  6
CONTINUOUS
 62
           7
100
AcDbCircle
 10
141.42135623731
 20
450.0
 40
50.0
100
AcDbArc
 50
135.0
 51
-135.0
  0
ARC
  5
40
100
AcDbEntity
  8
1
  6
CONTINUOUS
 62
           7
100
AcDbCircle
 10
1758.57864376269
 20
450.0
 40
50.0
100
AcDbArc
 50
-44.999999999999
 51
45.0
  0
SPLINE
  5
3F
100
AcDbEntity
  8
1
  6
CONTINUOUS
 62
           7
100
AcDbSpline
210
0.0
220
0.0
230
1.0
 70
           0
 71
           3
 72
          41
 73
          38
 74
          77
 42
0.00000000001
 43
0.00000000001
 44
0.00000000001
 40
-1.51567291206932
 40
-0.0791890232883503
 40
1.3572948654926262
 40
2.9410666433010388
 40
4.9195074455376089
 40
7.4226638198700945
 40
10.464433356975984
 40
13.993789870696144
 40
17.928214591877776
 40
22.164722260063812
 40
26.587429138142877
 40
31.073012236035982
 40
35.495719114116142
 40
39.732226782301737
 40
43.666651503483465
 40
47.196008017203823
 40
50.237777554310341
 40
52.740933928643415
 40
54.719374730878329
 40
56.303146508686964
 40
57.739630397468105
 40
59.323402175275447
 40
61.301842977510496
 40
63.804999351844529
 40
66.84676888895072
 40
70.376125402670368
 40
74.310550123853446
 40
78.547057792039681
 40
82.969764670118906
 40
87.455347768010895
 40
91.878054646090376
 40
96.114562314277066
 40
100.04898703545828
 40
103.57834354917885
 40
106.62011308628533
 40
109.12326946061688
 40
111.10171026285352
 40
112.68548204066283
 40
114.12196592944304
 40
115.55844981822401
 40
116.99493370700498
 10
976.10928672860678
 20
125.0096169999993
 30
0.0
 10
975.62087321805461
 20
126.3605197372226
 30
0.0
 10
974.34875724004064
 20
127.5345250645646
 30
0.0
 10
972.40128711150669
 20
128.61232068365729
 30
0.0
 10
969.79695859462959
 20
129.58628276012129
 30
0.0
 10
966.60335895440471
 20
130.42952007362149
 30
0.0
 10
962.91081305883768
 20
131.11517496539051
 30
0.0
 10
958.82887501747678
 20
131.62120858354771
 30
0.0
 10
954.48009443778687
 20
131.9314195415418
 30
0.0
 10
949.99572899999589
 20
132.03592958149011
 30
0.0
 10
945.51136356220491
 20
131.9314195415418
 30
0.0
 10
941.16258298251273
 20
131.62120858354871
 30
0.0
 10
937.08064494115501
 20
131.11517496539091
 30
0.0
 10
933.3880990455848
 20
130.42952007362101
 30
0.0
 10
930.19449940536265
 20
129.5862827601218
 30
0.0
 10
927.59017088848145
 20
128.61232068365689
 30
0.0
 10
925.64270075995069
 20
127.5345250645646
 30
0.0
 10
924.37058478193671
 20
126.3605197372231
 30
0.0
 10
923.88217127138364
 20
125.0096169999993
 30
0.0
 10
924.37058478193671
 20
123.6587142627768
 30
0.0
 10
925.64270075994887
 20
122.48470893543529
 30
0.0
 10
927.59017088848145
 20
121.40691331634299
 30
0.0
 10
930.19449940536265
 20
120.4329512398772
 30
0.0
 10
933.38809904558389
 20
119.58971392637839
 30
0.0
 10
937.08064494115365
 20
118.90405903460849
 30
0.0
 10
941.16258298251455
 20
118.39802541645081
 30
0.0
 10
945.51136356220491
 20
118.0878144584585
 30
0.0
 10
949.99572899999589
 20
117.98330441850931
 30
0.0
 10
954.4800944377846
 20
118.0878144584581
 30
0.0
 10
958.82887501747769
 20
118.3980254164512
 30
0.0
 10
962.91081305883677
 20
118.90405903460849
 30
0.0
 10
966.60335895440471
 20
119.589713926378
 30
0.0
 10
969.79695859462959
 20
120.4329512398776
 30
0.0
 10
972.4012871115076
 20
121.40691331634299
 30
0.0
 10
974.34875724003837
 20
122.4847089354348
 30
0.0
 10
975.62087321805689
 20
123.6587142627768
 30
0.0
 10
976.10928672860678
 20
125.0096169999993
 30
0.0
 10
975.62087321805461
 20
126.3605197372226
 30
0.0
 11
975.87698912985297
 21
125.652128837258
 31
0.0
 11
975.54350542792781
 21
126.31391369841387
 31
0.0
 11
975.05528614574905
 21
126.88248648195221
 31
0.0
 11
974.31045747840483
 21
127.49046602654495
 31
0.0
 11
973.48902928778898
 21
128.01032749509835
 31
0.0
 11
972.37930342058667
 21
128.57174177132981
 31
0.0
 11
971.22561017154453
 21
129.05199822290624
 31
0.0
 11
969.78454274298554
 21
129.55029511276166
 31
0.0
 11
968.31864361113799
 21
129.97661670789779
 31
0.0
 11
966.59566173405301
 21
130.39734968124074
 31
0.0
 11
964.8572854162644
 21
130.75374186982219
 31
0.0
 11
962.90605277254042
 21
131.08573235822263
 31
0.0
 11
960.94529955622193
 21
131.3588376322873
 31
0.0
 11
958.82607256580479
 21
131.59355840666802
 31
0.0
 11
956.70124067204279
 21
131.77297882728931
 31
0.0
 11
954.47879174299715
 21
131.90478091177633
 31
0.0
 11
952.25373742437205
 21
131.9833057367324
 31
0.0
 11
949.995728999996
 21
132.00961765911126
 31
0.0
 11
947.73772057561996
 21
131.9833057367324
 31
0.0
 11
945.51266625699441
 21
131.90478091177644
 31
0.0
 11
943.2902173279474
 21
131.77297882728976
 31
0.0
 11
941.16538543418551
 21
131.59355840666882
 31
0.0
 11
939.04615844376929
 21
131.35883763228799
 31
0.0
 11
937.08540522745159
 21
131.085732358223
 31
0.0
 11
935.13417258372669
 21
130.75374186982214
 31
0.0
 11
933.39579626593741
 21
130.39734968124051
 31
0.0
 11
931.67281438885311
 21
129.97661670789788
 31
0.0
 11
930.20691525700602
 21
129.55029511276194
 31
0.0
 11
928.76584782844543
 21
129.05199822290626
 31
0.0
 11
927.61215457940204
 21
128.57174177132947
 31
0.0
 11
926.5024287122003
 21
128.0103274950979
 31
0.0
 11
925.68100052158604
 21
127.49046602654495
 31
0.0
 11
924.9361718542425
 21
126.88248648195278
 31
0.0
 11
924.4479525720634
 21
126.3139136984143
 31
0.0
 11
924.11446887013767
 21
125.65212883725823
 31
0.0
 11
923.99832007076066
 21
125.00961699999938
 31
0.0
 11
924.1144688701379
 21
124.3671051627407
 31
0.0
 11
924.44795257206317
 21
123.70532030158542
 31
0.0
 11
924.93617185424137
 21
123.13674751804736
 31
0.0
 11
925.68100052158456
 21
122.528767973455
 31
0.0
 11
926.50242871219916
 21
122.00890650490207
 31
0.0
 11
927.61215457940193
 21
121.44749222867027
 31
0.0
 11
928.76584782844577
 21
120.96723577709311
 31
0.0
 11
930.20691525700602
 21
120.46893888723719
 31
0.0
 11
931.67281438885277
 21
120.0426172921013
 31
0.0
 11
933.3957962659365
 21
119.62188431875886
 31
0.0
 11
935.13417258372499
 21
119.26549213017735
 31
0.0
 11
937.08540522745056
 21
118.93350164177645
 31
0.0
 11
939.04615844376963
 21
118.66039636771143
 31
0.0
 11
941.16538543418687
 21
118.42567559333079
 31
0.0
 11
943.29021732794877
 21
118.24625517271011
 31
0.0
 11
945.51266625699463
 21
118.11445308822364
 31
0.0
 11
947.73772057561996
 21
118.03592826326746
 31
0.0
 11
949.99572899999555
 21
118.00961634088833
 31
0.0
 11
952.25373742437057
 21
118.03592826326727
 31
0.0
 11
954.47879174299555
 21
118.11445308822339
 31
0.0
 11
956.7012406720421
 21
118.24625517271011
 31
0.0
 11
958.82607256580491
 21
118.42567559333104
 31
0.0
 11
960.94529955622215
 21
118.6603963677117
 31
0.0
 11
962.90605277253974
 21
118.9335016417764
 31
0.0
 11
964.85728541626384
 21
119.26549213017702
 31
0.0
 11
966.59566173405278
 21
119.62188431875859
 31
0.0
 11
968.31864361113799
 21
120.04261729210137
 31
0.0
 11
969.78454274298565
 21
120.46893888723753
 31
0.0
 11
971.22561017154544
 21
120.96723577709355
 31
0.0
 11
972.37930342058712
 21
121.44749222867021
 31
0.0
 11
973.48902928778784
 21
122.00890650490132
 31
0.0
 11
974.31045747840346
 21
122.52876797345448
 31
0.0
 11
975.05528614574905
 21
123.136747518047
 31
0.0
 11
975.5435054279294
 21
123.70532030158549
 31
0.0
 11
975.87698912985422
 21
124.36710516274134
 31
0.0
 11
975.99016064009959
 21
125.01785188283768
 31
0.0
 11
975.86507997333069
 21
125.68506836861077
 31
0.0
 11
975.74297659569265
 21
126.02279405291672
 31
0.0
 11
975.86507997333069
 21
125.68506836861096
 31
0.0
 11
975.99016064009936
 21
125.33910780146689
 31
0.0
 11
975.87698912985297
 21
125.652128837258
 31
0.0
  0
CIRCLE
  5
3E
100
AcDbEntity
  8
WANNE
  6
CONTINUOUS
 62
           7
100
AcDbCircle
 10
949.999999999995
 20
318.0
 40
45.0
  0
CIRCLE
  5
3D
100
AcDbEntity
  8
WANNE
  6
CONTINUOUS
 62
           7
100
AcDbCircle
 10
949.999999999995
 20
318.0
 40
26.0
  0
LINE
  5
3C
100
AcDbEntity
  8
1
  6
CONTINUOUS
 62
           7
100
AcDbLine
 10
441.421356237306
 20
100.000000000003
 11
1458.578643762694
 21
100.000000000003
  0
LINE
  5
3B
100
AcDbEntity
  8
1
  6
CONTINUOUS
 62
           7
100
AcDbLine
 10
106.066017177982
 20
414.644660940672
 11
406.066017177979
 21
114.644660940676
  0
LINE
  5
3A
100
AcDbEntity
  8
1
  6
CONTINUOUS
 62
           7
100
AcDbLine
 10
1793.933982822018
 20
414.644660940673
 11
1493.933982822022
 21
114.644660940676
  0
LINE
  5
39
100
AcDbEntity
  8
1
  6
CONTINUOUS
 62
           7
100
AcDbLine
 10
1493.933982822018
 20
785.355339059327
 11
1793.933982822018
 21
485.355339059328
  0
LINE
  5
38
100
AcDbEntity
  8
1
  6
CONTINUOUS
 62
           7
100
AcDbLine
 10
406.066017177982
 20
785.355339059327
 11
106.066017177982
 21
485.355339059327
  0
LINE
  5
37
100
AcDbEntity
  8
1
  6
CONTINUOUS
 62
           7
100
AcDbLine
 10
441.421356237311
 20
800.0
 11
1458.578643762691
 21
800.0
  0
LINE
  5
36
100
AcDbEntity
  8
1
  6
CONTINUOUS
 62
           7
100
AcDbLine
 10
0.0
 20
450.0
 11
450.0
 21
0.0
  0
LINE
  5
35
100
AcDbEntity
  8
1
  6
CONTINUOUS
 62
           7
100
AcDbLine
 10
450.000000000001
 20
900.0
 11
0.0
 21
450.0
  0
LINE
  5
34
100
AcDbEntity
  8
1
  6
CONTINUOUS
 62
           7
100
AcDbLine
 10
1900.0
 20
450.0
 11
1449.999999999999
 21
900.0
  0
LINE
  5
33
100
AcDbEntity
  8
1
  6
CONTINUOUS
 62
           7
100
AcDbLine
 10
1900.0
 20
450.0
 11
1450.0
 21
0.0
  0
LINE
  5
32
100
AcDbEntity
  8
1
  6
CONTINUOUS
 62
           7
100
AcDbLine
 10
450.0
 20
0.0
 11
1450.0
 21
0.0
  0
LINE
  5
31
100
AcDbEntity
  8
1
  6
CONTINUOUS
 62
           7
100
AcDbLine
 10
450.000000000001
 20
900.0
 11
1449.999999999999
 21
900.0
  0
LINE
  5
30
100
AcDbEntity
  8
MITTELLINIEN
  6
DOT_CENTER
 62
           3
100
AcDbLine
 10
1013.989954999998
 20
318.0
 11
884.321980999988
 21
318.0
  0
LINE
  5
2F
100
AcDbEntity
  8
MITTELLINIEN
  6
DOT_CENTER
 62
           3
100
AcDbLine
 10
950.000000000001
 20
381.989954999999
 11
950.000000000001
 21
252.321980999999
  0
ENDBLK
  5
46
100
AcDbEntity
  8
0
100
AcDbBlockEnd
  0
BLOCK
  5
2A
100
AcDbEntity
  8
0
100
AcDbBlockBegin
  2
DLX
 70
           0
 10
0.0
 20
0.0
 30
0.0
  3
DLX
  1

  0
CIRCLE
  5
FA
100
AcDbEntity
  8
1
  6
CONTINUOUS
 62
           3
100
AcDbCircle
 10
617.713774238035
 20
725.630232878754
 40
5.530127989697
  0
CIRCLE
  5
F9
100
AcDbEntity
  8
1
  6
CONTINUOUS
 62
           3
100
AcDbCircle
 10
617.713774238035
 20
725.630232878754
 40
5.972862778755
  0
ARC
  5
F8
100
AcDbEntity
  8
1
  6
CONTINUOUS
 62
           3
100
AcDbCircle
 10
618.492485791694
 20
724.113678682226
 40
1.391870091328
100
AcDbArc
 50
-1.298612665717
 51
66.544866494049
  0
ARC
  5
F7
100
AcDbEntity
  8
1
  6
CONTINUOUS
 62
           3
100
AcDbCircle
 10
617.767092605204
 20
723.804484389822
 40
1.155889798232
100
AcDbArc
 50
0.985058170485
 51
82.918254632943
  0
ARC
  5
F6
100
AcDbEntity
  8
1
  6
CONTINUOUS
 62
           3
100
AcDbCircle
 10
617.8422752434
 20
727.015470930551
 40
1.257687287768
100
AcDbArc
 50
-74.800419047062
 51
80.93139523879
  0
ARC
  5
F5
100
AcDbEntity
  8
1
  6
CONTINUOUS
 62
           3
100
AcDbCircle
 10
617.920593069414
 20
727.055364921381
 40
2.009798008862
100
AcDbArc
 50
-55.929988464567
 51
86.297888718245
  0
LINE
  5
F4
100
AcDbEntity
  8
1
  6
CONTINUOUS
 62
           3
100
AcDbLine
 10
616.184535135797
 20
728.257437531278
 11
616.184535135797
 21
725.801779541275
  0
LINE
  5
F3
100
AcDbEntity
  8
1
  6
CONTINUOUS
 62
           3
100
AcDbLine
 10
618.040508127883
 20
728.257437531278
 11
616.184535135797
 21
728.257437531278
  0
LINE
  5
F2
100
AcDbEntity
  8
1
  6
CONTINUOUS
 62
           3
100
AcDbLine
 10
616.184535135797
 20
725.801779541275
 11
618.172018363739
 21
725.801779541275
  0
LINE
  5
F1
100
AcDbEntity
  8
1
  6
CONTINUOUS
 62
           3
100
AcDbLine
 10
616.184535135797
 20
722.202500788281
 11
615.312087436681
 21
722.202500788281
  0
LINE
  5
F0
100
AcDbEntity
  8
1
  6
CONTINUOUS
 62
           3
100
AcDbLine
 10
617.909596837415
 20
724.951556213842
 11
616.184535135797
 21
724.951556213842
  0
LINE
  5
EF
100
AcDbEntity
  8
1
  6
CONTINUOUS
 62
           3
100
AcDbLine
 10
618.922811577335
 20
722.202500788281
 11
618.922811577335
 21
723.8243560559
  0
LINE
  5
EE
100
AcDbEntity
  8
1
  6
CONTINUOUS
 62
           3
100
AcDbLine
 10
619.88399839284
 20
722.202500788281
 11
618.922811577335
 21
722.202500788281
  0
LINE
  5
ED
100
AcDbEntity
  8
1
  6
CONTINUOUS
 62
           3
100
AcDbLine
 10
619.88399839284
 20
724.082134554626
 11
619.88399839284
 21
722.202500788281
  0
LINE
  5
EC
100
AcDbEntity
  8
1
  6
CONTINUOUS
 62
           3
100
AcDbLine
 10
617.754007295922
 20
729.060968963455
 11
618.050363878274
 21
729.060968963455
  0
LINE
  5
EB
100
AcDbEntity
  8
1
  6
CONTINUOUS
 62
           3
100
AcDbLine
 10
615.312087436681
 20
729.060968963455
 11
617.754007295922
 21
729.060968963455
  0
LINE
  5
EA
100
AcDbEntity
  8
1
  6
CONTINUOUS
 62
           3
100
AcDbLine
 10
615.312087436681
 20
722.202500788281
 11
615.312087436681
 21
729.060968963455
  0
LINE
  5
E9
100
AcDbEntity
  8
1
  6
CONTINUOUS
 62
           3
100
AcDbLine
 10
616.184535135797
 20
724.951556213842
 11
616.184535135797
 21
722.202500788281
  0
LINE
  5
E8
100
AcDbEntity
  8
1
  6
CONTINUOUS
 62
           3
100
AcDbLine
 10
571.663299849128
 20
731.135953478319
 11
569.569222771514
 21
731.135953478319
  0
LINE
  5
E7
100
AcDbEntity
  8
1
  6
CONTINUOUS
 62
           3
100
AcDbLine
 10
568.953364701165
 20
720.075347417793
 11
571.663299849128
 21
731.135953478319
  0
LINE
  5
E6
100
AcDbEntity
  8
1
  6
CONTINUOUS
 62
           3
100
AcDbLine
 10
579.423750089185
 20
720.075347417793
 11
568.953364701165
 21
720.075347417793
  0
LINE
  5
E5
100
AcDbEntity
  8
1
  6
CONTINUOUS
 62
           3
100
AcDbLine
 10
578.881763059524
 20
717.863226205662
 11
579.423750089185
 21
720.075347417793
  0
LINE
  5
E4
100
AcDbEntity
  8
1
  6
CONTINUOUS
 62
           3
100
AcDbLine
 10
566.317300593945
 20
717.863226205662
 11
578.881763059524
 21
717.863226205662
  0
LINE
  5
E3
100
AcDbEntity
  8
1
  6
CONTINUOUS
 62
           3
100
AcDbLine
 10
569.569222771514
 20
731.135953478319
 11
566.317300593945
 21
717.863226205662
  0
LINE
  5
E2
100
AcDbEntity
  8
1
  6
CONTINUOUS
 62
           3
100
AcDbLine
 10
556.122552716656
 20
722.287468629844
 11
559.878267856022
 21
728.923832266268
  0
LINE
  5
E1
100
AcDbEntity
  8
1
  6
CONTINUOUS
 62
           3
100
AcDbLine
 10
560.935071001312
 20
728.923832266268
 11
559.878267856022
 21
728.923832266268
  0
LINE
  5
E0
100
AcDbEntity
  8
1
  6
CONTINUOUS
 62
           3
100
AcDbLine
 10
561.438863963167
 20
722.287468629844
 11
560.935071001312
 21
728.923832266268
  0
LINE
  5
DF
100
AcDbEntity
  8
1
  6
CONTINUOUS
 62
           3
100
AcDbLine
 10
556.122552716656
 20
722.287468629844
 11
561.438863963167
 21
722.287468629844
  0
LINE
  5
DE
100
AcDbEntity
  8
1
  6
CONTINUOUS
 62
           3
100
AcDbLine
 10
553.618742623762
 20
717.863226205662
 11
551.239945635191
 21
717.863226205662
  0
LINE
  5
DD
100
AcDbEntity
  8
1
  6
CONTINUOUS
 62
           3
100
AcDbLine
 10
554.870647670125
 20
720.075347417793
 11
553.618742623762
 21
717.863226205662
  0
LINE
  5
DC
100
AcDbEntity
  8
1
  6
CONTINUOUS
 62
           3
100
AcDbLine
 10
561.606794950489
 20
720.075347417793
 11
554.870647670125
 21
720.075347417793
  0
LINE
  5
DB
100
AcDbEntity
  8
1
  6
CONTINUOUS
 62
           3
100
AcDbLine
 10
561.774725937756
 20
717.863226205662
 11
561.606794950489
 21
720.075347417793
  0
LINE
  5
DA
100
AcDbEntity
  8
1
  6
CONTINUOUS
 62
           3
100
AcDbLine
 10
563.804408100825
 20
717.863226205662
 11
561.774725937756
 21
717.863226205662
  0
LINE
  5
D9
100
AcDbEntity
  8
1
  6
CONTINUOUS
 62
           3
100
AcDbLine
 10
562.796822177063
 20
731.135953478319
 11
563.804408100825
 21
717.863226205662
  0
LINE
  5
D8
100
AcDbEntity
  8
1
  6
CONTINUOUS
 62
           3
100
AcDbLine
 10
558.751375914088
 20
731.135953478319
 11
562.796822177063
 21
731.135953478319
  0
LINE
  5
D7
100
AcDbEntity
  8
1
  6
CONTINUOUS
 62
           3
100
AcDbLine
 10
551.239945635191
 20
717.863226205662
 11
558.751375914088
 21
731.135953478319
  0
LINE
  5
D6
100
AcDbEntity
  8
1
  6
CONTINUOUS
 62
           3
100
AcDbLine
 10
538.256667754157
 20
717.863226205662
 11
536.162590676597
 21
717.863226205662
  0
LINE
  5
D5
100
AcDbEntity
  8
1
  6
CONTINUOUS
 62
           3
100
AcDbLine
 10
541.062670051086
 20
729.315930538597
 11
538.256667754157
 21
717.863226205662
  0
LINE
  5
D4
100
AcDbEntity
  8
1
  6
CONTINUOUS
 62
           3
100
AcDbLine
 10
541.703218317596
 20
727.656839629534
 11
541.062670051086
 21
729.315930538597
  0
LINE
  5
D3
100
AcDbEntity
  8
1
  6
CONTINUOUS
 62
           3
100
AcDbLine
 10
545.484374653306
 20
717.863226205662
 11
541.703218317596
 21
727.656839629534
  0
LINE
  5
D2
100
AcDbEntity
  8
1
  6
CONTINUOUS
 62
           3
100
AcDbLine
 10
548.727053142075
 20
717.863226205662
 11
545.484374653306
 21
717.863226205662
  0
LINE
  5
D1
100
AcDbEntity
  8
1
  6
CONTINUOUS
 62
           3
100
AcDbLine
 10
551.978975319695
 20
731.135953478319
 11
548.727053142075
 21
717.863226205662
  0
LINE
  5
D0
100
AcDbEntity
  8
1
  6
CONTINUOUS
 62
           3
100
AcDbLine
 10
549.884898242081
 20
731.135953478319
 11
551.978975319695
 21
731.135953478319
  0
LINE
  5
CF
100
AcDbEntity
  8
1
  6
CONTINUOUS
 62
           3
100
AcDbLine
 10
547.039466336728
 20
719.522317114746
 11
549.884898242081
 21
731.135953478319
  0
LINE
  5
CE
100
AcDbEntity
  8
1
  6
CONTINUOUS
 62
           3
100
AcDbLine
 10
542.555628470453
 20
731.135953478319
 11
547.039466336728
 21
719.522317114746
  0
LINE
  5
CD
100
AcDbEntity
  8
1
  6
CONTINUOUS
 62
           3
100
AcDbLine
 10
539.414512854112
 20
731.135953478319
 11
542.555628470453
 21
731.135953478319
  0
LINE
  5
CC
100
AcDbEntity
  8
1
  6
CONTINUOUS
 62
           3
100
AcDbLine
 10
536.162590676597
 20
717.863226205662
 11
539.414512854112
 21
731.135953478319
  0
LINE
  5
CB
100
AcDbEntity
  8
1
  6
CONTINUOUS
 62
           3
100
AcDbLine
 10
536.901620360997
 20
731.135953478319
 11
534.807543283432
 21
731.135953478319
  0
LINE
  5
CA
100
AcDbEntity
  8
1
  6
CONTINUOUS
 62
           3
100
AcDbLine
 10
534.807543283432
 20
731.135953478319
 11
531.555621105867
 21
717.863226205662
  0
LINE
  5
C9
100
AcDbEntity
  8
1
  6
CONTINUOUS
 62
           3
100
AcDbLine
 10
533.649698183427
 20
717.863226205662
 11
536.901620360997
 21
731.135953478319
  0
LINE
  5
C8
100
AcDbEntity
  8
1
  6
CONTINUOUS
 62
           3
100
AcDbLine
 10
531.555621105867
 20
717.863226205662
 11
533.649698183427
 21
717.863226205662
  0
LINE
  5
C7
100
AcDbEntity
  8
1
  6
CONTINUOUS
 62
           3
100
AcDbLine
 10
529.06240095062
 20
726.490498932891
 11
531.156478028146
 21
726.490498932891
  0
LINE
  5
C6
100
AcDbEntity
  8
1
  6
CONTINUOUS
 62
           3
100
AcDbLine
 10
528.03262559447
 20
722.287468629844
 11
527.490638564703
 21
720.075347417793
  0
LINE
  5
C5
100
AcDbEntity
  8
1
  6
CONTINUOUS
 62
           3
100
AcDbLine
 10
523.84447143907
 20
722.287468629844
 11
528.03262559447
 21
722.287468629844
  0
LINE
  5
C4
100
AcDbEntity
  8
1
  6
CONTINUOUS
 62
           3
100
AcDbLine
 10
524.386458468717
 20
724.499589842033
 11
523.84447143907
 21
722.287468629844
  0
LINE
  5
C3
100
AcDbEntity
  8
1
  6
CONTINUOUS
 62
           3
100
AcDbLine
 10
530.668689701523
 20
724.499589842033
 11
529.042728612751
 21
717.863226205662
  0
LINE
  5
C2
100
AcDbEntity
  8
1
  6
CONTINUOUS
 62
           3
100
AcDbLine
 10
530.668689701523
 20
724.499589842033
 11
524.386458468717
 21
724.499589842033
  0
LINE
  5
C1
100
AcDbEntity
  8
1
  6
CONTINUOUS
 62
           3
100
AcDbLine
 10
519.114330254374
 20
720.075347417793
 11
521.282278372701
 21
728.923832266268
  0
LINE
  5
C0
100
AcDbEntity
  8
1
  6
CONTINUOUS
 62
           3
100
AcDbLine
 10
521.282278372701
 20
728.923832266268
 11
529.658586682997
 21
728.923832266268
  0
LINE
  5
BF
100
AcDbEntity
  8
1
  6
CONTINUOUS
 62
           3
100
AcDbLine
 10
529.658586682997
 20
728.923832266268
 11
529.06240095062
 21
726.490498932891
  0
LINE
  5
BE
100
AcDbEntity
  8
1
  6
CONTINUOUS
 62
           3
100
AcDbLine
 10
527.490638564703
 20
720.075347417793
 11
519.114330254374
 21
720.075347417793
  0
LINE
  5
BD
100
AcDbEntity
  8
1
  6
CONTINUOUS
 62
           3
100
AcDbLine
 10
529.042728612751
 20
717.863226205662
 11
516.478266147138
 21
717.863226205662
  0
LINE
  5
BC
100
AcDbEntity
  8
1
  6
CONTINUOUS
 62
           3
100
AcDbLine
 10
532.294650790273
 20
731.135953478319
 11
531.156478028146
 21
726.490498932891
  0
LINE
  5
BB
100
AcDbEntity
  8
1
  6
CONTINUOUS
 62
           3
100
AcDbLine
 10
519.730188324682
 20
731.135953478319
 11
532.294650790273
 21
731.135953478319
  0
LINE
  5
BA
100
AcDbEntity
  8
1
  6
CONTINUOUS
 62
           3
100
AcDbLine
 10
516.478266147138
 20
717.863226205662
 11
519.730188324682
 21
731.135953478319
  0
LINE
  5
B9
100
AcDbEntity
  8
1
  6
CONTINUOUS
 62
           3
100
AcDbLine
 10
513.965373654153
 20
717.863226205662
 11
517.217295831563
 21
731.135953478319
  0
LINE
  5
B8
100
AcDbEntity
  8
1
  6
CONTINUOUS
 62
           3
100
AcDbLine
 10
511.871296576434
 20
717.863226205662
 11
513.965373654153
 21
717.863226205662
  0
LINE
  5
B7
100
AcDbEntity
  8
1
  6
CONTINUOUS
 62
           3
100
AcDbLine
 10
515.123218753999
 20
731.135953478319
 11
511.871296576434
 21
717.863226205662
  0
LINE
  5
B6
100
AcDbEntity
  8
1
  6
CONTINUOUS
 62
           3
100
AcDbLine
 10
517.217295831563
 20
731.135953478319
 11
515.123218753999
 21
731.135953478319
  0
LINE
  5
B5
100
AcDbEntity
  8
1
  6
CONTINUOUS
 62
           3
100
AcDbLine
 10
498.888018695396
 20
717.863226205662
 11
499.971992754507
 21
722.287468629844
  0
LINE
  5
B4
100
AcDbEntity
  8
1
  6
CONTINUOUS
 62
           3
100
AcDbLine
 10
496.79394161772
 20
717.863226205662
 11
498.888018695396
 21
717.863226205662
  0
LINE
  5
B3
100
AcDbEntity
  8
1
  6
CONTINUOUS
 62
           3
100
AcDbLine
 10
510.306122469416
 20
721.731340810781
 11
509.358404083303
 21
717.863226205662
  0
LINE
  5
B2
100
AcDbEntity
  8
1
  6
CONTINUOUS
 62
           3
100
AcDbLine
 10
501.597953843282
 20
728.923832266268
 11
500.513979784099
 21
724.499589842033
  0
LINE
  5
B1
100
AcDbEntity
  8
1
  6
CONTINUOUS
 62
           3
100
AcDbLine
 10
509.974262153801
 20
728.923832266268
 11
501.597953843282
 21
728.923832266268
  0
LINE
  5
B0
100
AcDbEntity
  8
1
  6
CONTINUOUS
 62
           3
100
AcDbLine
 10
508.890288094479
 20
724.499589842033
 11
509.974262153801
 21
728.923832266268
  0
LINE
  5
AF
100
AcDbEntity
  8
1
  6
CONTINUOUS
 62
           3
100
AcDbLine
 10
500.513979784099
 20
724.499589842033
 11
508.890288094479
 21
724.499589842033
  0
LINE
  5
AE
100
AcDbEntity
  8
1
  6
CONTINUOUS
 62
           3
100
AcDbLine
 10
508.348301065036
 20
722.287468629844
 11
499.971992754507
 21
722.287468629844
  0
LINE
  5
AD
100
AcDbEntity
  8
1
  6
CONTINUOUS
 62
           3
100
AcDbLine
 10
507.264327005663
 20
717.863226205662
 11
508.348301065036
 21
722.287468629844
  0
LINE
  5
AC
100
AcDbEntity
  8
1
  6
CONTINUOUS
 62
           3
100
AcDbLine
 10
509.358404083303
 20
717.863226205662
 11
507.264327005663
 21
717.863226205662
  0
LINE
  5
AB
100
AcDbEntity
  8
1
  6
CONTINUOUS
 62
           3
100
AcDbLine
 10
512.610326260836
 20
731.135953478319
 11
510.742802150982
 21
723.513649858332
  0
LINE
  5
AA
100
AcDbEntity
  8
1
  6
CONTINUOUS
 62
           3
100
AcDbLine
 10
500.045863795256
 20
731.135953478319
 11
512.610326260836
 21
731.135953478319
  0
LINE
  5
A9
100
AcDbEntity
  8
1
  6
CONTINUOUS
 62
           3
100
AcDbLine
 10
500.045863795256
 20
731.135953478319
 11
496.79394161772
 21
717.863226205662
  0
LINE
  5
A8
100
AcDbEntity
  8
1
  6
CONTINUOUS
 62
           3
100
AcDbLine
 10
484.35265076623
 20
720.075347417793
 11
486.520598884572
 21
728.923832266268
  0
LINE
  5
A7
100
AcDbEntity
  8
1
  6
CONTINUOUS
 62
           3
100
AcDbLine
 10
486.520598884572
 20
728.923832266268
 11
494.896907195061
 21
728.923832266268
  0
LINE
  5
A6
100
AcDbEntity
  8
1
  6
CONTINUOUS
 62
           3
100
AcDbLine
 10
494.896907195061
 20
728.923832266268
 11
492.728959076585
 21
720.075347417793
  0
LINE
  5
A5
100
AcDbEntity
  8
1
  6
CONTINUOUS
 62
           3
100
AcDbLine
 10
492.728959076585
 20
720.075347417793
 11
484.35265076623
 21
720.075347417793
  0
LINE
  5
A4
100
AcDbEntity
  8
1
  6
CONTINUOUS
 62
           3
100
AcDbLine
 10
494.281049124589
 20
717.863226205662
 11
481.716586659064
 21
717.863226205662
  0
LINE
  5
A3
100
AcDbEntity
  8
1
  6
CONTINUOUS
 62
           3
100
AcDbLine
 10
497.532971302264
 20
731.135953478319
 11
494.281049124589
 21
717.863226205662
  0
LINE
  5
A2
100
AcDbEntity
  8
1
  6
CONTINUOUS
 62
           3
100
AcDbLine
 10
484.968508836546
 20
731.135953478319
 11
497.532971302264
 21
731.135953478319
  0
LINE
  5
A1
100
AcDbEntity
  8
1
  6
CONTINUOUS
 62
           3
100
AcDbLine
 10
481.716586659064
 20
717.863226205662
 11
484.968508836546
 21
731.135953478319
  0
LINE
  5
A0
100
AcDbEntity
  8
1
  6
CONTINUOUS
 62
           3
100
AcDbLine
 10
625.307402152304
 20
674.751445
 11
572.716600733494
 21
674.751445
  0
LINE
  5
9F
100
AcDbEntity
  8
1
  6
CONTINUOUS
 62
           3
100
AcDbLine
 10
622.906729785786
 20
680.945384393909
 11
580.097580233613
 21
680.945384393909
  0
LINE
  5
9E
100
AcDbEntity
  8
1
  6
CONTINUOUS
 62
           3
100
AcDbLine
 10
622.906729785786
 20
680.945384393909
 11
625.307402152304
 21
674.751445
  0
LINE
  5
9D
100
AcDbEntity
  8
1
  6
CONTINUOUS
 62
           3
100
AcDbLine
 10
615.664729709004
 20
699.630362066823
 11
612.884876585047
 21
706.802620145079
  0
LINE
  5
9C
100
AcDbEntity
  8
1
  6
CONTINUOUS
 62
           3
100
AcDbLine
 10
621.26195588929
 20
706.802620145079
 11
615.664729709004
 21
699.630362066823
  0
LINE
  5
9B
100
AcDbEntity
  8
1
  6
CONTINUOUS
 62
           3
100
AcDbLine
 10
625.307402152348
 20
706.802620145079
 11
621.26195588929
 21
706.802620145079
  0
LINE
  5
9A
100
AcDbEntity
  8
1
  6
CONTINUOUS
 62
           3
100
AcDbLine
 10
617.007172107265
 20
696.166746218603
 11
625.307402152348
 21
706.802620145079
  0
LINE
  5
99
100
AcDbEntity
  8
1
  6
CONTINUOUS
 62
           3
100
AcDbLine
 10
621.87787020027
 20
683.599929848477
 11
617.007172107265
 21
696.166746218603
  0
LINE
  5
98
100
AcDbEntity
  8
1
  6
CONTINUOUS
 62
           3
100
AcDbLine
 10
617.832423937221
 20
683.599929848477
 11
621.87787020027
 21
683.599929848477
  0
LINE
  5
97
100
AcDbEntity
  8
1
  6
CONTINUOUS
 62
           3
100
AcDbLine
 10
614.304168242537
 20
692.703130370502
 11
617.832423937221
 21
683.599929848477
  0
LINE
  5
96
100
AcDbEntity
  8
1
  6
CONTINUOUS
 62
           3
100
AcDbLine
 10
607.200035662436
 20
683.599929848477
 11
614.304168242537
 21
692.703130370502
  0
LINE
  5
95
100
AcDbEntity
  8
1
  6
CONTINUOUS
 62
           3
100
AcDbLine
 10
603.154589399439
 20
683.599929848477
 11
607.200035662436
 21
683.599929848477
  0
LINE
  5
94
100
AcDbEntity
  8
1
  6
CONTINUOUS
 62
           3
100
AcDbLine
 10
612.961725844229
 20
696.166746218661
 11
603.154589399439
 21
683.599929848477
  0
LINE
  5
93
100
AcDbEntity
  8
1
  6
CONTINUOUS
 62
           3
100
AcDbLine
 10
608.839430322032
 20
706.802620145079
 11
612.961725844229
 21
696.166746218661
  0
LINE
  5
92
100
AcDbEntity
  8
1
  6
CONTINUOUS
 62
           3
100
AcDbLine
 10
612.884876585047
 20
706.802620145079
 11
608.839430322032
 21
706.802620145079
  0
LINE
  5
91
100
AcDbEntity
  8
1
  6
CONTINUOUS
 62
           3
100
AcDbLine
 10
595.856152440987
 20
706.802620145079
 11
590.620959747065
 21
706.802620145079
  0
LINE
  5
90
100
AcDbEntity
  8
1
  6
CONTINUOUS
 62
           3
100
AcDbLine
 10
591.255285577636
 20
688.024172272797
 11
595.856152440987
 21
706.802620145079
  0
LINE
  5
8F
100
AcDbEntity
  8
1
  6
CONTINUOUS
 62
           3
100
AcDbLine
 10
596.490478271588
 20
688.024172272797
 11
591.255285577636
 21
688.024172272797
  0
LINE
  5
8E
100
AcDbEntity
  8
1
  6
CONTINUOUS
 62
           3
100
AcDbLine
 10
601.091345134983
 20
706.802620145079
 11
596.490478271588
 21
688.024172272797
  0
LINE
  5
8D
100
AcDbEntity
  8
1
  6
CONTINUOUS
 62
           3
100
AcDbLine
 10
606.326537828906
 20
706.802620145079
 11
601.091345134983
 21
706.802620145079
  0
LINE
  5
8C
100
AcDbEntity
  8
1
  6
CONTINUOUS
 62
           3
100
AcDbLine
 10
600.641696906298
 20
683.599929848477
 11
606.326537828906
 21
706.802620145079
  0
LINE
  5
8B
100
AcDbEntity
  8
1
  6
CONTINUOUS
 62
           3
100
AcDbLine
 10
584.936118824377
 20
683.599929848477
 11
600.641696906298
 21
683.599929848477
  0
LINE
  5
8A
100
AcDbEntity
  8
1
  6
CONTINUOUS
 62
           3
100
AcDbLine
 10
590.620959747065
 20
706.802620145079
 11
584.936118824377
 21
683.599929848477
  0
LINE
  5
89
100
AcDbEntity
  8
1
  6
CONTINUOUS
 62
           3
100
AcDbLine
 10
583.279324922436
 20
717.863226205662
 11
572.716600733494
 21
674.751445
  0
LINE
  5
88
100
AcDbEntity
  8
1
  6
CONTINUOUS
 62
           3
100
AcDbLine
 10
589.142740739704
 20
717.863226205662
 11
583.279324922436
 21
717.863226205662
  0
LINE
  5
87
100
AcDbEntity
  8
1
  6
CONTINUOUS
 62
           3
100
AcDbLine
 10
580.097580233613
 20
680.945384393909
 11
589.142740739704
 21
717.863226205662
  0
LINE
  5
86
100
AcDbEntity
  8
1
  6
CONTINUOUS
 62
           3
100
AcDbLine
 10
444.977899000098
 20
674.751445
 11
452.830688041153
 21
706.802620145079
  0
LINE
  5
85
100
AcDbEntity
  8
1
  6
CONTINUOUS
 62
           3
100
AcDbLine
 10
452.830688041153
 20
706.802620145079
 11
459.11291927385
 21
706.802620145079
  0
LINE
  5
84
100
AcDbEntity
  8
1
  6
CONTINUOUS
 62
           3
100
AcDbLine
 10
459.11291927385
 20
706.802620145079
 11
452.344104292161
 21
679.175687424182
  0
LINE
  5
83
100
AcDbEntity
  8
1
  6
CONTINUOUS
 62
           3
100
AcDbLine
 10
452.344104292161
 20
679.175687424182
 11
457.579296986039
 21
679.175687424182
  0
LINE
  5
82
100
AcDbEntity
  8
1
  6
CONTINUOUS
 62
           3
100
AcDbLine
 10
457.579296986039
 20
679.175687424182
 11
465.703079541922
 21
712.332923175404
  0
LINE
  5
81
100
AcDbEntity
  8
1
  6
CONTINUOUS
 62
           3
100
AcDbLine
 10
465.703079541922
 20
712.332923175404
 11
448.011983697388
 21
712.332923175404
  0
LINE
  5
80
100
AcDbEntity
  8
1
  6
CONTINUOUS
 62
           3
100
AcDbLine
 10
448.011983697388
 20
712.332923175404
 11
449.366951271373
 21
717.863226205662
  0
LINE
  5
7F
100
AcDbEntity
  8
1
  6
CONTINUOUS
 62
           3
100
AcDbLine
 10
449.366951271373
 20
717.863226205662
 11
473.340278348665
 21
717.863226205662
  0
LINE
  5
7E
100
AcDbEntity
  8
1
  6
CONTINUOUS
 62
           3
100
AcDbLine
 10
473.340278348665
 20
717.863226205662
 11
462.777554159746
 21
674.751445
  0
LINE
  5
7D
100
AcDbEntity
  8
1
  6
CONTINUOUS
 62
           3
100
AcDbLine
 10
462.777554159746
 20
674.751445
 11
444.977899000098
 21
674.751445
  0
LINE
  5
7C
100
AcDbEntity
  8
1
  6
CONTINUOUS
 62
           3
100
AcDbLine
 10
466.965708314872
 20
674.751445
 11
474.818497355866
 21
706.802620145079
  0
LINE
  5
7B
100
AcDbEntity
  8
1
  6
CONTINUOUS
 62
           3
100
AcDbLine
 10
474.818497355866
 20
706.802620145079
 11
481.100728588675
 21
706.802620145079
  0
LINE
  5
7A
100
AcDbEntity
  8
1
  6
CONTINUOUS
 62
           3
100
AcDbLine
 10
481.100728588675
 20
706.802620145079
 11
474.33191360688
 21
679.175687424182
  0
LINE
  5
79
100
AcDbEntity
  8
1
  6
CONTINUOUS
 62
           3
100
AcDbLine
 10
474.33191360688
 20
679.175687424182
 11
479.567106300865
 21
679.175687424182
  0
LINE
  5
78
100
AcDbEntity
  8
1
  6
CONTINUOUS
 62
           3
100
AcDbLine
 10
479.567106300865
 20
679.175687424182
 11
486.335921282671
 21
706.802620145079
  0
LINE
  5
77
100
AcDbEntity
  8
1
  6
CONTINUOUS
 62
           3
100
AcDbLine
 10
484.765363474462
 20
674.751445
 11
466.965708314872
 21
674.751445
  0
LINE
  5
76
100
AcDbEntity
  8
1
  6
CONTINUOUS
 62
           3
100
AcDbLine
 10
486.335921282671
 20
706.802620145079
 11
492.618152515477
 21
706.802620145079
  0
LINE
  5
75
100
AcDbEntity
  8
1
  6
CONTINUOUS
 62
           3
100
AcDbLine
 10
492.618152515477
 20
706.802620145079
 11
484.765363474462
 21
674.751445
  0
LINE
  5
74
100
AcDbEntity
  8
1
  6
CONTINUOUS
 62
           3
100
AcDbLine
 10
513.558923291412
 20
706.802620145079
 11
496.80630667064
 21
706.802620145079
  0
LINE
  5
73
100
AcDbEntity
  8
1
  6
CONTINUOUS
 62
           3
100
AcDbLine
 10
496.80630667064
 20
706.802620145079
 11
492.205439807249
 21
688.024172272797
  0
LINE
  5
72
100
AcDbEntity
  8
1
  6
CONTINUOUS
 62
           3
100
AcDbLine
 10
492.205439807249
 20
688.024172272797
 11
502.675825195214
 21
688.024172272797
  0
LINE
  5
71
100
AcDbEntity
  8
1
  6
CONTINUOUS
 62
           3
100
AcDbLine
 10
502.675825195214
 20
688.024172272797
 11
500.507877076796
 21
679.175687424182
  0
LINE
  5
70
100
AcDbEntity
  8
1
  6
CONTINUOUS
 62
           3
100
AcDbLine
 10
500.507877076796
 20
679.175687424182
 11
490.037491688885
 21
679.175687424182
  0
LINE
  5
6F
100
AcDbEntity
  8
1
  6
CONTINUOUS
 62
           3
100
AcDbLine
 10
490.037491688885
 20
679.175687424182
 11
488.953517629578
 21
674.751445
  0
LINE
  5
6E
100
AcDbEntity
  8
1
  6
CONTINUOUS
 62
           3
100
AcDbLine
 10
488.953517629578
 20
674.751445
 11
505.7061342504
 21
674.751445
  0
LINE
  5
6D
100
AcDbEntity
  8
1
  6
CONTINUOUS
 62
           3
100
AcDbLine
 10
505.7061342504
 20
674.751445
 11
510.042030487324
 21
692.448414696953
  0
LINE
  5
6C
100
AcDbEntity
  8
1
  6
CONTINUOUS
 62
           3
100
AcDbLine
 10
510.042030487324
 20
692.448414696953
 11
499.57164509926
 21
692.448414696953
  0
LINE
  5
6B
100
AcDbEntity
  8
1
  6
CONTINUOUS
 62
           3
100
AcDbLine
 10
499.57164509926
 20
692.448414696953
 11
502.004563844273
 21
702.378377720838
  0
LINE
  5
6A
100
AcDbEntity
  8
1
  6
CONTINUOUS
 62
           3
100
AcDbLine
 10
502.004563844273
 20
702.378377720838
 11
512.474949232253
 21
702.378377720838
  0
LINE
  5
69
100
AcDbEntity
  8
1
  6
CONTINUOUS
 62
           3
100
AcDbLine
 10
512.474949232253
 20
702.378377720838
 11
513.558923291412
 21
706.802620145079
  0
LINE
  5
68
100
AcDbEntity
  8
1
  6
CONTINUOUS
 62
           3
100
AcDbLine
 10
531.78975891942
 20
695.742014084413
 11
534.49969406735
 21
706.802620145079
  0
LINE
  5
67
100
AcDbEntity
  8
1
  6
CONTINUOUS
 62
           3
100
AcDbLine
 10
534.49969406735
 20
706.802620145079
 11
517.747077446629
 21
706.802620145079
  0
LINE
  5
66
100
AcDbEntity
  8
1
  6
CONTINUOUS
 62
           3
100
AcDbLine
 10
517.747077446629
 20
706.802620145079
 11
509.894288405636
 21
674.751445
  0
LINE
  5
65
100
AcDbEntity
  8
1
  6
CONTINUOUS
 62
           3
100
AcDbLine
 10
509.894288405636
 20
674.751445
 11
526.64690502639
 21
674.751445
  0
LINE
  5
64
100
AcDbEntity
  8
1
  6
CONTINUOUS
 62
           3
100
AcDbLine
 10
526.64690502639
 20
674.751445
 11
529.356840174364
 21
685.812051060608
  0
LINE
  5
63
100
AcDbEntity
  8
1
  6
CONTINUOUS
 62
           3
100
AcDbLine
 10
529.356840174364
 20
685.812051060608
 11
523.074608941576
 21
685.812051060608
  0
LINE
  5
62
100
AcDbEntity
  8
1
  6
CONTINUOUS
 62
           3
100
AcDbLine
 10
523.074608941576
 20
685.812051060608
 11
521.448647852789
 21
679.175687424182
  0
LINE
  5
61
100
AcDbEntity
  8
1
  6
CONTINUOUS
 62
           3
100
AcDbLine
 10
521.448647852789
 20
679.175687424182
 11
517.260493697586
 21
679.175687424182
  0
LINE
  5
60
100
AcDbEntity
  8
1
  6
CONTINUOUS
 62
           3
100
AcDbLine
 10
517.260493697586
 20
679.175687424182
 11
522.945334620216
 21
702.378377720838
  0
LINE
  5
5F
100
AcDbEntity
  8
1
  6
CONTINUOUS
 62
           3
100
AcDbLine
 10
522.945334620216
 20
702.378377720838
 11
527.133488775407
 21
702.378377720838
  0
LINE
  5
5E
100
AcDbEntity
  8
1
  6
CONTINUOUS
 62
           3
100
AcDbLine
 10
527.133488775407
 20
702.378377720838
 11
525.507527686614
 21
695.742014084413
  0
LINE
  5
5D
100
AcDbEntity
  8
1
  6
CONTINUOUS
 62
           3
100
AcDbLine
 10
525.507527686614
 20
695.742014084413
 11
531.78975891942
 21
695.742014084413
  0
LINE
  5
5C
100
AcDbEntity
  8
1
  6
CONTINUOUS
 62
           3
100
AcDbLine
 10
530.835059181571
 20
674.751445
 11
537.117290414359
 21
674.751445
  0
LINE
  5
5B
100
AcDbEntity
  8
1
  6
CONTINUOUS
 62
           3
100
AcDbLine
 10
547.587675802434
 20
674.751445
 11
555.440464843449
 21
706.802620145079
  0
LINE
  5
5A
100
AcDbEntity
  8
1
  6
CONTINUOUS
 62
           3
100
AcDbLine
 10
541.305444569537
 20
674.751445
 11
544.689852060432
 21
688.564911360341
  0
LINE
  5
59
100
AcDbEntity
  8
1
  6
CONTINUOUS
 62
           3
100
AcDbLine
 10
537.117290414359
 20
674.751445
 11
540.501697905244
 21
688.564911360341
  0
LINE
  5
58
100
AcDbEntity
  8
1
  6
CONTINUOUS
 62
           3
100
AcDbLine
 10
538.687848222564
 20
706.802620145079
 11
530.835059181571
 21
674.751445
  0
LINE
  5
57
100
AcDbEntity
  8
1
  6
CONTINUOUS
 62
           3
100
AcDbLine
 10
555.440464843449
 20
706.802620145079
 11
549.158233610533
 21
706.802620145079
  0
LINE
  5
56
100
AcDbEntity
  8
1
  6
CONTINUOUS
 62
           3
100
AcDbLine
 10
551.77582995756
 20
674.751445
 11
568.528446578368
 21
674.751445
  0
LINE
  5
55
100
AcDbEntity
  8
1
  6
CONTINUOUS
 62
           3
100
AcDbLine
 10
563.330189404666
 20
679.175687424182
 11
559.142035249565
 21
679.175687424182
  0
LINE
  5
54
100
AcDbEntity
  8
1
  6
CONTINUOUS
 62
           3
100
AcDbLine
 10
559.628618998557
 20
706.802620145079
 11
551.77582995756
 21
674.751445
  0
LINE
  5
53
100
AcDbEntity
  8
1
  6
CONTINUOUS
 62
           3
100
AcDbLine
 10
559.142035249565
 20
679.175687424182
 11
564.82687617214
 21
702.378377720838
  0
LINE
  5
52
100
AcDbEntity
  8
1
  6
CONTINUOUS
 62
           3
100
AcDbLine
 10
576.381235619387
 20
706.802620145079
 11
559.628618998557
 21
706.802620145079
  0
LINE
  5
51
100
AcDbEntity
  8
1
  6
CONTINUOUS
 62
           3
100
AcDbLine
 10
564.82687617214
 20
702.378377720838
 11
569.01503032739
 21
702.378377720838
  0
LINE
  5
50
100
AcDbEntity
  8
1
  6
CONTINUOUS
 62
           3
100
AcDbLine
 10
569.01503032739
 20
702.378377720838
 11
563.330189404666
 21
679.175687424182
  0
LINE
  5
4F
100
AcDbEntity
  8
1
  6
CONTINUOUS
 62
           3
100
AcDbLine
 10
576.381235619387
 20
706.802620145079
 11
568.528446578368
 21
674.751445
  0
LINE
  5
4E
100
AcDbEntity
  8
1
  6
CONTINUOUS
 62
           3
100
AcDbLine
 10
544.970079455429
 20
706.802620145079
 11
538.687848222564
 21
706.802620145079
  0
LINE
  5
4D
100
AcDbEntity
  8
1
  6
CONTINUOUS
 62
           3
100
AcDbLine
 10
541.305444569537
 20
674.751445
 11
547.587675802434
 21
674.751445
  0
LINE
  5
4C
100
AcDbEntity
  8
1
  6
CONTINUOUS
 62
           3
100
AcDbLine
 10
540.501697905244
 20
688.564911360341
 11
544.689852060432
 21
688.564911360341
  0
LINE
  5
4B
100
AcDbEntity
  8
1
  6
CONTINUOUS
 62
           3
100
AcDbLine
 10
541.585671964413
 20
692.989153784527
 11
545.773826119652
 21
692.989153784527
  0
LINE
  5
4A
100
AcDbEntity
  8
1
  6
CONTINUOUS
 62
           3
100
AcDbLine
 10
541.585671964413
 20
692.989153784527
 11
544.970079455429
 21
706.802620145079
  0
LINE
  5
49
100
AcDbEntity
  8
1
  6
CONTINUOUS
 62
           3
100
AcDbLine
 10
545.773826119652
 20
692.989153784527
 11
549.158233610533
 21
706.802620145079
  0
LINE
  5
48
100
AcDbEntity
  8
1
  6
CONTINUOUS
 62
           3
100
AcDbLine
 10
510.742802150982
 20
723.513649858332
 11
510.010719382035
 21
722.729892872362
  0
LINE
  5
47
100
AcDbEntity
  8
1
  6
CONTINUOUS
 62
           3
100
AcDbLine
 10
510.306122469416
 20
721.731340810781
 11
510.010719382035
 21
722.729892872362
  0
ENDBLK
  5
FB
100
AcDbEntity
  8
0
100
AcDbBlockEnd
  0
ENDSEC
  0
SECTION
  2
ENTITIES
  0
TEXT
  5
FF
100
AcDbEntity
  8
1
 62
           3
100
AcDbText
 10
1000.0
 20
368.0
 40
35.0
  1
ø 52
 41
0.71262
  7
CONVERTER_1
100
AcDbText
  0
TEXT
  5
FE
100
AcDbEntity
  8
1
 62
           2
100
AcDbText
 10
444.977899000098
 20
584.751445
 40
35.0
  1
Prime-line 255
 41
0.71262
  7
CONVERTER_1
100
AcDbText
  0
INSERT
  5
2D
100
AcDbEntity
  8
0
100
AcDbBlockReference
  2
WANNE_PRIME_LINE_255
 10
0.0
 20
0.0
  0
INSERT
  5
2E
100
AcDbEntity
  8
0
100
AcDbBlockReference
  2
DLX
 10
0.0
 20
0.0
  0
ENDSEC
  0
SECTION
  2
OBJECTS
  0
DICTIONARY
  5
19
100
AcDbDictionary
  3
ACAD_GROUP
350
1A
  3
ACAD_MLINESTYLE
350
1B
  0
DICTIONARY
  5
1A
102
{ACAD_REACTORS
330
19
102
}
100
AcDbDictionary
  0
DICTIONARY
  5
1B
102
{ACAD_REACTORS
330
19
102
}
100
AcDbDictionary
  3
STANDARD
350
1C
  0
MLINESTYLE
  5
1C
102
{ACAD_REACTORS
330
1B
102
}
100
AcDbMlineStyle
  2
STANDARD
 70
           0
  3

 62
           0
 51
90.0
 52
90.0
 71
           2
 49
0.5
 62
         256
  6
BYLAYER
 49
-0.5
 62
         256
  6
BYLAYER
  0
ENDSEC
  0
EOF
