  0
SECTION
  2
HEADER
  9
$ACADVER
  1
AC1014
  9
$ACADMAINTVER
 70
           0
  9
$DWGCODEPAGE
  3
ANSI_1252
  9
$INSBASE
 10
0.0
 20
0.0
 30
0.0
  9
$EXTMIN
 10
1.000000000000E+20
 20
1.000000000000E+20
 30
1.000000000000E+20
  9
$EXTMAX
 10
-1.000000000000E+20
 20
-1.000000000000E+20
 30
-1.000000000000E+20
  9
$LIMMIN
 10
0.0
 20
0.0
  9
$LIMMAX
 10
0.0
 20
0.0
  9
$ORTHOMODE
 70
           0
  9
$REGENMODE
 70
           1
  9
$FILLMODE
 70
           1
  9
$QTEXTMODE
 70
           0
  9
$MIRRTEXT
 70
           1
  9
$DRAGMODE
 70
           2
  9
$LTSCALE
 40
1.0
  9
$OSMODE
 70
           0
  9
$ATTMODE
 70
           1
  9
$TEXTSIZE
 40
0.2
  9
$TRACEWID
 40
0.05
  9
$TEXTSTYLE
  7
STANDARD
  9
$CLAYER
  8
0
  9
$CELTYPE
  6
CONTINUOUS
  9
$CECOLOR
 62
         256
  9
$CELTSCALE
 40
1.0
  9
$DELOBJ
 70
           1
  9
$DISPSILH
 70
           0
  9
$DIMSCALE
 40
1.0
  9
$DIMASZ
 40
0.18
  9
$DIMEXO
 40
0.0625
  9
$DIMDLI
 40
0.38
  9
$DIMRND
 40
0.0
  9
$DIMDLE
 40
0.0
  9
$DIMEXE
 40
0.18
  9
$DIMTP
 40
0.0
  9
$DIMTM
 40
0.0
  9
$DIMTXT
 40
0.18
  9
$DIMCEN
 40
0.09
  9
$DIMTSZ
 40
0.0
  9
$DIMTOL
 70
           0
  9
$DIMLIM
 70
           0
  9
$DIMTIH
 70
           1
  9
$DIMTOH
 70
           1
  9
$DIMSE1
 70
           0
  9
$DIMSE2
 70
           0
  9
$DIMTAD
 70
           0
  9
$DIMZIN
 70
           0
  9
$DIMBLK
  1

  9
$DIMASO
 70
           1
  9
$DIMSHO
 70
           1
  9
$DIMPOST
  1

  9
$DIMAPOST
  1

  9
$DIMALT
 70
           0
  9
$DIMALTD
 70
           2
  9
$DIMALTF
 40
25.4
  9
$DIMLFAC
 40
1.0
  9
$DIMTOFL
 70
           0
  9
$DIMTVP
 40
0.0
  9
$DIMTIX
 70
           0
  9
$DIMSOXD
 70
           0
  9
$DIMSAH
 70
           0
  9
$DIMBLK1
  1

  9
$DIMBLK2
  1

  9
$DIMSTYLE
  2
STANDARD
  9
$DIMCLRD
 70
           0
  9
$DIMCLRE
 70
           0
  9
$DIMCLRT
 70
           0
  9
$DIMTFAC
 40
1.0
  9
$DIMGAP
 40
0.09
  9
$DIMJUST
 70
           0
  9
$DIMSD1
 70
           0
  9
$DIMSD2
 70
           0
  9
$DIMTOLJ
 70
           1
  9
$DIMTZIN
 70
           0
  9
$DIMALTZ
 70
           0
  9
$DIMALTTZ
 70
           0
  9
$DIMFIT
 70
           3
  9
$DIMUPT
 70
           0
  9
$DIMUNIT
 70
           2
  9
$DIMDEC
 70
           4
  9
$DIMTDEC
 70
           4
  9
$DIMALTU
 70
           2
  9
$DIMALTTD
 70
           2
  9
$DIMTXSTY
  7
STANDARD
  9
$DIMAUNIT
 70
           0
  9
$LUNITS
 70
           2
  9
$LUPREC
 70
           4
  9
$SKETCHINC
 40
0.1
  9
$FILLETRAD
 40
0.0
  9
$AUNITS
 70
           0
  9
$AUPREC
 70
           0
  9
$MENU
  1
acad
  9
$ELEVATION
 40
0.0
  9
$PELEVATION
 40
0.0
  9
$THICKNESS
 40
0.0
  9
$LIMCHECK
 70
           0
  9
$BLIPMODE
 70
           1
  9
$CHAMFERA
 40
0.0
  9
$CHAMFERB
 40
0.0
  9
$CHAMFERC
 40
0.0
  9
$CHAMFERD
 40
0.0
  9
$SKPOLY
 70
           0
  9
$TDCREATE
 40
0.000000000
  9
$TDUPDATE
 40
0.000000000
  9
$TDINDWG
 40
0.0000000000
  9
$TDUSRTIMER
 40
0.0000000000
  9
$USRTIMER
 70
           1
  9
$ANGBASE
 50
0.0
  9
$ANGDIR
 70
           0
  9
$PDMODE
 70
           0
  9
$PDSIZE
 40
0.0
  9
$PLINEWID
 40
0.0
  9
$COORDS
 70
           0
  9
$SPLFRAME
 70
           0
  9
$SPLINETYPE
 70
           6
  9
$SPLINESEGS
 70
           8
  9
$ATTDIA
 70
           0
  9
$ATTREQ
 70
           1
  9
$HANDLING
 70
           1
  9
$HANDSEED
  5
103
  9
$SURFTAB1
 70
           6
  9
$SURFTAB2
 70
           6
  9
$SURFTYPE
 70
           6
  9
$SURFU
 70
           6
  9
$SURFV
 70
           6
  9
$UCSNAME
  2

  9
$UCSORG
 10
0.0
 20
0.0
 30
0.0
  9
$UCSXDIR
 10
1.0
 20
0.0
 30
0.0
  9
$UCSYDIR
 10
0.0
 20
1.0
 30
0.0
  9
$PUCSNAME
  2

  9
$PUCSORG
 10
0.0
 20
0.0
 30
0.0
  9
$PUCSXDIR
 10
1.0
 20
0.0
 30
0.0
  9
$PUCSYDIR
 10
0.0
 20
1.0
 30
0.0
  9
$USERI1
 70
           0
  9
$USERI2
 70
           0
  9
$USERI3
 70
           0
  9
$USERI4
 70
           0
  9
$USERI5
 70
           0
  9
$USERR1
 40
0.0
  9
$USERR2
 40
0.0
  9
$USERR3
 40
0.0
  9
$USERR4
 40
0.0
  9
$USERR5
 40
0.0
  9
$WORLDVIEW
 70
           1
  9
$SHADEDGE
 70
           3
  9
$SHADEDIF
 70
          70
  9
$TILEMODE
 70
           1
  9
$MAXACTVP
 70
          16
  9
$PINSBASE
 10
0.0
 20
0.0
 30
0.0
  9
$PLIMCHECK
 70
           0
  9
$PEXTMIN
 10
1.000000000000E+20
 20
1.000000000000E+20
 30
1.000000000000E+20
  9
$PEXTMAX
 10
-1.000000000000E+20
 20
-1.000000000000E+20
 30
-1.000000000000E+20
  9
$PLIMMIN
 10
0.0
 20
0.0
  9
$PLIMMAX
 10
12.0
 20
9.0
  9
$UNITMODE
 70
           0
  9
$VISRETAIN
 70
           0
  9
$PLINEGEN
 70
           1
  9
$PSLTSCALE
 70
           0
  9
$TREEDEPTH
 70
        3020
  9
$PICKSTYLE
 70
           1
  9
$CMLSTYLE
  2
STANDARD
  9
$CMLJUST
 70
           0
  9
$CMLSCALE
 40
1.0
  9
$PROXYGRAPHICS
 70
           0
  9
$MEASUREMENT
 70
           0
  0
ENDSEC
  0
SECTION
  2
CLASSES
  0
CLASS
  1
LWPOLYLINE
  2
AcDbPolyline
  3
"AutoCAD"
 90
        0
280
           0
281
           1
  0
CLASS
  1
IMAGE
  2
AcDbRasterImage
  3
ISM
 90
      127
280
           0
281
           1
  0
CLASS
  1
OLE2FRAME
  2
AcDbOle2Frame
  3
""
 90
        0
280
           0
281
           1
  0
CLASS
  1
HATCH
  2
AcDbHatch
  3
"ACAD_SEDONA"
 90
        0
280
           0
281
           1
  0
CLASS
  1
DICTIONARYVAR
  2
AcDbDictionaryVar
  3
"AutoCAD"
 90
        0
280
           0
281
           0
  0
CLASS
  1
RASTERVARIABLES
  2
AcDbRasterVariables
  3
ISM
 90
        0
280
           0
281
           0
  0
CLASS
  1
IMAGEDEF
  2
AcDbRasterImageDef
  3
ISM
 90
        0
280
           0
281
           0
  0
CLASS
  1
IMAGEDEF_REACTOR
  2
AcDbRasterImageDefReactor
  3
ISM
 90
        1
280
           0
281
           0
  0
CLASS
  1
IDBUFFER
  2
AcDbIdBuffer
  3
"Acad"
 90
        0
280
           0
281
           0
  0
CLASS
  1
SPATIAL_FILTER
  2
AcDbSpatialFilter
  3
"Acad"
 90
        0
280
           0
281
           0
  0
CLASS
  1
XRECORD
  2
AcDbXrecord
  3
"<Built In>"
 90
        0
280
           0
281
           0
  0
CLASS
  1
SORTENTSTABLE
  2
AcDbSortentsTable
  3
"AutoCAD"
 90
        0
280
           0
281
           0
  0
CLASS
  1
LAYER_INDEX
  2
AcDbLayerIndex
  3
"Acad"
 90
        0
280
           0
281
           0
  0
CLASS
  1
SPATIAL_INDEX
  2
AcDbSpatialIndex
  3
"Acad"
 90
        0
280
           0
281
           0
  0
CLASS
  1
OBJECT_PTR
  2
CAseDLPNTableRecord
  3
"ASE-LPNTableRecord"
 90
        1
280
           0
281
           0
  0
CLASS
  1
LAYOUT
  2
AcDbLayout
  3
"AutoCAD 2000"
 90
        1
280
           0
281
           0
  0
CLASS
  1
PLOTSETTINGS
  2
AcDbPlotSettings
  3
"AutoCAD 2000"
 90
        1
280
           0
281
           0
  0
CLASS
  1
ACDBDICTIONARYWDFLT
  2
AcDbDictionaryWithDefault
  3
"AutoCAD 2000"
 90
        1
280
           0
281
           0
  0
CLASS
  1
ACDBPLACEHOLDER
  2
AcDbPlaceHolder
  3
"AutoCAD 2000"
 90
        1
280
           0
281
           0
  0
CLASS
  1
VBA_PROJECT
  2
AcDbVbaProject
  3
"acadvba"
 90
        1
280
           0
281
           0
  0
CLASS
  1
WIPEOUT
  2
AcDbWipeout
  3
WipeOut|AutoCAD Express Tool|expresstools@autodesk.com
 90
      127
280
           0
281
           1
  0
CLASS
  1
WIPEOUTVARIABLES
  2
AcDbWipeoutVariables
  3
WipeOut|AutoCAD Express Tool|expresstools@autodesk.com
 90
        0
280
           0
281
           0
  0
CLASS
  1
RTEXT
  2
RText
  3
RText|AutoCAD Express Tool|expresstools@autodesk.com
 90
        0
280
           0
281
           1
  0
CLASS
  1
ARCALIGNEDTEXT
  2
AcDbArcAlignedText
  3
ATEXT|AutoCAD Express Tool|expresstools@autodesk.com
 90
        0
280
           0
281
           1
  0
ENDSEC
  0
SECTION
  2
TABLES
  0
TABLE
  2
VPORT
  5
7
100
AcDbSymbolTable
 70
           1
  0
VPORT
  5
15
100
AcDbSymbolTableRecord
100
AcDbViewportTableRecord
  2
*ACTIVE
 70
           0
 10
0.0
 20
0.0
 11
1.0
 21
1.0
 12
6.591288
 22
4.579184
 13
0.0
 23
0.0
 14
1.0
 24
1.0
 15
0.0
 25
0.0
 16
0.0
 26
0.0
 36
1.0
 17
0.0
 27
0.0
 37
0.0
 40
9.158369
 41
0.688564
 42
50.0
 43
0.0
 44
0.0
 50
0.0
 51
0.0
 71
           0
 72
         100
 73
           1
 74
           1
 75
           0
 76
           0
 77
           0
 78
           0
  0
ENDTAB
  0
TABLE
  2
LTYPE
  5
4
100
AcDbSymbolTable
 70
          10
  0
LTYPE
  5
11
100
AcDbSymbolTableRecord
100
AcDbLinetypeTableRecord
  2
BYBLOCK
 70
          64
  3

 72
          65
 73
           0
 40
0.0
  0
LTYPE
  5
12
100
AcDbSymbolTableRecord
100
AcDbLinetypeTableRecord
  2
BYLAYER
 70
          64
  3

 72
          65
 73
           0
 40
0.0
  0
LTYPE
  5
13
100
AcDbSymbolTableRecord
100
AcDbLinetypeTableRecord
  2
CONTINUOUS
 70
          64
  3
Solid line
 72
          65
 73
           0
 40
0.0
  0
LTYPE
  5
1D
100
AcDbSymbolTableRecord
100
AcDbLinetypeTableRecord
  2
DASHED
 70
          64
  3
Dashed
 72
          65
 73
           2
 40
15.0
 49
12.0
 74
           0
 49
-3.0
 74
           0
  0
LTYPE
  5
1E
100
AcDbSymbolTableRecord
100
AcDbLinetypeTableRecord
  2
DOTTED
 70
          64
  3
Dotted
 72
          65
 73
           2
 40
3.5
 49
0.5
 74
           0
 49
-3.0
 74
           0
  0
LTYPE
  5
1F
100
AcDbSymbolTableRecord
100
AcDbLinetypeTableRecord
  2
DOT_CENTER
 70
          64
  3
Dot_Center
 72
          65
 73
           4
 40
2.0
 49
1.25
 74
           0
 49
-0.25
 74
           0
 49
0.25
 74
           0
 49
-0.25
 74
           0
  0
LTYPE
  5
20
100
AcDbSymbolTableRecord
100
AcDbLinetypeTableRecord
  2
LONG_DASHED
 70
          64
  3
Long_Dashed
 72
          65
 73
           2
 40
2.0
 49
1.5
 74
           0
 49
-0.5
 74
           0
  0
LTYPE
  5
21
100
AcDbSymbolTableRecord
100
AcDbLinetypeTableRecord
  2
DASH_CENTER
 70
          64
  3
Dash_Center
 72
          65
 73
           4
 40
36.0
 49
24.0
 74
           0
 49
-3.0
 74
           0
 49
6.0
 74
           0
 49
-3.0
 74
           0
  0
LTYPE
  5
22
100
AcDbSymbolTableRecord
100
AcDbLinetypeTableRecord
  2
PHANTOM
 70
          64
  3
Phantom
 72
          65
 73
           6
 40
2.5
 49
1.25
 74
           0
 49
-0.25
 74
           0
 49
0.25
 74
           0
 49
-0.25
 74
           0
 49
0.25
 74
           0
 49
-0.25
 74
           0
  0
LTYPE
  5
23
100
AcDbSymbolTableRecord
100
AcDbLinetypeTableRecord
  2
CENTER_DASH_DASH
 70
          64
  3
Center_Dash_Dash
 72
          65
 73
           6
 40
22.0
 49
12.0
 74
           0
 49
-3.0
 74
           0
 49
0.5
 74
           0
 49
-3.0
 74
           0
 49
0.5
 74
           0
 49
-3.0
 74
           0
  0
ENDTAB
  0
TABLE
  2
LAYER
  5
2
100
AcDbSymbolTable
 70
           4
  0
LAYER
  5
14
100
AcDbSymbolTableRecord
100
AcDbLayerTableRecord
  2
0
 70
           0
 62
           7
  6
CONTINUOUS
  0
LAYER
  5
24
100
AcDbSymbolTableRecord
100
AcDbLayerTableRecord
  2
MITTELLINIEN
 70
           0
 62
           7
  6
CONTINUOUS
  0
LAYER
  5
25
100
AcDbSymbolTableRecord
100
AcDbLayerTableRecord
  2
1
 70
           0
 62
           7
  6
CONTINUOUS
  0
LAYER
  5
26
100
AcDbSymbolTableRecord
100
AcDbLayerTableRecord
  2
WANNE
 70
           0
 62
           7
  6
CONTINUOUS
  0
ENDTAB
  0
TABLE
  2
STYLE
  5
3
100
AcDbSymbolTable
 70
           2
  0
STYLE
  5
17
100
AcDbSymbolTableRecord
100
AcDbTextStyleTableRecord
  2
STANDARD
 70
           0
 40
0.0
 41
1.0
 50
0.0
 71
           0
 42
0.0
  3
txt
  4

  0
STYLE
  5
FF
100
AcDbSymbolTableRecord
100
AcDbTextStyleTableRecord
  2
CONVERTER_1
 70
           0
 40
0.0
 41
0.71262
 50
0.0
 71
           0
 42
0.0
  3
txt.shx
  4

  0
ENDTAB
  0
TABLE
  2
VIEW
  5
5
100
AcDbSymbolTable
 70
           0
  0
ENDTAB
  0
TABLE
  2
UCS
  5
6
100
AcDbSymbolTable
 70
           0
  0
ENDTAB
  0
TABLE
  2
APPID
  5
8
100
AcDbSymbolTable
 70
           1
  0
APPID
  5
16
100
AcDbSymbolTableRecord
100
AcDbRegAppTableRecord
  2
ACAD
 70
           0
  0
ENDTAB
  0
TABLE
  2
DIMSTYLE
  5
9
100
AcDbSymbolTable
 70
           1
  0
DIMSTYLE
105
18
100
AcDbSymbolTableRecord
100
AcDbDimStyleTableRecord
  2
STANDARD
 70
           0
  3

  4

  5

  6

  7

 40
1.0
 41
0.18
 42
0.0625
 43
0.38
 44
0.18
 45
0.0
 46
0.0
 47
0.0
 48
0.0
 71
           0
 72
           0
 73
           1
 74
           1
 75
           0
 76
           0
 77
           0
 78
           0
140
0.18
141
0.09
142
0.0
143
25.4
144
1.0
145
0.0
146
1.0
147
0.09
170
           0
171
           2
172
           0
173
           0
174
           0
175
           0
176
           0
177
           0
178
           0
270
           2
271
           4
272
           4
273
           2
274
           2
275
           0
280
           0
281
           0
282
           0
283
           1
284
           0
285
           0
286
           0
287
           0
288
           0
340
17
  0
ENDTAB
  0
TABLE
  2
BLOCK_RECORD
  5
1
100
AcDbSymbolTable
 70
           2
  0
BLOCK_RECORD
  5
A
100
AcDbSymbolTableRecord
100
AcDbBlockTableRecord
  2
*MODEL_SPACE
  0
BLOCK_RECORD
  5
B
100
AcDbSymbolTableRecord
100
AcDbBlockTableRecord
  2
*PAPER_SPACE
  0
BLOCK_RECORD
  5
27
100
AcDbSymbolTableRecord
100
AcDbBlockTableRecord
  2
DLX
  0
BLOCK_RECORD
  5
29
100
AcDbSymbolTableRecord
100
AcDbBlockTableRecord
  2
WANNE_PRIME_LINE_257
  0
ENDTAB
  0
ENDSEC
  0
SECTION
  2
BLOCKS
  0
BLOCK
  5
D
100
AcDbEntity
  8
0
100
AcDbBlockBegin
  2
*MODEL_SPACE
 70
           0
 10
0.0
 20
0.0
 30
0.0
  3
*MODEL_SPACE
  1

  0
ENDBLK
  5
E
100
AcDbEntity
  8
0
100
AcDbBlockEnd
  0
BLOCK
  5
F
100
AcDbEntity
 67
           1
  8
0
100
AcDbBlockBegin
  2
*PAPER_SPACE
 70
           0
 10
0.0
 20
0.0
 30
0.0
  3
*PAPER_SPACE
  1

  0
ENDBLK
  5
10
100
AcDbEntity
 67
           1
  8
0
100
AcDbBlockEnd
  0
BLOCK
  5
28
100
AcDbEntity
  8
0
100
AcDbBlockBegin
  2
DLX
 70
           0
 10
0.0
 20
0.0
 30
0.0
  3
DLX
  1

  0
CIRCLE
  5
E2
100
AcDbEntity
  8
1
  6
CONTINUOUS
 62
           3
100
AcDbCircle
 10
565.268891237934
 20
552.564216878754
 40
5.530127989697
  0
CIRCLE
  5
E1
100
AcDbEntity
  8
1
  6
CONTINUOUS
 62
           3
100
AcDbCircle
 10
565.268891237934
 20
552.564216878754
 40
5.972862778755
  0
ARC
  5
E0
100
AcDbEntity
  8
1
  6
CONTINUOUS
 62
           3
100
AcDbCircle
 10
566.047602791594
 20
551.047662682226
 40
1.391870091328
100
AcDbArc
 50
-1.298612665717
 51
66.544866494049
  0
ARC
  5
DF
100
AcDbEntity
  8
1
  6
CONTINUOUS
 62
           3
100
AcDbCircle
 10
565.322209605104
 20
550.738468389822
 40
1.155889798232
100
AcDbArc
 50
0.985058170485
 51
82.918254632943
  0
ARC
  5
DE
100
AcDbEntity
  8
1
  6
CONTINUOUS
 62
           3
100
AcDbCircle
 10
565.3973922433
 20
553.949454930551
 40
1.257687287768
100
AcDbArc
 50
-74.800419047062
 51
80.931395238784
  0
ARC
  5
DD
100
AcDbEntity
  8
1
  6
CONTINUOUS
 62
           3
100
AcDbCircle
 10
565.475710069313
 20
553.989348921381
 40
2.009798008862
100
AcDbArc
 50
-55.929988464564
 51
86.297888718245
  0
LINE
  5
DC
100
AcDbEntity
  8
1
  6
CONTINUOUS
 62
           3
100
AcDbLine
 10
563.739652135697
 20
555.191421531278
 11
563.739652135697
 21
552.735763541275
  0
LINE
  5
DB
100
AcDbEntity
  8
1
  6
CONTINUOUS
 62
           3
100
AcDbLine
 10
565.595625127783
 20
555.191421531278
 11
563.739652135697
 21
555.191421531278
  0
LINE
  5
DA
100
AcDbEntity
  8
1
  6
CONTINUOUS
 62
           3
100
AcDbLine
 10
563.739652135697
 20
552.735763541275
 11
565.727135363639
 21
552.735763541275
  0
LINE
  5
D9
100
AcDbEntity
  8
1
  6
CONTINUOUS
 62
           3
100
AcDbLine
 10
563.739652135697
 20
549.136484788281
 11
562.867204436581
 21
549.136484788281
  0
LINE
  5
D8
100
AcDbEntity
  8
1
  6
CONTINUOUS
 62
           3
100
AcDbLine
 10
565.464713837315
 20
551.885540213842
 11
563.739652135697
 21
551.885540213842
  0
LINE
  5
D7
100
AcDbEntity
  8
1
  6
CONTINUOUS
 62
           3
100
AcDbLine
 10
566.477928577235
 20
549.136484788281
 11
566.477928577235
 21
550.7583400559
  0
LINE
  5
D6
100
AcDbEntity
  8
1
  6
CONTINUOUS
 62
           3
100
AcDbLine
 10
567.43911539274
 20
549.136484788281
 11
566.477928577235
 21
549.136484788281
  0
LINE
  5
D5
100
AcDbEntity
  8
1
  6
CONTINUOUS
 62
           3
100
AcDbLine
 10
567.43911539274
 20
551.016118554626
 11
567.43911539274
 21
549.136484788281
  0
LINE
  5
D4
100
AcDbEntity
  8
1
  6
CONTINUOUS
 62
           3
100
AcDbLine
 10
565.309124295822
 20
555.994952963455
 11
565.605480878174
 21
555.994952963455
  0
LINE
  5
D3
100
AcDbEntity
  8
1
  6
CONTINUOUS
 62
           3
100
AcDbLine
 10
562.867204436581
 20
555.994952963455
 11
565.309124295822
 21
555.994952963455
  0
LINE
  5
D2
100
AcDbEntity
  8
1
  6
CONTINUOUS
 62
           3
100
AcDbLine
 10
562.867204436581
 20
549.136484788281
 11
562.867204436581
 21
555.994952963455
  0
LINE
  5
D1
100
AcDbEntity
  8
1
  6
CONTINUOUS
 62
           3
100
AcDbLine
 10
563.739652135697
 20
551.885540213842
 11
563.739652135697
 21
549.136484788281
  0
LINE
  5
D0
100
AcDbEntity
  8
1
  6
CONTINUOUS
 62
           3
100
AcDbLine
 10
519.218416849028
 20
558.069937478319
 11
517.124339771413
 21
558.069937478319
  0
LINE
  5
CF
100
AcDbEntity
  8
1
  6
CONTINUOUS
 62
           3
100
AcDbLine
 10
516.508481701065
 20
547.009331417793
 11
519.218416849028
 21
558.069937478319
  0
LINE
  5
CE
100
AcDbEntity
  8
1
  6
CONTINUOUS
 62
           3
100
AcDbLine
 10
526.978867089085
 20
547.009331417793
 11
516.508481701065
 21
547.009331417793
  0
LINE
  5
CD
100
AcDbEntity
  8
1
  6
CONTINUOUS
 62
           3
100
AcDbLine
 10
526.436880059424
 20
544.797210205662
 11
526.978867089085
 21
547.009331417793
  0
LINE
  5
CC
100
AcDbEntity
  8
1
  6
CONTINUOUS
 62
           3
100
AcDbLine
 10
513.872417593845
 20
544.797210205662
 11
526.436880059424
 21
544.797210205662
  0
LINE
  5
CB
100
AcDbEntity
  8
1
  6
CONTINUOUS
 62
           3
100
AcDbLine
 10
517.124339771413
 20
558.069937478319
 11
513.872417593845
 21
544.797210205662
  0
LINE
  5
CA
100
AcDbEntity
  8
1
  6
CONTINUOUS
 62
           3
100
AcDbLine
 10
503.677669716556
 20
549.221452629844
 11
507.433384855922
 21
555.857816266268
  0
LINE
  5
C9
100
AcDbEntity
  8
1
  6
CONTINUOUS
 62
           3
100
AcDbLine
 10
508.490188001211
 20
555.857816266268
 11
507.433384855922
 21
555.857816266268
  0
LINE
  5
C8
100
AcDbEntity
  8
1
  6
CONTINUOUS
 62
           3
100
AcDbLine
 10
508.993980963067
 20
549.221452629844
 11
508.490188001211
 21
555.857816266268
  0
LINE
  5
C7
100
AcDbEntity
  8
1
  6
CONTINUOUS
 62
           3
100
AcDbLine
 10
503.677669716556
 20
549.221452629844
 11
508.993980963067
 21
549.221452629844
  0
LINE
  5
C6
100
AcDbEntity
  8
1
  6
CONTINUOUS
 62
           3
100
AcDbLine
 10
501.173859623662
 20
544.797210205662
 11
498.79506263509
 21
544.797210205662
  0
LINE
  5
C5
100
AcDbEntity
  8
1
  6
CONTINUOUS
 62
           3
100
AcDbLine
 10
502.425764670024
 20
547.009331417793
 11
501.173859623662
 21
544.797210205662
  0
LINE
  5
C4
100
AcDbEntity
  8
1
  6
CONTINUOUS
 62
           3
100
AcDbLine
 10
509.161911950389
 20
547.009331417793
 11
502.425764670024
 21
547.009331417793
  0
LINE
  5
C3
100
AcDbEntity
  8
1
  6
CONTINUOUS
 62
           3
100
AcDbLine
 10
509.329842937655
 20
544.797210205662
 11
509.161911950389
 21
547.009331417793
  0
LINE
  5
C2
100
AcDbEntity
  8
1
  6
CONTINUOUS
 62
           3
100
AcDbLine
 10
511.359525100725
 20
544.797210205662
 11
509.329842937655
 21
544.797210205662
  0
LINE
  5
C1
100
AcDbEntity
  8
1
  6
CONTINUOUS
 62
           3
100
AcDbLine
 10
510.351939176962
 20
558.069937478319
 11
511.359525100725
 21
544.797210205662
  0
LINE
  5
C0
100
AcDbEntity
  8
1
  6
CONTINUOUS
 62
           3
100
AcDbLine
 10
506.306492913987
 20
558.069937478319
 11
510.351939176962
 21
558.069937478319
  0
LINE
  5
BF
100
AcDbEntity
  8
1
  6
CONTINUOUS
 62
           3
100
AcDbLine
 10
498.79506263509
 20
544.797210205662
 11
506.306492913987
 21
558.069937478319
  0
LINE
  5
BE
100
AcDbEntity
  8
1
  6
CONTINUOUS
 62
           3
100
AcDbLine
 10
485.811784754057
 20
544.797210205662
 11
483.717707676497
 21
544.797210205662
  0
LINE
  5
BD
100
AcDbEntity
  8
1
  6
CONTINUOUS
 62
           3
100
AcDbLine
 10
488.617787050986
 20
556.249914538597
 11
485.811784754057
 21
544.797210205662
  0
LINE
  5
BC
100
AcDbEntity
  8
1
  6
CONTINUOUS
 62
           3
100
AcDbLine
 10
489.258335317496
 20
554.590823629535
 11
488.617787050986
 21
556.249914538597
  0
LINE
  5
BB
100
AcDbEntity
  8
1
  6
CONTINUOUS
 62
           3
100
AcDbLine
 10
493.039491653206
 20
544.797210205662
 11
489.258335317496
 21
554.590823629535
  0
LINE
  5
BA
100
AcDbEntity
  8
1
  6
CONTINUOUS
 62
           3
100
AcDbLine
 10
496.282170141975
 20
544.797210205662
 11
493.039491653206
 21
544.797210205662
  0
LINE
  5
B9
100
AcDbEntity
  8
1
  6
CONTINUOUS
 62
           3
100
AcDbLine
 10
499.534092319595
 20
558.069937478319
 11
496.282170141975
 21
544.797210205662
  0
LINE
  5
B8
100
AcDbEntity
  8
1
  6
CONTINUOUS
 62
           3
100
AcDbLine
 10
497.44001524198
 20
558.069937478319
 11
499.534092319595
 21
558.069937478319
  0
LINE
  5
B7
100
AcDbEntity
  8
1
  6
CONTINUOUS
 62
           3
100
AcDbLine
 10
494.594583336628
 20
546.456301114746
 11
497.44001524198
 21
558.069937478319
  0
LINE
  5
B6
100
AcDbEntity
  8
1
  6
CONTINUOUS
 62
           3
100
AcDbLine
 10
490.110745470353
 20
558.069937478319
 11
494.594583336628
 21
546.456301114746
  0
LINE
  5
B5
100
AcDbEntity
  8
1
  6
CONTINUOUS
 62
           3
100
AcDbLine
 10
486.969629854012
 20
558.069937478319
 11
490.110745470353
 21
558.069937478319
  0
LINE
  5
B4
100
AcDbEntity
  8
1
  6
CONTINUOUS
 62
           3
100
AcDbLine
 10
483.717707676497
 20
544.797210205662
 11
486.969629854012
 21
558.069937478319
  0
LINE
  5
B3
100
AcDbEntity
  8
1
  6
CONTINUOUS
 62
           3
100
AcDbLine
 10
484.456737360896
 20
558.069937478319
 11
482.362660283332
 21
558.069937478319
  0
LINE
  5
B2
100
AcDbEntity
  8
1
  6
CONTINUOUS
 62
           3
100
AcDbLine
 10
482.362660283332
 20
558.069937478319
 11
479.110738105767
 21
544.797210205662
  0
LINE
  5
B1
100
AcDbEntity
  8
1
  6
CONTINUOUS
 62
           3
100
AcDbLine
 10
481.204815183327
 20
544.797210205662
 11
484.456737360896
 21
558.069937478319
  0
LINE
  5
B0
100
AcDbEntity
  8
1
  6
CONTINUOUS
 62
           3
100
AcDbLine
 10
479.110738105767
 20
544.797210205662
 11
481.204815183327
 21
544.797210205662
  0
LINE
  5
AF
100
AcDbEntity
  8
1
  6
CONTINUOUS
 62
           3
100
AcDbLine
 10
476.61751795052
 20
553.424482932891
 11
478.711595028046
 21
553.424482932891
  0
LINE
  5
AE
100
AcDbEntity
  8
1
  6
CONTINUOUS
 62
           3
100
AcDbLine
 10
475.58774259437
 20
549.221452629844
 11
475.045755564603
 21
547.009331417793
  0
LINE
  5
AD
100
AcDbEntity
  8
1
  6
CONTINUOUS
 62
           3
100
AcDbLine
 10
471.39958843897
 20
549.221452629844
 11
475.58774259437
 21
549.221452629844
  0
LINE
  5
AC
100
AcDbEntity
  8
1
  6
CONTINUOUS
 62
           3
100
AcDbLine
 10
471.941575468617
 20
551.433573842033
 11
471.39958843897
 21
549.221452629844
  0
LINE
  5
AB
100
AcDbEntity
  8
1
  6
CONTINUOUS
 62
           3
100
AcDbLine
 10
478.223806701422
 20
551.433573842033
 11
476.59784561265
 21
544.797210205662
  0
LINE
  5
AA
100
AcDbEntity
  8
1
  6
CONTINUOUS
 62
           3
100
AcDbLine
 10
478.223806701422
 20
551.433573842033
 11
471.941575468617
 21
551.433573842033
  0
LINE
  5
A9
100
AcDbEntity
  8
1
  6
CONTINUOUS
 62
           3
100
AcDbLine
 10
466.669447254273
 20
547.009331417793
 11
468.837395372601
 21
555.857816266268
  0
LINE
  5
A8
100
AcDbEntity
  8
1
  6
CONTINUOUS
 62
           3
100
AcDbLine
 10
468.837395372601
 20
555.857816266268
 11
477.213703682897
 21
555.857816266268
  0
LINE
  5
A7
100
AcDbEntity
  8
1
  6
CONTINUOUS
 62
           3
100
AcDbLine
 10
477.213703682897
 20
555.857816266268
 11
476.61751795052
 21
553.424482932891
  0
LINE
  5
A6
100
AcDbEntity
  8
1
  6
CONTINUOUS
 62
           3
100
AcDbLine
 10
475.045755564603
 20
547.009331417793
 11
466.669447254273
 21
547.009331417793
  0
LINE
  5
A5
100
AcDbEntity
  8
1
  6
CONTINUOUS
 62
           3
100
AcDbLine
 10
476.59784561265
 20
544.797210205662
 11
464.033383147038
 21
544.797210205662
  0
LINE
  5
A4
100
AcDbEntity
  8
1
  6
CONTINUOUS
 62
           3
100
AcDbLine
 10
479.849767790173
 20
558.069937478319
 11
478.711595028046
 21
553.424482932891
  0
LINE
  5
A3
100
AcDbEntity
  8
1
  6
CONTINUOUS
 62
           3
100
AcDbLine
 10
467.285305324582
 20
558.069937478319
 11
479.849767790173
 21
558.069937478319
  0
LINE
  5
A2
100
AcDbEntity
  8
1
  6
CONTINUOUS
 62
           3
100
AcDbLine
 10
464.033383147038
 20
544.797210205662
 11
467.285305324582
 21
558.069937478319
  0
LINE
  5
A1
100
AcDbEntity
  8
1
  6
CONTINUOUS
 62
           3
100
AcDbLine
 10
461.520490654053
 20
544.797210205662
 11
464.772412831462
 21
558.069937478319
  0
LINE
  5
A0
100
AcDbEntity
  8
1
  6
CONTINUOUS
 62
           3
100
AcDbLine
 10
459.426413576333
 20
544.797210205662
 11
461.520490654053
 21
544.797210205662
  0
LINE
  5
9F
100
AcDbEntity
  8
1
  6
CONTINUOUS
 62
           3
100
AcDbLine
 10
462.678335753899
 20
558.069937478319
 11
459.426413576333
 21
544.797210205662
  0
LINE
  5
9E
100
AcDbEntity
  8
1
  6
CONTINUOUS
 62
           3
100
AcDbLine
 10
464.772412831462
 20
558.069937478319
 11
462.678335753899
 21
558.069937478319
  0
LINE
  5
9D
100
AcDbEntity
  8
1
  6
CONTINUOUS
 62
           3
100
AcDbLine
 10
446.443135695296
 20
544.797210205662
 11
447.527109754407
 21
549.221452629844
  0
LINE
  5
9C
100
AcDbEntity
  8
1
  6
CONTINUOUS
 62
           3
100
AcDbLine
 10
444.34905861762
 20
544.797210205662
 11
446.443135695296
 21
544.797210205662
  0
LINE
  5
9B
100
AcDbEntity
  8
1
  6
CONTINUOUS
 62
           3
100
AcDbLine
 10
457.861239469315
 20
548.665324810781
 11
456.913521083203
 21
544.797210205662
  0
LINE
  5
9A
100
AcDbEntity
  8
1
  6
CONTINUOUS
 62
           3
100
AcDbLine
 10
449.153070843182
 20
555.857816266268
 11
448.069096783998
 21
551.433573842033
  0
LINE
  5
99
100
AcDbEntity
  8
1
  6
CONTINUOUS
 62
           3
100
AcDbLine
 10
457.529379153701
 20
555.857816266268
 11
449.153070843182
 21
555.857816266268
  0
LINE
  5
98
100
AcDbEntity
  8
1
  6
CONTINUOUS
 62
           3
100
AcDbLine
 10
456.445405094379
 20
551.433573842033
 11
457.529379153701
 21
555.857816266268
  0
LINE
  5
97
100
AcDbEntity
  8
1
  6
CONTINUOUS
 62
           3
100
AcDbLine
 10
448.069096783998
 20
551.433573842033
 11
456.445405094379
 21
551.433573842033
  0
LINE
  5
96
100
AcDbEntity
  8
1
  6
CONTINUOUS
 62
           3
100
AcDbLine
 10
455.903418064936
 20
549.221452629844
 11
447.527109754407
 21
549.221452629844
  0
LINE
  5
95
100
AcDbEntity
  8
1
  6
CONTINUOUS
 62
           3
100
AcDbLine
 10
454.819444005563
 20
544.797210205662
 11
455.903418064936
 21
549.221452629844
  0
LINE
  5
94
100
AcDbEntity
  8
1
  6
CONTINUOUS
 62
           3
100
AcDbLine
 10
456.913521083203
 20
544.797210205662
 11
454.819444005563
 21
544.797210205662
  0
LINE
  5
93
100
AcDbEntity
  8
1
  6
CONTINUOUS
 62
           3
100
AcDbLine
 10
460.165443260736
 20
558.069937478319
 11
458.297919150882
 21
550.447633858332
  0
LINE
  5
92
100
AcDbEntity
  8
1
  6
CONTINUOUS
 62
           3
100
AcDbLine
 10
447.600980795156
 20
558.069937478319
 11
460.165443260736
 21
558.069937478319
  0
LINE
  5
91
100
AcDbEntity
  8
1
  6
CONTINUOUS
 62
           3
100
AcDbLine
 10
447.600980795156
 20
558.069937478319
 11
444.34905861762
 21
544.797210205662
  0
LINE
  5
90
100
AcDbEntity
  8
1
  6
CONTINUOUS
 62
           3
100
AcDbLine
 10
431.90776776613
 20
547.009331417793
 11
434.075715884472
 21
555.857816266268
  0
LINE
  5
8F
100
AcDbEntity
  8
1
  6
CONTINUOUS
 62
           3
100
AcDbLine
 10
434.075715884472
 20
555.857816266268
 11
442.452024194961
 21
555.857816266268
  0
LINE
  5
8E
100
AcDbEntity
  8
1
  6
CONTINUOUS
 62
           3
100
AcDbLine
 10
442.452024194961
 20
555.857816266268
 11
440.284076076485
 21
547.009331417793
  0
LINE
  5
8D
100
AcDbEntity
  8
1
  6
CONTINUOUS
 62
           3
100
AcDbLine
 10
440.284076076485
 20
547.009331417793
 11
431.90776776613
 21
547.009331417793
  0
LINE
  5
8C
100
AcDbEntity
  8
1
  6
CONTINUOUS
 62
           3
100
AcDbLine
 10
441.836166124489
 20
544.797210205662
 11
429.271703658964
 21
544.797210205662
  0
LINE
  5
8B
100
AcDbEntity
  8
1
  6
CONTINUOUS
 62
           3
100
AcDbLine
 10
445.088088302164
 20
558.069937478319
 11
441.836166124489
 21
544.797210205662
  0
LINE
  5
8A
100
AcDbEntity
  8
1
  6
CONTINUOUS
 62
           3
100
AcDbLine
 10
432.523625836446
 20
558.069937478319
 11
445.088088302164
 21
558.069937478319
  0
LINE
  5
89
100
AcDbEntity
  8
1
  6
CONTINUOUS
 62
           3
100
AcDbLine
 10
429.271703658964
 20
544.797210205662
 11
432.523625836446
 21
558.069937478319
  0
LINE
  5
88
100
AcDbEntity
  8
1
  6
CONTINUOUS
 62
           3
100
AcDbLine
 10
572.862519152204
 20
501.685429
 11
520.271717733394
 21
501.685429
  0
LINE
  5
87
100
AcDbEntity
  8
1
  6
CONTINUOUS
 62
           3
100
AcDbLine
 10
570.461846785685
 20
507.879368393909
 11
527.652697233512
 21
507.879368393909
  0
LINE
  5
86
100
AcDbEntity
  8
1
  6
CONTINUOUS
 62
           3
100
AcDbLine
 10
570.461846785685
 20
507.879368393909
 11
572.862519152204
 21
501.685429
  0
LINE
  5
85
100
AcDbEntity
  8
1
  6
CONTINUOUS
 62
           3
100
AcDbLine
 10
563.219846708904
 20
526.564346066823
 11
560.439993584947
 21
533.736604145079
  0
LINE
  5
84
100
AcDbEntity
  8
1
  6
CONTINUOUS
 62
           3
100
AcDbLine
 10
568.81707288919
 20
533.736604145079
 11
563.219846708904
 21
526.564346066823
  0
LINE
  5
83
100
AcDbEntity
  8
1
  6
CONTINUOUS
 62
           3
100
AcDbLine
 10
572.862519152248
 20
533.736604145079
 11
568.81707288919
 21
533.736604145079
  0
LINE
  5
82
100
AcDbEntity
  8
1
  6
CONTINUOUS
 62
           3
100
AcDbLine
 10
564.562289107165
 20
523.100730218603
 11
572.862519152248
 21
533.736604145079
  0
LINE
  5
81
100
AcDbEntity
  8
1
  6
CONTINUOUS
 62
           3
100
AcDbLine
 10
569.43298720017
 20
510.533913848477
 11
564.562289107165
 21
523.100730218603
  0
LINE
  5
80
100
AcDbEntity
  8
1
  6
CONTINUOUS
 62
           3
100
AcDbLine
 10
565.387540937121
 20
510.533913848477
 11
569.43298720017
 21
510.533913848477
  0
LINE
  5
7F
100
AcDbEntity
  8
1
  6
CONTINUOUS
 62
           3
100
AcDbLine
 10
561.859285242437
 20
519.637114370502
 11
565.387540937121
 21
510.533913848477
  0
LINE
  5
7E
100
AcDbEntity
  8
1
  6
CONTINUOUS
 62
           3
100
AcDbLine
 10
554.755152662336
 20
510.533913848477
 11
561.859285242437
 21
519.637114370502
  0
LINE
  5
7D
100
AcDbEntity
  8
1
  6
CONTINUOUS
 62
           3
100
AcDbLine
 10
550.709706399339
 20
510.533913848477
 11
554.755152662336
 21
510.533913848477
  0
LINE
  5
7C
100
AcDbEntity
  8
1
  6
CONTINUOUS
 62
           3
100
AcDbLine
 10
560.516842844129
 20
523.100730218661
 11
550.709706399339
 21
510.533913848477
  0
LINE
  5
7B
100
AcDbEntity
  8
1
  6
CONTINUOUS
 62
           3
100
AcDbLine
 10
556.394547321932
 20
533.736604145079
 11
560.516842844129
 21
523.100730218661
  0
LINE
  5
7A
100
AcDbEntity
  8
1
  6
CONTINUOUS
 62
           3
100
AcDbLine
 10
560.439993584947
 20
533.736604145079
 11
556.394547321932
 21
533.736604145079
  0
LINE
  5
79
100
AcDbEntity
  8
1
  6
CONTINUOUS
 62
           3
100
AcDbLine
 10
543.411269440887
 20
533.736604145079
 11
538.176076746965
 21
533.736604145079
  0
LINE
  5
78
100
AcDbEntity
  8
1
  6
CONTINUOUS
 62
           3
100
AcDbLine
 10
538.810402577536
 20
514.958156272797
 11
543.411269440887
 21
533.736604145079
  0
LINE
  5
77
100
AcDbEntity
  8
1
  6
CONTINUOUS
 62
           3
100
AcDbLine
 10
544.045595271488
 20
514.958156272797
 11
538.810402577536
 21
514.958156272797
  0
LINE
  5
76
100
AcDbEntity
  8
1
  6
CONTINUOUS
 62
           3
100
AcDbLine
 10
548.646462134882
 20
533.736604145079
 11
544.045595271488
 21
514.958156272797
  0
LINE
  5
75
100
AcDbEntity
  8
1
  6
CONTINUOUS
 62
           3
100
AcDbLine
 10
553.881654828806
 20
533.736604145079
 11
548.646462134882
 21
533.736604145079
  0
LINE
  5
74
100
AcDbEntity
  8
1
  6
CONTINUOUS
 62
           3
100
AcDbLine
 10
548.196813906198
 20
510.533913848477
 11
553.881654828806
 21
533.736604145079
  0
LINE
  5
73
100
AcDbEntity
  8
1
  6
CONTINUOUS
 62
           3
100
AcDbLine
 10
532.491235824276
 20
510.533913848477
 11
548.196813906198
 21
510.533913848477
  0
LINE
  5
72
100
AcDbEntity
  8
1
  6
CONTINUOUS
 62
           3
100
AcDbLine
 10
538.176076746965
 20
533.736604145079
 11
532.491235824276
 21
510.533913848477
  0
LINE
  5
71
100
AcDbEntity
  8
1
  6
CONTINUOUS
 62
           3
100
AcDbLine
 10
530.834441922336
 20
544.797210205662
 11
520.271717733394
 21
501.685429
  0
LINE
  5
70
100
AcDbEntity
  8
1
  6
CONTINUOUS
 62
           3
100
AcDbLine
 10
536.697857739604
 20
544.797210205662
 11
530.834441922336
 21
544.797210205662
  0
LINE
  5
6F
100
AcDbEntity
  8
1
  6
CONTINUOUS
 62
           3
100
AcDbLine
 10
527.652697233512
 20
507.879368393909
 11
536.697857739604
 21
544.797210205662
  0
LINE
  5
6E
100
AcDbEntity
  8
1
  6
CONTINUOUS
 62
           3
100
AcDbLine
 10
392.533015999998
 20
501.685429
 11
400.385805041053
 21
533.736604145079
  0
LINE
  5
6D
100
AcDbEntity
  8
1
  6
CONTINUOUS
 62
           3
100
AcDbLine
 10
400.385805041053
 20
533.736604145079
 11
406.66803627375
 21
533.736604145079
  0
LINE
  5
6C
100
AcDbEntity
  8
1
  6
CONTINUOUS
 62
           3
100
AcDbLine
 10
406.66803627375
 20
533.736604145079
 11
399.89922129206
 21
506.109671424182
  0
LINE
  5
6B
100
AcDbEntity
  8
1
  6
CONTINUOUS
 62
           3
100
AcDbLine
 10
399.89922129206
 20
506.109671424182
 11
405.134413985939
 21
506.109671424182
  0
LINE
  5
6A
100
AcDbEntity
  8
1
  6
CONTINUOUS
 62
           3
100
AcDbLine
 10
405.134413985939
 20
506.109671424182
 11
413.258196541822
 21
539.266907175404
  0
LINE
  5
69
100
AcDbEntity
  8
1
  6
CONTINUOUS
 62
           3
100
AcDbLine
 10
413.258196541822
 20
539.266907175404
 11
395.567100697288
 21
539.266907175404
  0
LINE
  5
68
100
AcDbEntity
  8
1
  6
CONTINUOUS
 62
           3
100
AcDbLine
 10
395.567100697288
 20
539.266907175404
 11
396.922068271273
 21
544.797210205662
  0
LINE
  5
67
100
AcDbEntity
  8
1
  6
CONTINUOUS
 62
           3
100
AcDbLine
 10
396.922068271273
 20
544.797210205662
 11
420.895395348565
 21
544.797210205662
  0
LINE
  5
66
100
AcDbEntity
  8
1
  6
CONTINUOUS
 62
           3
100
AcDbLine
 10
420.895395348565
 20
544.797210205662
 11
410.332671159646
 21
501.685429
  0
LINE
  5
65
100
AcDbEntity
  8
1
  6
CONTINUOUS
 62
           3
100
AcDbLine
 10
410.332671159646
 20
501.685429
 11
392.533015999998
 21
501.685429
  0
LINE
  5
64
100
AcDbEntity
  8
1
  6
CONTINUOUS
 62
           3
100
AcDbLine
 10
414.520825314772
 20
501.685429
 11
422.373614355765
 21
533.736604145079
  0
LINE
  5
63
100
AcDbEntity
  8
1
  6
CONTINUOUS
 62
           3
100
AcDbLine
 10
422.373614355765
 20
533.736604145079
 11
428.655845588575
 21
533.736604145079
  0
LINE
  5
62
100
AcDbEntity
  8
1
  6
CONTINUOUS
 62
           3
100
AcDbLine
 10
428.655845588575
 20
533.736604145079
 11
421.88703060678
 21
506.109671424182
  0
LINE
  5
61
100
AcDbEntity
  8
1
  6
CONTINUOUS
 62
           3
100
AcDbLine
 10
421.88703060678
 20
506.109671424182
 11
427.122223300765
 21
506.109671424182
  0
LINE
  5
60
100
AcDbEntity
  8
1
  6
CONTINUOUS
 62
           3
100
AcDbLine
 10
427.122223300765
 20
506.109671424182
 11
433.891038282571
 21
533.736604145079
  0
LINE
  5
5F
100
AcDbEntity
  8
1
  6
CONTINUOUS
 62
           3
100
AcDbLine
 10
432.320480474362
 20
501.685429
 11
414.520825314772
 21
501.685429
  0
LINE
  5
5E
100
AcDbEntity
  8
1
  6
CONTINUOUS
 62
           3
100
AcDbLine
 10
433.891038282571
 20
533.736604145079
 11
440.173269515377
 21
533.736604145079
  0
LINE
  5
5D
100
AcDbEntity
  8
1
  6
CONTINUOUS
 62
           3
100
AcDbLine
 10
440.173269515377
 20
533.736604145079
 11
432.320480474362
 21
501.685429
  0
LINE
  5
5C
100
AcDbEntity
  8
1
  6
CONTINUOUS
 62
           3
100
AcDbLine
 10
461.114040291312
 20
533.736604145079
 11
444.36142367054
 21
533.736604145079
  0
LINE
  5
5B
100
AcDbEntity
  8
1
  6
CONTINUOUS
 62
           3
100
AcDbLine
 10
444.36142367054
 20
533.736604145079
 11
439.760556807149
 21
514.958156272797
  0
LINE
  5
5A
100
AcDbEntity
  8
1
  6
CONTINUOUS
 62
           3
100
AcDbLine
 10
439.760556807149
 20
514.958156272797
 11
450.230942195114
 21
514.958156272797
  0
LINE
  5
59
100
AcDbEntity
  8
1
  6
CONTINUOUS
 62
           3
100
AcDbLine
 10
450.230942195114
 20
514.958156272797
 11
448.062994076696
 21
506.109671424182
  0
LINE
  5
58
100
AcDbEntity
  8
1
  6
CONTINUOUS
 62
           3
100
AcDbLine
 10
448.062994076696
 20
506.109671424182
 11
437.592608688785
 21
506.109671424182
  0
LINE
  5
57
100
AcDbEntity
  8
1
  6
CONTINUOUS
 62
           3
100
AcDbLine
 10
437.592608688785
 20
506.109671424182
 11
436.508634629478
 21
501.685429
  0
LINE
  5
56
100
AcDbEntity
  8
1
  6
CONTINUOUS
 62
           3
100
AcDbLine
 10
436.508634629478
 20
501.685429
 11
453.2612512503
 21
501.685429
  0
LINE
  5
55
100
AcDbEntity
  8
1
  6
CONTINUOUS
 62
           3
100
AcDbLine
 10
453.2612512503
 20
501.685429
 11
457.597147487224
 21
519.382398696953
  0
LINE
  5
54
100
AcDbEntity
  8
1
  6
CONTINUOUS
 62
           3
100
AcDbLine
 10
457.597147487224
 20
519.382398696953
 11
447.12676209916
 21
519.382398696953
  0
LINE
  5
53
100
AcDbEntity
  8
1
  6
CONTINUOUS
 62
           3
100
AcDbLine
 10
447.12676209916
 20
519.382398696953
 11
449.559680844173
 21
529.312361720838
  0
LINE
  5
52
100
AcDbEntity
  8
1
  6
CONTINUOUS
 62
           3
100
AcDbLine
 10
449.559680844173
 20
529.312361720838
 11
460.030066232153
 21
529.312361720838
  0
LINE
  5
51
100
AcDbEntity
  8
1
  6
CONTINUOUS
 62
           3
100
AcDbLine
 10
460.030066232153
 20
529.312361720838
 11
461.114040291312
 21
533.736604145079
  0
LINE
  5
50
100
AcDbEntity
  8
1
  6
CONTINUOUS
 62
           3
100
AcDbLine
 10
479.34487591932
 20
522.675998084413
 11
482.05481106725
 21
533.736604145079
  0
LINE
  5
4F
100
AcDbEntity
  8
1
  6
CONTINUOUS
 62
           3
100
AcDbLine
 10
482.05481106725
 20
533.736604145079
 11
465.302194446529
 21
533.736604145079
  0
LINE
  5
4E
100
AcDbEntity
  8
1
  6
CONTINUOUS
 62
           3
100
AcDbLine
 10
465.302194446529
 20
533.736604145079
 11
457.449405405536
 21
501.685429
  0
LINE
  5
4D
100
AcDbEntity
  8
1
  6
CONTINUOUS
 62
           3
100
AcDbLine
 10
457.449405405536
 20
501.685429
 11
474.20202202629
 21
501.685429
  0
LINE
  5
4C
100
AcDbEntity
  8
1
  6
CONTINUOUS
 62
           3
100
AcDbLine
 10
474.20202202629
 20
501.685429
 11
476.911957174264
 21
512.746035060608
  0
LINE
  5
4B
100
AcDbEntity
  8
1
  6
CONTINUOUS
 62
           3
100
AcDbLine
 10
476.911957174264
 20
512.746035060608
 11
470.629725941476
 21
512.746035060608
  0
LINE
  5
4A
100
AcDbEntity
  8
1
  6
CONTINUOUS
 62
           3
100
AcDbLine
 10
470.629725941476
 20
512.746035060608
 11
469.003764852689
 21
506.109671424182
  0
LINE
  5
49
100
AcDbEntity
  8
1
  6
CONTINUOUS
 62
           3
100
AcDbLine
 10
469.003764852689
 20
506.109671424182
 11
464.815610697486
 21
506.109671424182
  0
LINE
  5
48
100
AcDbEntity
  8
1
  6
CONTINUOUS
 62
           3
100
AcDbLine
 10
464.815610697486
 20
506.109671424182
 11
470.500451620115
 21
529.312361720838
  0
LINE
  5
47
100
AcDbEntity
  8
1
  6
CONTINUOUS
 62
           3
100
AcDbLine
 10
470.500451620115
 20
529.312361720838
 11
474.688605775307
 21
529.312361720838
  0
LINE
  5
46
100
AcDbEntity
  8
1
  6
CONTINUOUS
 62
           3
100
AcDbLine
 10
474.688605775307
 20
529.312361720838
 11
473.062644686514
 21
522.675998084413
  0
LINE
  5
45
100
AcDbEntity
  8
1
  6
CONTINUOUS
 62
           3
100
AcDbLine
 10
473.062644686514
 20
522.675998084413
 11
479.34487591932
 21
522.675998084413
  0
LINE
  5
44
100
AcDbEntity
  8
1
  6
CONTINUOUS
 62
           3
100
AcDbLine
 10
478.390176181471
 20
501.685429
 11
484.672407414258
 21
501.685429
  0
LINE
  5
43
100
AcDbEntity
  8
1
  6
CONTINUOUS
 62
           3
100
AcDbLine
 10
495.142792802334
 20
501.685429
 11
502.995581843348
 21
533.736604145079
  0
LINE
  5
42
100
AcDbEntity
  8
1
  6
CONTINUOUS
 62
           3
100
AcDbLine
 10
488.860561569437
 20
501.685429
 11
492.244969060332
 21
515.498895360341
  0
LINE
  5
41
100
AcDbEntity
  8
1
  6
CONTINUOUS
 62
           3
100
AcDbLine
 10
484.672407414258
 20
501.685429
 11
488.056814905143
 21
515.498895360341
  0
LINE
  5
40
100
AcDbEntity
  8
1
  6
CONTINUOUS
 62
           3
100
AcDbLine
 10
486.242965222464
 20
533.736604145079
 11
478.390176181471
 21
501.685429
  0
LINE
  5
3F
100
AcDbEntity
  8
1
  6
CONTINUOUS
 62
           3
100
AcDbLine
 10
502.995581843348
 20
533.736604145079
 11
496.713350610433
 21
533.736604145079
  0
LINE
  5
3E
100
AcDbEntity
  8
1
  6
CONTINUOUS
 62
           3
100
AcDbLine
 10
499.33094695746
 20
501.685429
 11
516.083563578268
 21
501.685429
  0
LINE
  5
3D
100
AcDbEntity
  8
1
  6
CONTINUOUS
 62
           3
100
AcDbLine
 10
510.885306404565
 20
506.109671424182
 11
506.697152249465
 21
506.109671424182
  0
LINE
  5
3C
100
AcDbEntity
  8
1
  6
CONTINUOUS
 62
           3
100
AcDbLine
 10
507.183735998457
 20
533.736604145079
 11
499.33094695746
 21
501.685429
  0
LINE
  5
3B
100
AcDbEntity
  8
1
  6
CONTINUOUS
 62
           3
100
AcDbLine
 10
506.697152249465
 20
506.109671424182
 11
512.38199317204
 21
529.312361720838
  0
LINE
  5
3A
100
AcDbEntity
  8
1
  6
CONTINUOUS
 62
           3
100
AcDbLine
 10
523.936352619286
 20
533.736604145079
 11
507.183735998457
 21
533.736604145079
  0
LINE
  5
39
100
AcDbEntity
  8
1
  6
CONTINUOUS
 62
           3
100
AcDbLine
 10
512.38199317204
 20
529.312361720838
 11
516.570147327289
 21
529.312361720838
  0
LINE
  5
38
100
AcDbEntity
  8
1
  6
CONTINUOUS
 62
           3
100
AcDbLine
 10
516.570147327289
 20
529.312361720838
 11
510.885306404565
 21
506.109671424182
  0
LINE
  5
37
100
AcDbEntity
  8
1
  6
CONTINUOUS
 62
           3
100
AcDbLine
 10
523.936352619286
 20
533.736604145079
 11
516.083563578268
 21
501.685429
  0
LINE
  5
36
100
AcDbEntity
  8
1
  6
CONTINUOUS
 62
           3
100
AcDbLine
 10
492.525196455329
 20
533.736604145079
 11
486.242965222464
 21
533.736604145079
  0
LINE
  5
35
100
AcDbEntity
  8
1
  6
CONTINUOUS
 62
           3
100
AcDbLine
 10
488.860561569437
 20
501.685429
 11
495.142792802334
 21
501.685429
  0
LINE
  5
34
100
AcDbEntity
  8
1
  6
CONTINUOUS
 62
           3
100
AcDbLine
 10
488.056814905143
 20
515.498895360341
 11
492.244969060332
 21
515.498895360341
  0
LINE
  5
33
100
AcDbEntity
  8
1
  6
CONTINUOUS
 62
           3
100
AcDbLine
 10
489.140788964312
 20
519.923137784527
 11
493.328943119552
 21
519.923137784527
  0
LINE
  5
32
100
AcDbEntity
  8
1
  6
CONTINUOUS
 62
           3
100
AcDbLine
 10
489.140788964312
 20
519.923137784527
 11
492.525196455329
 21
533.736604145079
  0
LINE
  5
31
100
AcDbEntity
  8
1
  6
CONTINUOUS
 62
           3
100
AcDbLine
 10
493.328943119552
 20
519.923137784527
 11
496.713350610433
 21
533.736604145079
  0
LINE
  5
30
100
AcDbEntity
  8
1
  6
CONTINUOUS
 62
           3
100
AcDbLine
 10
458.297919150882
 20
550.447633858332
 11
457.565836381935
 21
549.663876872362
  0
LINE
  5
2F
100
AcDbEntity
  8
1
  6
CONTINUOUS
 62
           3
100
AcDbLine
 10
457.861239469315
 20
548.665324810781
 11
457.565836381935
 21
549.663876872362
  0
ENDBLK
  5
E3
100
AcDbEntity
  8
0
100
AcDbBlockEnd
  0
BLOCK
  5
2A
100
AcDbEntity
  8
0
100
AcDbBlockBegin
  2
WANNE_PRIME_LINE_257
 70
           0
 10
0.0
 20
0.0
 30
0.0
  3
WANNE_PRIME_LINE_257
  1

  0
SPLINE
  5
FC
100
AcDbEntity
  8
1
  6
CONTINUOUS
 62
           7
100
AcDbSpline
210
0.0
220
0.0
230
1.0
 70
           0
 71
           3
 72
          41
 73
          38
 74
          77
 42
0.00000000001
 43
0.00000000001
 44
0.00000000001
 40
-1.9332773527505083
 40
-0.0519149600601736
 40
1.8294474326301575
 40
3.8160231382418623
 40
6.0890057211309276
 40
8.7583165725678658
 40
11.856343216495972
 40
15.358060651054171
 40
19.202594105612967
 40
23.306173214999752
 40
27.570576436275836
 40
31.889464432284377
 40
36.15386765356137
 40
40.257446762947694
 40
44.101980217507041
 40
47.603697652065023
 40
50.701724295992292
 40
53.371035147429382
 40
55.644017730319192
 40
57.630593435930152
 40
59.511955828620231
 40
61.498531534232278
 40
63.771514117120731
 40
66.440824968558047
 40
69.538851612485558
 40
73.040569047043505
 40
76.885102501603313
 40
80.988681610989588
 40
85.253084832265671
 40
89.571972828274198
 40
93.836376049550751
 40
97.939955158937522
 40
101.78448861349683
 40
105.28620604805462
 40
108.38423269198205
 40
111.05354354341983
 40
113.32652612630926
 40
115.31310183192038
 40
117.19446422461033
 40
119.07582661730066
 40
120.957189009991
 10
925.102286043086
 20
120.3742534243468
 30
0.0
 10
924.67881079283211
 20
122.2073363916595
 30
0.0
 10
923.4784604770789
 20
123.9204447996497
 30
0.0
 10
921.59151897449601
 20
125.4896587199094
 30
0.0
 10
919.07367951637593
 20
126.896964879393
 30
0.0
 10
915.99204795382093
 20
128.1095211398663
 30
0.0
 10
912.43365700486311
 20
129.09310716205511
 30
0.0
 10
908.5027175174921
 20
129.8181178815023
 30
0.0
 10
904.31629616962005
 20
130.26229084853301
 30
0.0
 10
900.00000000000091
 20
130.41189331571221
 30
0.0
 10
895.68370383037905
 20
130.26229084853301
 30
0.0
 10
891.4972824825079
 20
129.8181178815023
 30
0.0
 10
887.56634299513689
 20
129.09310716205511
 30
0.0
 10
884.00795204617793
 20
128.1095211398663
 30
0.0
 10
880.92632048362498
 20
126.896964879392
 30
0.0
 10
878.40848102550399
 20
125.4896587199103
 30
0.0
 10
876.52153952292201
 20
123.92044479964881
 30
0.0
 10
875.32118920716698
 20
122.2073363916586
 30
0.0
 10
874.89771395691491
 20
120.3742534243481
 30
0.0
 10
875.32118920716789
 20
118.5411704570331
 30
0.0
 10
876.52153952292201
 20
116.8280620490452
 30
0.0
 10
878.40848102550399
 20
115.25884812878419
 30
0.0
 10
880.92632048362498
 20
113.851541969301
 30
0.0
 10
884.00795204617793
 20
112.63898570882731
 30
0.0
 10
887.56634299513689
 20
111.65539968663801
 30
0.0
 10
891.49728248250904
 20
110.9303889671926
 30
0.0
 10
895.68370383037905
 20
110.4862160001596
 30
0.0
 10
900.0
 20
110.3366135329814
 30
0.0
 10
904.31629616962005
 20
110.4862160001605
 30
0.0
 10
908.5027175174921
 20
110.9303889671917
 30
0.0
 10
912.43365700486311
 20
111.6553996866385
 30
0.0
 10
915.99204795382207
 20
112.63898570882731
 30
0.0
 10
919.07367951637502
 20
113.8515419693006
 30
0.0
 10
921.59151897449601
 20
115.2588481287837
 30
0.0
 10
923.4784604770789
 20
116.8280620490452
 30
0.0
 10
924.67881079283211
 20
118.54117045703489
 30
0.0
 10
925.102286043086
 20
120.3742534243468
 30
0.0
 10
924.67881079283211
 20
122.2073363916595
 30
0.0
 11
924.89630797678433
 21
121.26586370086525
 31
0.0
 11
924.59323003867246
 21
122.17170838647901
 31
0.0
 11
924.11899059224083
 21
123.00629706173177
 31
0.0
 11
923.42163982273212
 21
123.87232996864168
 31
0.0
 11
922.61064774452984
 21
124.64213321353559
 31
0.0
 11
921.5549667257161
 21
125.44061407715643
 31
0.0
 11
920.4261812093423
 21
126.14100565527126
 31
0.0
 11
919.05016301176283
 21
126.85027345484275
 31
0.0
 11
917.62711180495717
 21
127.46615840531373
 31
0.0
 11
915.97677178228992
 21
128.06589127485773
 31
0.0
 11
914.29587941656075
 21
128.57836441438457
 31
0.0
 11
912.42385986694956
 21
129.05209411261598
 31
0.0
 11
910.5322460415108
 21
129.44379771196913
 31
0.0
 11
908.49685432521051
 21
129.77899239089854
 31
0.0
 11
906.44973622434713
 21
130.03593608862047
 31
0.0
 11
904.3135440200374
 21
130.22428376166025
 31
0.0
 11
902.17184751656259
 21
130.33661726095454
 31
0.0
 11
900.00000000000068
 21
130.37425528833336
 31
0.0
 11
897.82815248343798
 21
130.33661726095451
 31
0.0
 11
895.68645597996192
 21
130.22428376166022
 31
0.0
 11
893.55026377565218
 21
130.03593608862045
 31
0.0
 11
891.50314567478927
 21
129.77899239089854
 31
0.0
 11
889.46775395848942
 21
129.44379771196915
 31
0.0
 11
887.57614013305044
 21
129.05209411261598
 31
0.0
 11
885.70412058343845
 21
128.57836441438451
 31
0.0
 11
884.0232282177094
 21
128.06589127485759
 31
0.0
 11
882.37288819504249
 21
127.46615840531314
 31
0.0
 11
880.94983698823773
 21
126.85027345484212
 31
0.0
 11
879.57381879065827
 21
126.14100565527139
 31
0.0
 11
878.44503327428424
 21
125.44061407715688
 31
0.0
 11
877.38935225547073
 21
124.64213321353562
 31
0.0
 11
876.57836017726845
 21
123.87232996864095
 31
0.0
 11
875.88100940775894
 21
123.00629706173058
 31
0.0
 11
875.40676996132709
 21
122.17170838647833
 31
0.0
 11
875.10369202321567
 21
121.26586370086558
 31
0.0
 11
875.00070299006541
 21
120.37425342434761
 31
0.0
 11
875.10369202321613
 21
119.48264314782868
 31
0.0
 11
875.40676996132788
 21
118.57679846221414
 31
0.0
 11
875.88100940775962
 21
117.74220978696172
 31
0.0
 11
876.57836017726845
 21
116.87617688005275
 31
0.0
 11
877.38935225547038
 21
116.10637363515887
 31
0.0
 11
878.44503327428424
 21
115.30789277153741
 31
0.0
 11
879.57381879065838
 21
114.60750119342239
 31
0.0
 11
880.94983698823773
 21
113.89823339385111
 31
0.0
 11
882.37288819504261
 21
113.28234844338012
 31
0.0
 11
884.02322821770917
 21
112.6826155738359
 31
0.0
 11
885.70412058343834
 21
112.1701424343089
 31
0.0
 11
887.57614013305056
 21
111.69641273607742
 31
0.0
 11
889.46775395849011
 21
111.3047091367248
 31
0.0
 11
891.50314567479018
 21
110.96951445779582
 31
0.0
 11
893.55026377565287
 21
110.71257076007331
 31
0.0
 11
895.68645597996192
 21
110.52422308703277
 31
0.0
 11
897.82815248343741
 21
110.41188958773859
 31
0.0
 11
899.99999999999989
 21
110.37425156036011
 31
0.0
 11
902.17184751656214
 21
110.41188958773904
 31
0.0
 11
904.3135440200374
 21
110.52422308703333
 31
0.0
 11
906.44973622434725
 21
110.71257076007329
 31
0.0
 11
908.49685432521051
 21
110.96951445779533
 31
0.0
 11
910.53224604151069
 21
111.30470913672467
 31
0.0
 11
912.42385986694956
 21
111.69641273607769
 31
0.0
 11
914.29587941656155
 21
112.1701424343091
 31
0.0
 11
915.97677178229083
 21
112.6826155738359
 31
0.0
 11
917.62711180495739
 21
113.2823484433799
 31
0.0
 11
919.05016301176215
 21
113.89823339385073
 31
0.0
 11
920.42618120934162
 21
114.60750119342188
 31
0.0
 11
921.55496672571599
 21
115.30789277153696
 31
0.0
 11
922.61064774453007
 21
116.10637363515855
 31
0.0
 11
923.421639822732
 21
116.87617688005299
 31
0.0
 11
924.11899059224095
 21
117.74220978696306
 31
0.0
 11
924.59323003867235
 21
118.57679846221541
 31
0.0
 11
924.89630797678433
 21
119.4826431478287
 31
0.0
 11
924.9978571202289
 21
120.38048622613135
 31
0.0
 11
924.89054841795905
 21
121.29079490800305
 31
0.0
 11
924.78467960539558
 21
121.74906564983128
 31
0.0
 11
924.89054841795905
 21
121.29079490800315
 31
0.0
 11
924.9978571202289
 21
120.82629136439051
 31
0.0
 11
924.89630797678433
 21
121.26586370086525
 31
0.0
  0
CIRCLE
  5
FB
100
AcDbEntity
  8
WANNE
  6
CONTINUOUS
 62
           7
100
AcDbCircle
 10
899.999999999994
 20
305.0
 40
45.0
  0
CIRCLE
  5
FA
100
AcDbEntity
  8
WANNE
  6
CONTINUOUS
 62
           7
100
AcDbCircle
 10
899.999999999994
 20
305.0
 40
26.0
  0
ARC
  5
F9
100
AcDbEntity
  8
1
  6
CONTINUOUS
 62
           7
100
AcDbCircle
 10
1002.948923999657
 20
400.366960999941
 40
697.429455999689
100
AcDbArc
 50
167.793444999989
 51
-167.855335999998
  0
ARC
  5
F8
100
AcDbEntity
  8
1
  6
CONTINUOUS
 62
           7
100
AcDbCircle
 10
797.051076999681
 20
400.36696099995
 40
697.429456000335
100
AcDbArc
 50
-12.144663999989
 51
12.206554999998
  0
ARC
  5
F7
100
AcDbEntity
  8
1
  6
CONTINUOUS
 62
           7
100
AcDbCircle
 10
418.890361176895
 20
274.679383730902
 40
100.000153164329
100
AcDbArc
 50
-167.855320650623
 51
-89.922097417097
  0
ARC
  5
F6
100
AcDbEntity
  8
1
  6
CONTINUOUS
 62
           7
100
AcDbCircle
 10
419.026326999945
 20
526.685429000022
 40
99.999999999978
100
AcDbArc
 50
89.999999999969
 51
167.793445000011
  0
ARC
  5
F5
100
AcDbEntity
  8
1
  6
CONTINUOUS
 62
           7
100
AcDbCircle
 10
1380.97367399988
 20
526.685428999804
 40
100.000000000196
100
AcDbArc
 50
12.20655500009
 51
89.99999999993
  0
ARC
  5
F4
100
AcDbEntity
  8
1
  6
CONTINUOUS
 62
           7
100
AcDbCircle
 10
1381.109782999994
 20
274.679323000002
 40
100.000000000002
100
AcDbArc
 50
-89.999999999996
 51
-12.144664
  0
ARC
  5
F3
100
AcDbEntity
  8
1
  6
CONTINUOUS
 62
           7
100
AcDbCircle
 10
360.000000000002
 20
400.000000000002
 40
310.000000000002
100
AcDbArc
 50
-179.999999999999
 51
-90.0
  0
ARC
  5
F2
100
AcDbEntity
  8
1
  6
CONTINUOUS
 62
           7
100
AcDbCircle
 10
360.0
 20
400.0
 40
310.0
100
AcDbArc
 50
90.0
 51
180.0
  0
ARC
  5
F1
100
AcDbEntity
  8
1
  6
CONTINUOUS
 62
           7
100
AcDbCircle
 10
1440.0
 20
400.0
 40
310.0
100
AcDbArc
 50
0.0
 51
90.0
  0
ARC
  5
F0
100
AcDbEntity
  8
1
  6
CONTINUOUS
 62
           7
100
AcDbCircle
 10
1440.000000000002
 20
399.999999999999
 40
309.999999999999
100
AcDbArc
 50
-90.0
 51
0.0
  0
ARC
  5
EF
100
AcDbEntity
  8
WANNE
  6
CONTINUOUS
 62
           7
100
AcDbCircle
 10
400.0
 20
400.0
 40
400.0
100
AcDbArc
 50
180.0
 51
-90.0
  0
ARC
  5
EE
100
AcDbEntity
  8
WANNE
  6
CONTINUOUS
 62
           7
100
AcDbCircle
 10
1400.0
 20
400.0
 40
400.0
100
AcDbArc
 50
0.0
 51
90.0
  0
ARC
  5
ED
100
AcDbEntity
  8
WANNE
  6
CONTINUOUS
 62
           7
100
AcDbCircle
 10
1400.0
 20
400.0
 40
400.0
100
AcDbArc
 50
-90.0
 51
0.0
  0
ARC
  5
EC
100
AcDbEntity
  8
WANNE
  6
CONTINUOUS
 62
           7
100
AcDbCircle
 10
400.0
 20
400.0
 40
400.0
100
AcDbArc
 50
90.0
 51
180.0
  0
LINE
  5
EB
100
AcDbEntity
  8
1
  6
CONTINUOUS
 62
           7
100
AcDbLine
 10
419.026327
 20
174.679323
 11
1380.973674000001
 21
174.679323
  0
LINE
  5
EA
100
AcDbEntity
  8
1
  6
CONTINUOUS
 62
           7
100
AcDbLine
 10
419.026327
 20
626.685429
 11
1380.973674000001
 21
626.685429
  0
LINE
  5
E9
100
AcDbEntity
  8
1
  6
CONTINUOUS
 62
           7
100
AcDbLine
 10
360.0
 20
90.0
 11
1440.0
 21
90.0
  0
LINE
  5
E8
100
AcDbEntity
  8
1
  6
CONTINUOUS
 62
           7
100
AcDbLine
 10
360.0
 20
710.0
 11
1440.0
 21
710.0
  0
LINE
  5
E7
100
AcDbEntity
  8
WANNE
  6
CONTINUOUS
 62
           7
100
AcDbLine
 10
400.0
 20
800.0
 11
1400.0
 21
800.0
  0
LINE
  5
E6
100
AcDbEntity
  8
WANNE
  6
CONTINUOUS
 62
           7
100
AcDbLine
 10
400.0
 20
0.0
 11
1400.0
 21
0.0
  0
LINE
  5
E5
100
AcDbEntity
  8
MITTELLINIEN
  6
DOT_CENTER
 62
           3
100
AcDbLine
 10
900.0
 20
368.989954999999
 11
900.0
 21
239.321980999999
  0
LINE
  5
E4
100
AcDbEntity
  8
MITTELLINIEN
  6
DOT_CENTER
 62
           3
100
AcDbLine
 10
963.989954999998
 20
305.0
 11
834.321980999987
 21
305.0
  0
ENDBLK
  5
FD
100
AcDbEntity
  8
0
100
AcDbBlockEnd
  0
ENDSEC
  0
SECTION
  2
ENTITIES
  0
TEXT
  5
101
100
AcDbEntity
  8
1
 62
           3
100
AcDbText
 10
949.999999999988
 20
355.0
 40
35.0
  1
ø 52
 41
0.71262
  7
CONVERTER_1
100
AcDbText
  0
TEXT
  5
100
100
AcDbEntity
  8
1
 62
           2
100
AcDbText
 10
392.533015999998
 20
411.685429
 40
35.0
  1
Prime-line 257
 41
0.71262
  7
CONVERTER_1
100
AcDbText
  0
INSERT
  5
2D
100
AcDbEntity
  8
0
100
AcDbBlockReference
  2
DLX
 10
0.0
 20
0.0
  0
INSERT
  5
2E
100
AcDbEntity
  8
0
100
AcDbBlockReference
  2
WANNE_PRIME_LINE_257
 10
0.0
 20
0.0
  0
ENDSEC
  0
SECTION
  2
OBJECTS
  0
DICTIONARY
  5
19
100
AcDbDictionary
  3
ACAD_GROUP
350
1A
  3
ACAD_MLINESTYLE
350
1B
  0
DICTIONARY
  5
1A
102
{ACAD_REACTORS
330
19
102
}
100
AcDbDictionary
  0
DICTIONARY
  5
1B
102
{ACAD_REACTORS
330
19
102
}
100
AcDbDictionary
  3
STANDARD
350
1C
  0
MLINESTYLE
  5
1C
102
{ACAD_REACTORS
330
1B
102
}
100
AcDbMlineStyle
  2
STANDARD
 70
           0
  3

 62
           0
 51
90.0
 52
90.0
 71
           2
 49
0.5
 62
         256
  6
BYLAYER
 49
-0.5
 62
         256
  6
BYLAYER
  0
ENDSEC
  0
EOF
