  0
SECTION
  2
HEADER
  9
$ACADVER
  1
AC1014
  9
$ACADMAINTVER
 70
           0
  9
$DWGCODEPAGE
  3
ANSI_1252
  9
$INSBASE
 10
0.0
 20
0.0
 30
0.0
  9
$EXTMIN
 10
1.000000000000E+20
 20
1.000000000000E+20
 30
1.000000000000E+20
  9
$EXTMAX
 10
-1.000000000000E+20
 20
-1.000000000000E+20
 30
-1.000000000000E+20
  9
$LIMMIN
 10
0.0
 20
0.0
  9
$LIMMAX
 10
0.0
 20
0.0
  9
$ORTHOMODE
 70
           0
  9
$REGENMODE
 70
           1
  9
$FILLMODE
 70
           1
  9
$QTEXTMODE
 70
           0
  9
$MIRRTEXT
 70
           1
  9
$DRAGMODE
 70
           2
  9
$LTSCALE
 40
1.0
  9
$OSMODE
 70
           0
  9
$ATTMODE
 70
           1
  9
$TEXTSIZE
 40
0.2
  9
$TRACEWID
 40
0.05
  9
$TEXTSTYLE
  7
STANDARD
  9
$CLAYER
  8
0
  9
$CELTYPE
  6
CONTINUOUS
  9
$CECOLOR
 62
         256
  9
$CELTSCALE
 40
1.0
  9
$DELOBJ
 70
           1
  9
$DISPSILH
 70
           0
  9
$DIMSCALE
 40
1.0
  9
$DIMASZ
 40
0.18
  9
$DIMEXO
 40
0.0625
  9
$DIMDLI
 40
0.38
  9
$DIMRND
 40
0.0
  9
$DIMDLE
 40
0.0
  9
$DIMEXE
 40
0.18
  9
$DIMTP
 40
0.0
  9
$DIMTM
 40
0.0
  9
$DIMTXT
 40
0.18
  9
$DIMCEN
 40
0.09
  9
$DIMTSZ
 40
0.0
  9
$DIMTOL
 70
           0
  9
$DIMLIM
 70
           0
  9
$DIMTIH
 70
           1
  9
$DIMTOH
 70
           1
  9
$DIMSE1
 70
           0
  9
$DIMSE2
 70
           0
  9
$DIMTAD
 70
           0
  9
$DIMZIN
 70
           0
  9
$DIMBLK
  1

  9
$DIMASO
 70
           1
  9
$DIMSHO
 70
           1
  9
$DIMPOST
  1

  9
$DIMAPOST
  1

  9
$DIMALT
 70
           0
  9
$DIMALTD
 70
           2
  9
$DIMALTF
 40
25.4
  9
$DIMLFAC
 40
1.0
  9
$DIMTOFL
 70
           0
  9
$DIMTVP
 40
0.0
  9
$DIMTIX
 70
           0
  9
$DIMSOXD
 70
           0
  9
$DIMSAH
 70
           0
  9
$DIMBLK1
  1

  9
$DIMBLK2
  1

  9
$DIMSTYLE
  2
STANDARD
  9
$DIMCLRD
 70
           0
  9
$DIMCLRE
 70
           0
  9
$DIMCLRT
 70
           0
  9
$DIMTFAC
 40
1.0
  9
$DIMGAP
 40
0.09
  9
$DIMJUST
 70
           0
  9
$DIMSD1
 70
           0
  9
$DIMSD2
 70
           0
  9
$DIMTOLJ
 70
           1
  9
$DIMTZIN
 70
           0
  9
$DIMALTZ
 70
           0
  9
$DIMALTTZ
 70
           0
  9
$DIMFIT
 70
           3
  9
$DIMUPT
 70
           0
  9
$DIMUNIT
 70
           2
  9
$DIMDEC
 70
           4
  9
$DIMTDEC
 70
           4
  9
$DIMALTU
 70
           2
  9
$DIMALTTD
 70
           2
  9
$DIMTXSTY
  7
STANDARD
  9
$DIMAUNIT
 70
           0
  9
$LUNITS
 70
           2
  9
$LUPREC
 70
           4
  9
$SKETCHINC
 40
0.1
  9
$FILLETRAD
 40
0.0
  9
$AUNITS
 70
           0
  9
$AUPREC
 70
           0
  9
$MENU
  1
acad
  9
$ELEVATION
 40
0.0
  9
$PELEVATION
 40
0.0
  9
$THICKNESS
 40
0.0
  9
$LIMCHECK
 70
           0
  9
$BLIPMODE
 70
           1
  9
$CHAMFERA
 40
0.0
  9
$CHAMFERB
 40
0.0
  9
$CHAMFERC
 40
0.0
  9
$CHAMFERD
 40
0.0
  9
$SKPOLY
 70
           0
  9
$TDCREATE
 40
0.000000000
  9
$TDUPDATE
 40
0.000000000
  9
$TDINDWG
 40
0.0000000000
  9
$TDUSRTIMER
 40
0.0000000000
  9
$USRTIMER
 70
           1
  9
$ANGBASE
 50
0.0
  9
$ANGDIR
 70
           0
  9
$PDMODE
 70
           0
  9
$PDSIZE
 40
0.0
  9
$PLINEWID
 40
0.0
  9
$COORDS
 70
           0
  9
$SPLFRAME
 70
           0
  9
$SPLINETYPE
 70
           6
  9
$SPLINESEGS
 70
           8
  9
$ATTDIA
 70
           0
  9
$ATTREQ
 70
           1
  9
$HANDLING
 70
           1
  9
$HANDSEED
  5
103
  9
$SURFTAB1
 70
           6
  9
$SURFTAB2
 70
           6
  9
$SURFTYPE
 70
           6
  9
$SURFU
 70
           6
  9
$SURFV
 70
           6
  9
$UCSNAME
  2

  9
$UCSORG
 10
0.0
 20
0.0
 30
0.0
  9
$UCSXDIR
 10
1.0
 20
0.0
 30
0.0
  9
$UCSYDIR
 10
0.0
 20
1.0
 30
0.0
  9
$PUCSNAME
  2

  9
$PUCSORG
 10
0.0
 20
0.0
 30
0.0
  9
$PUCSXDIR
 10
1.0
 20
0.0
 30
0.0
  9
$PUCSYDIR
 10
0.0
 20
1.0
 30
0.0
  9
$USERI1
 70
           0
  9
$USERI2
 70
           0
  9
$USERI3
 70
           0
  9
$USERI4
 70
           0
  9
$USERI5
 70
           0
  9
$USERR1
 40
0.0
  9
$USERR2
 40
0.0
  9
$USERR3
 40
0.0
  9
$USERR4
 40
0.0
  9
$USERR5
 40
0.0
  9
$WORLDVIEW
 70
           1
  9
$SHADEDGE
 70
           3
  9
$SHADEDIF
 70
          70
  9
$TILEMODE
 70
           1
  9
$MAXACTVP
 70
          16
  9
$PINSBASE
 10
0.0
 20
0.0
 30
0.0
  9
$PLIMCHECK
 70
           0
  9
$PEXTMIN
 10
1.000000000000E+20
 20
1.000000000000E+20
 30
1.000000000000E+20
  9
$PEXTMAX
 10
-1.000000000000E+20
 20
-1.000000000000E+20
 30
-1.000000000000E+20
  9
$PLIMMIN
 10
0.0
 20
0.0
  9
$PLIMMAX
 10
12.0
 20
9.0
  9
$UNITMODE
 70
           0
  9
$VISRETAIN
 70
           0
  9
$PLINEGEN
 70
           1
  9
$PSLTSCALE
 70
           0
  9
$TREEDEPTH
 70
        3020
  9
$PICKSTYLE
 70
           1
  9
$CMLSTYLE
  2
STANDARD
  9
$CMLJUST
 70
           0
  9
$CMLSCALE
 40
1.0
  9
$PROXYGRAPHICS
 70
           0
  9
$MEASUREMENT
 70
           0
  0
ENDSEC
  0
SECTION
  2
CLASSES
  0
CLASS
  1
LWPOLYLINE
  2
AcDbPolyline
  3
"AutoCAD"
 90
        0
280
           0
281
           1
  0
CLASS
  1
IMAGE
  2
AcDbRasterImage
  3
ISM
 90
      127
280
           0
281
           1
  0
CLASS
  1
OLE2FRAME
  2
AcDbOle2Frame
  3
""
 90
        0
280
           0
281
           1
  0
CLASS
  1
HATCH
  2
AcDbHatch
  3
"ACAD_SEDONA"
 90
        0
280
           0
281
           1
  0
CLASS
  1
DICTIONARYVAR
  2
AcDbDictionaryVar
  3
"AutoCAD"
 90
        0
280
           0
281
           0
  0
CLASS
  1
RASTERVARIABLES
  2
AcDbRasterVariables
  3
ISM
 90
        0
280
           0
281
           0
  0
CLASS
  1
IMAGEDEF
  2
AcDbRasterImageDef
  3
ISM
 90
        0
280
           0
281
           0
  0
CLASS
  1
IMAGEDEF_REACTOR
  2
AcDbRasterImageDefReactor
  3
ISM
 90
        1
280
           0
281
           0
  0
CLASS
  1
IDBUFFER
  2
AcDbIdBuffer
  3
"Acad"
 90
        0
280
           0
281
           0
  0
CLASS
  1
SPATIAL_FILTER
  2
AcDbSpatialFilter
  3
"Acad"
 90
        0
280
           0
281
           0
  0
CLASS
  1
XRECORD
  2
AcDbXrecord
  3
"<Built In>"
 90
        0
280
           0
281
           0
  0
CLASS
  1
SORTENTSTABLE
  2
AcDbSortentsTable
  3
"AutoCAD"
 90
        0
280
           0
281
           0
  0
CLASS
  1
LAYER_INDEX
  2
AcDbLayerIndex
  3
"Acad"
 90
        0
280
           0
281
           0
  0
CLASS
  1
SPATIAL_INDEX
  2
AcDbSpatialIndex
  3
"Acad"
 90
        0
280
           0
281
           0
  0
CLASS
  1
OBJECT_PTR
  2
CAseDLPNTableRecord
  3
"ASE-LPNTableRecord"
 90
        1
280
           0
281
           0
  0
CLASS
  1
LAYOUT
  2
AcDbLayout
  3
"AutoCAD 2000"
 90
        1
280
           0
281
           0
  0
CLASS
  1
PLOTSETTINGS
  2
AcDbPlotSettings
  3
"AutoCAD 2000"
 90
        1
280
           0
281
           0
  0
CLASS
  1
ACDBDICTIONARYWDFLT
  2
AcDbDictionaryWithDefault
  3
"AutoCAD 2000"
 90
        1
280
           0
281
           0
  0
CLASS
  1
ACDBPLACEHOLDER
  2
AcDbPlaceHolder
  3
"AutoCAD 2000"
 90
        1
280
           0
281
           0
  0
CLASS
  1
VBA_PROJECT
  2
AcDbVbaProject
  3
"acadvba"
 90
        1
280
           0
281
           0
  0
CLASS
  1
WIPEOUT
  2
AcDbWipeout
  3
WipeOut|AutoCAD Express Tool|expresstools@autodesk.com
 90
      127
280
           0
281
           1
  0
CLASS
  1
WIPEOUTVARIABLES
  2
AcDbWipeoutVariables
  3
WipeOut|AutoCAD Express Tool|expresstools@autodesk.com
 90
        0
280
           0
281
           0
  0
CLASS
  1
RTEXT
  2
RText
  3
RText|AutoCAD Express Tool|expresstools@autodesk.com
 90
        0
280
           0
281
           1
  0
CLASS
  1
ARCALIGNEDTEXT
  2
AcDbArcAlignedText
  3
ATEXT|AutoCAD Express Tool|expresstools@autodesk.com
 90
        0
280
           0
281
           1
  0
ENDSEC
  0
SECTION
  2
TABLES
  0
TABLE
  2
VPORT
  5
7
100
AcDbSymbolTable
 70
           1
  0
VPORT
  5
15
100
AcDbSymbolTableRecord
100
AcDbViewportTableRecord
  2
*ACTIVE
 70
           0
 10
0.0
 20
0.0
 11
1.0
 21
1.0
 12
6.591288
 22
4.579184
 13
0.0
 23
0.0
 14
1.0
 24
1.0
 15
0.0
 25
0.0
 16
0.0
 26
0.0
 36
1.0
 17
0.0
 27
0.0
 37
0.0
 40
9.158369
 41
0.688564
 42
50.0
 43
0.0
 44
0.0
 50
0.0
 51
0.0
 71
           0
 72
         100
 73
           1
 74
           1
 75
           0
 76
           0
 77
           0
 78
           0
  0
ENDTAB
  0
TABLE
  2
LTYPE
  5
4
100
AcDbSymbolTable
 70
          10
  0
LTYPE
  5
11
100
AcDbSymbolTableRecord
100
AcDbLinetypeTableRecord
  2
BYBLOCK
 70
          64
  3

 72
          65
 73
           0
 40
0.0
  0
LTYPE
  5
12
100
AcDbSymbolTableRecord
100
AcDbLinetypeTableRecord
  2
BYLAYER
 70
          64
  3

 72
          65
 73
           0
 40
0.0
  0
LTYPE
  5
13
100
AcDbSymbolTableRecord
100
AcDbLinetypeTableRecord
  2
CONTINUOUS
 70
          64
  3
Solid line
 72
          65
 73
           0
 40
0.0
  0
LTYPE
  5
1D
100
AcDbSymbolTableRecord
100
AcDbLinetypeTableRecord
  2
DASHED
 70
          64
  3
Dashed
 72
          65
 73
           2
 40
15.0
 49
12.0
 74
           0
 49
-3.0
 74
           0
  0
LTYPE
  5
1E
100
AcDbSymbolTableRecord
100
AcDbLinetypeTableRecord
  2
DOTTED
 70
          64
  3
Dotted
 72
          65
 73
           2
 40
3.5
 49
0.5
 74
           0
 49
-3.0
 74
           0
  0
LTYPE
  5
1F
100
AcDbSymbolTableRecord
100
AcDbLinetypeTableRecord
  2
DOT_CENTER
 70
          64
  3
Dot_Center
 72
          65
 73
           4
 40
2.0
 49
1.25
 74
           0
 49
-0.25
 74
           0
 49
0.25
 74
           0
 49
-0.25
 74
           0
  0
LTYPE
  5
20
100
AcDbSymbolTableRecord
100
AcDbLinetypeTableRecord
  2
LONG_DASHED
 70
          64
  3
Long_Dashed
 72
          65
 73
           2
 40
2.0
 49
1.5
 74
           0
 49
-0.5
 74
           0
  0
LTYPE
  5
21
100
AcDbSymbolTableRecord
100
AcDbLinetypeTableRecord
  2
DASH_CENTER
 70
          64
  3
Dash_Center
 72
          65
 73
           4
 40
36.0
 49
24.0
 74
           0
 49
-3.0
 74
           0
 49
6.0
 74
           0
 49
-3.0
 74
           0
  0
LTYPE
  5
22
100
AcDbSymbolTableRecord
100
AcDbLinetypeTableRecord
  2
PHANTOM
 70
          64
  3
Phantom
 72
          65
 73
           6
 40
2.5
 49
1.25
 74
           0
 49
-0.25
 74
           0
 49
0.25
 74
           0
 49
-0.25
 74
           0
 49
0.25
 74
           0
 49
-0.25
 74
           0
  0
LTYPE
  5
23
100
AcDbSymbolTableRecord
100
AcDbLinetypeTableRecord
  2
CENTER_DASH_DASH
 70
          64
  3
Center_Dash_Dash
 72
          65
 73
           6
 40
22.0
 49
12.0
 74
           0
 49
-3.0
 74
           0
 49
0.5
 74
           0
 49
-3.0
 74
           0
 49
0.5
 74
           0
 49
-3.0
 74
           0
  0
ENDTAB
  0
TABLE
  2
LAYER
  5
2
100
AcDbSymbolTable
 70
           4
  0
LAYER
  5
14
100
AcDbSymbolTableRecord
100
AcDbLayerTableRecord
  2
0
 70
           0
 62
           7
  6
CONTINUOUS
  0
LAYER
  5
24
100
AcDbSymbolTableRecord
100
AcDbLayerTableRecord
  2
MITTELLINIEN
 70
           0
 62
           7
  6
CONTINUOUS
  0
LAYER
  5
25
100
AcDbSymbolTableRecord
100
AcDbLayerTableRecord
  2
1
 70
           0
 62
           7
  6
CONTINUOUS
  0
LAYER
  5
26
100
AcDbSymbolTableRecord
100
AcDbLayerTableRecord
  2
WANNE
 70
           0
 62
           7
  6
CONTINUOUS
  0
ENDTAB
  0
TABLE
  2
STYLE
  5
3
100
AcDbSymbolTable
 70
           2
  0
STYLE
  5
17
100
AcDbSymbolTableRecord
100
AcDbTextStyleTableRecord
  2
STANDARD
 70
           0
 40
0.0
 41
1.0
 50
0.0
 71
           0
 42
0.0
  3
txt
  4

  0
STYLE
  5
FF
100
AcDbSymbolTableRecord
100
AcDbTextStyleTableRecord
  2
CONVERTER_1
 70
           0
 40
0.0
 41
0.71262
 50
0.0
 71
           0
 42
0.0
  3
txt.shx
  4

  0
ENDTAB
  0
TABLE
  2
VIEW
  5
5
100
AcDbSymbolTable
 70
           0
  0
ENDTAB
  0
TABLE
  2
UCS
  5
6
100
AcDbSymbolTable
 70
           0
  0
ENDTAB
  0
TABLE
  2
APPID
  5
8
100
AcDbSymbolTable
 70
           1
  0
APPID
  5
16
100
AcDbSymbolTableRecord
100
AcDbRegAppTableRecord
  2
ACAD
 70
           0
  0
ENDTAB
  0
TABLE
  2
DIMSTYLE
  5
9
100
AcDbSymbolTable
 70
           1
  0
DIMSTYLE
105
18
100
AcDbSymbolTableRecord
100
AcDbDimStyleTableRecord
  2
STANDARD
 70
           0
  3

  4

  5

  6

  7

 40
1.0
 41
0.18
 42
0.0625
 43
0.38
 44
0.18
 45
0.0
 46
0.0
 47
0.0
 48
0.0
 71
           0
 72
           0
 73
           1
 74
           1
 75
           0
 76
           0
 77
           0
 78
           0
140
0.18
141
0.09
142
0.0
143
25.4
144
1.0
145
0.0
146
1.0
147
0.09
170
           0
171
           2
172
           0
173
           0
174
           0
175
           0
176
           0
177
           0
178
           0
270
           2
271
           4
272
           4
273
           2
274
           2
275
           0
280
           0
281
           0
282
           0
283
           1
284
           0
285
           0
286
           0
287
           0
288
           0
340
17
  0
ENDTAB
  0
TABLE
  2
BLOCK_RECORD
  5
1
100
AcDbSymbolTable
 70
           2
  0
BLOCK_RECORD
  5
A
100
AcDbSymbolTableRecord
100
AcDbBlockTableRecord
  2
*MODEL_SPACE
  0
BLOCK_RECORD
  5
B
100
AcDbSymbolTableRecord
100
AcDbBlockTableRecord
  2
*PAPER_SPACE
  0
BLOCK_RECORD
  5
27
100
AcDbSymbolTableRecord
100
AcDbBlockTableRecord
  2
DLX
  0
BLOCK_RECORD
  5
29
100
AcDbSymbolTableRecord
100
AcDbBlockTableRecord
  2
WANNE_PRIME_LINE_259
  0
ENDTAB
  0
ENDSEC
  0
SECTION
  2
BLOCKS
  0
BLOCK
  5
D
100
AcDbEntity
  8
0
100
AcDbBlockBegin
  2
*MODEL_SPACE
 70
           0
 10
0.0
 20
0.0
 30
0.0
  3
*MODEL_SPACE
  1

  0
ENDBLK
  5
E
100
AcDbEntity
  8
0
100
AcDbBlockEnd
  0
BLOCK
  5
F
100
AcDbEntity
 67
           1
  8
0
100
AcDbBlockBegin
  2
*PAPER_SPACE
 70
           0
 10
0.0
 20
0.0
 30
0.0
  3
*PAPER_SPACE
  1

  0
ENDBLK
  5
10
100
AcDbEntity
 67
           1
  8
0
100
AcDbBlockEnd
  0
BLOCK
  5
28
100
AcDbEntity
  8
0
100
AcDbBlockBegin
  2
DLX
 70
           0
 10
0.0
 20
0.0
 30
0.0
  3
DLX
  1

  0
CIRCLE
  5
E2
100
AcDbEntity
  8
1
  6
CONTINUOUS
 62
           3
100
AcDbCircle
 10
574.676815237964
 20
640.120233878754
 40
5.972862778755
  0
CIRCLE
  5
E1
100
AcDbEntity
  8
1
  6
CONTINUOUS
 62
           3
100
AcDbCircle
 10
574.676815237964
 20
640.120233878754
 40
5.530127989697
  0
ARC
  5
E0
100
AcDbEntity
  8
1
  6
CONTINUOUS
 62
           3
100
AcDbCircle
 10
574.883634069343
 20
641.545365921381
 40
2.009798008862
100
AcDbArc
 50
-55.929988464567
 51
86.297888718245
  0
ARC
  5
DF
100
AcDbEntity
  8
1
  6
CONTINUOUS
 62
           3
100
AcDbCircle
 10
574.80531624333
 20
641.505471930551
 40
1.257687287768
100
AcDbArc
 50
-74.800419047062
 51
80.93139523879
  0
ARC
  5
DE
100
AcDbEntity
  8
1
  6
CONTINUOUS
 62
           3
100
AcDbCircle
 10
574.730133605134
 20
638.294485389822
 40
1.155889798232
100
AcDbArc
 50
0.985058170485
 51
82.918254632943
  0
ARC
  5
DD
100
AcDbEntity
  8
1
  6
CONTINUOUS
 62
           3
100
AcDbCircle
 10
575.455526791624
 20
638.603679682225
 40
1.391870091328
100
AcDbArc
 50
-1.298612665717
 51
66.544866494049
  0
LINE
  5
DC
100
AcDbEntity
  8
1
  6
CONTINUOUS
 62
           3
100
AcDbLine
 10
467.269163469345
 20
636.221341810781
 11
466.973760381965
 21
637.219893872362
  0
LINE
  5
DB
100
AcDbEntity
  8
1
  6
CONTINUOUS
 62
           3
100
AcDbLine
 10
467.705843150912
 20
638.003650858332
 11
466.973760381965
 21
637.219893872362
  0
LINE
  5
DA
100
AcDbEntity
  8
1
  6
CONTINUOUS
 62
           3
100
AcDbLine
 10
502.736867119582
 20
607.479154784527
 11
506.121274610463
 21
621.292621145079
  0
LINE
  5
D9
100
AcDbEntity
  8
1
  6
CONTINUOUS
 62
           3
100
AcDbLine
 10
498.548712964342
 20
607.479154784527
 11
501.933120455359
 21
621.292621145079
  0
LINE
  5
D8
100
AcDbEntity
  8
1
  6
CONTINUOUS
 62
           3
100
AcDbLine
 10
498.548712964342
 20
607.479154784527
 11
502.736867119582
 21
607.479154784527
  0
LINE
  5
D7
100
AcDbEntity
  8
1
  6
CONTINUOUS
 62
           3
100
AcDbLine
 10
497.464738905173
 20
603.054912360341
 11
501.652893060362
 21
603.054912360341
  0
LINE
  5
D6
100
AcDbEntity
  8
1
  6
CONTINUOUS
 62
           3
100
AcDbLine
 10
498.268485569467
 20
589.241446
 11
504.550716802364
 21
589.241446
  0
LINE
  5
D5
100
AcDbEntity
  8
1
  6
CONTINUOUS
 62
           3
100
AcDbLine
 10
501.933120455359
 20
621.292621145079
 11
495.650889222494
 21
621.292621145079
  0
LINE
  5
D4
100
AcDbEntity
  8
1
  6
CONTINUOUS
 62
           3
100
AcDbLine
 10
533.344276619316
 20
621.292621145079
 11
525.491487578298
 21
589.241446
  0
LINE
  5
D3
100
AcDbEntity
  8
1
  6
CONTINUOUS
 62
           3
100
AcDbLine
 10
525.978071327319
 20
616.868378720838
 11
520.293230404595
 21
593.665688424182
  0
LINE
  5
D2
100
AcDbEntity
  8
1
  6
CONTINUOUS
 62
           3
100
AcDbLine
 10
521.78991717207
 20
616.868378720838
 11
525.978071327319
 21
616.868378720838
  0
LINE
  5
D1
100
AcDbEntity
  8
1
  6
CONTINUOUS
 62
           3
100
AcDbLine
 10
533.344276619316
 20
621.292621145079
 11
516.591659998487
 21
621.292621145079
  0
LINE
  5
D0
100
AcDbEntity
  8
1
  6
CONTINUOUS
 62
           3
100
AcDbLine
 10
516.105076249495
 20
593.665688424182
 11
521.78991717207
 21
616.868378720838
  0
LINE
  5
CF
100
AcDbEntity
  8
1
  6
CONTINUOUS
 62
           3
100
AcDbLine
 10
516.591659998487
 20
621.292621145079
 11
508.73887095749
 21
589.241446
  0
LINE
  5
CE
100
AcDbEntity
  8
1
  6
CONTINUOUS
 62
           3
100
AcDbLine
 10
520.293230404595
 20
593.665688424182
 11
516.105076249495
 21
593.665688424182
  0
LINE
  5
CD
100
AcDbEntity
  8
1
  6
CONTINUOUS
 62
           3
100
AcDbLine
 10
508.73887095749
 20
589.241446
 11
525.491487578298
 21
589.241446
  0
LINE
  5
CC
100
AcDbEntity
  8
1
  6
CONTINUOUS
 62
           3
100
AcDbLine
 10
512.403505843378
 20
621.292621145079
 11
506.121274610463
 21
621.292621145079
  0
LINE
  5
CB
100
AcDbEntity
  8
1
  6
CONTINUOUS
 62
           3
100
AcDbLine
 10
495.650889222494
 20
621.292621145079
 11
487.798100181501
 21
589.241446
  0
LINE
  5
CA
100
AcDbEntity
  8
1
  6
CONTINUOUS
 62
           3
100
AcDbLine
 10
494.080331414288
 20
589.241446
 11
497.464738905173
 21
603.054912360341
  0
LINE
  5
C9
100
AcDbEntity
  8
1
  6
CONTINUOUS
 62
           3
100
AcDbLine
 10
498.268485569467
 20
589.241446
 11
501.652893060362
 21
603.054912360341
  0
LINE
  5
C8
100
AcDbEntity
  8
1
  6
CONTINUOUS
 62
           3
100
AcDbLine
 10
504.550716802364
 20
589.241446
 11
512.403505843378
 21
621.292621145079
  0
LINE
  5
C7
100
AcDbEntity
  8
1
  6
CONTINUOUS
 62
           3
100
AcDbLine
 10
487.798100181501
 20
589.241446
 11
494.080331414288
 21
589.241446
  0
LINE
  5
C6
100
AcDbEntity
  8
1
  6
CONTINUOUS
 62
           3
100
AcDbLine
 10
482.470568686543
 20
610.232015084413
 11
488.75279991935
 21
610.232015084413
  0
LINE
  5
C5
100
AcDbEntity
  8
1
  6
CONTINUOUS
 62
           3
100
AcDbLine
 10
484.096529775337
 20
616.868378720838
 11
482.470568686543
 21
610.232015084413
  0
LINE
  5
C4
100
AcDbEntity
  8
1
  6
CONTINUOUS
 62
           3
100
AcDbLine
 10
479.908375620145
 20
616.868378720838
 11
484.096529775337
 21
616.868378720838
  0
LINE
  5
C3
100
AcDbEntity
  8
1
  6
CONTINUOUS
 62
           3
100
AcDbLine
 10
474.223534697516
 20
593.665688424182
 11
479.908375620145
 21
616.868378720838
  0
LINE
  5
C2
100
AcDbEntity
  8
1
  6
CONTINUOUS
 62
           3
100
AcDbLine
 10
478.411688852719
 20
593.665688424182
 11
474.223534697516
 21
593.665688424182
  0
LINE
  5
C1
100
AcDbEntity
  8
1
  6
CONTINUOUS
 62
           3
100
AcDbLine
 10
480.037649941506
 20
600.302052060608
 11
478.411688852719
 21
593.665688424182
  0
LINE
  5
C0
100
AcDbEntity
  8
1
  6
CONTINUOUS
 62
           3
100
AcDbLine
 10
486.319881174294
 20
600.302052060608
 11
480.037649941506
 21
600.302052060608
  0
LINE
  5
BF
100
AcDbEntity
  8
1
  6
CONTINUOUS
 62
           3
100
AcDbLine
 10
483.60994602632
 20
589.241446
 11
486.319881174294
 21
600.302052060608
  0
LINE
  5
BE
100
AcDbEntity
  8
1
  6
CONTINUOUS
 62
           3
100
AcDbLine
 10
466.857329405566
 20
589.241446
 11
483.60994602632
 21
589.241446
  0
LINE
  5
BD
100
AcDbEntity
  8
1
  6
CONTINUOUS
 62
           3
100
AcDbLine
 10
474.710118446559
 20
621.292621145079
 11
466.857329405566
 21
589.241446
  0
LINE
  5
BC
100
AcDbEntity
  8
1
  6
CONTINUOUS
 62
           3
100
AcDbLine
 10
491.46273506728
 20
621.292621145079
 11
474.710118446559
 21
621.292621145079
  0
LINE
  5
BB
100
AcDbEntity
  8
1
  6
CONTINUOUS
 62
           3
100
AcDbLine
 10
488.75279991935
 20
610.232015084413
 11
491.46273506728
 21
621.292621145079
  0
LINE
  5
BA
100
AcDbEntity
  8
1
  6
CONTINUOUS
 62
           3
100
AcDbLine
 10
469.437990232183
 20
616.868378720838
 11
470.521964291342
 21
621.292621145079
  0
LINE
  5
B9
100
AcDbEntity
  8
1
  6
CONTINUOUS
 62
           3
100
AcDbLine
 10
458.967604844203
 20
616.868378720838
 11
469.437990232183
 21
616.868378720838
  0
LINE
  5
B8
100
AcDbEntity
  8
1
  6
CONTINUOUS
 62
           3
100
AcDbLine
 10
456.53468609919
 20
606.938415696953
 11
458.967604844203
 21
616.868378720838
  0
LINE
  5
B7
100
AcDbEntity
  8
1
  6
CONTINUOUS
 62
           3
100
AcDbLine
 10
467.005071487254
 20
606.938415696953
 11
456.53468609919
 21
606.938415696953
  0
LINE
  5
B6
100
AcDbEntity
  8
1
  6
CONTINUOUS
 62
           3
100
AcDbLine
 10
462.66917525033
 20
589.241446
 11
467.005071487254
 21
606.938415696953
  0
LINE
  5
B5
100
AcDbEntity
  8
1
  6
CONTINUOUS
 62
           3
100
AcDbLine
 10
445.916558629508
 20
589.241446
 11
462.66917525033
 21
589.241446
  0
LINE
  5
B4
100
AcDbEntity
  8
1
  6
CONTINUOUS
 62
           3
100
AcDbLine
 10
447.000532688815
 20
593.665688424182
 11
445.916558629508
 21
589.241446
  0
LINE
  5
B3
100
AcDbEntity
  8
1
  6
CONTINUOUS
 62
           3
100
AcDbLine
 10
457.470918076726
 20
593.665688424182
 11
447.000532688815
 21
593.665688424182
  0
LINE
  5
B2
100
AcDbEntity
  8
1
  6
CONTINUOUS
 62
           3
100
AcDbLine
 10
459.638866195144
 20
602.514173272797
 11
457.470918076726
 21
593.665688424182
  0
LINE
  5
B1
100
AcDbEntity
  8
1
  6
CONTINUOUS
 62
           3
100
AcDbLine
 10
449.168480807178
 20
602.514173272797
 11
459.638866195144
 21
602.514173272797
  0
LINE
  5
B0
100
AcDbEntity
  8
1
  6
CONTINUOUS
 62
           3
100
AcDbLine
 10
453.76934767057
 20
621.292621145079
 11
449.168480807178
 21
602.514173272797
  0
LINE
  5
AF
100
AcDbEntity
  8
1
  6
CONTINUOUS
 62
           3
100
AcDbLine
 10
470.521964291342
 20
621.292621145079
 11
453.76934767057
 21
621.292621145079
  0
LINE
  5
AE
100
AcDbEntity
  8
1
  6
CONTINUOUS
 62
           3
100
AcDbLine
 10
449.581193515407
 20
621.292621145079
 11
441.728404474392
 21
589.241446
  0
LINE
  5
AD
100
AcDbEntity
  8
1
  6
CONTINUOUS
 62
           3
100
AcDbLine
 10
443.2989622826
 20
621.292621145079
 11
449.581193515407
 21
621.292621145079
  0
LINE
  5
AC
100
AcDbEntity
  8
1
  6
CONTINUOUS
 62
           3
100
AcDbLine
 10
441.728404474392
 20
589.241446
 11
423.928749314802
 21
589.241446
  0
LINE
  5
AB
100
AcDbEntity
  8
1
  6
CONTINUOUS
 62
           3
100
AcDbLine
 10
436.530147300795
 20
593.665688424182
 11
443.2989622826
 21
621.292621145079
  0
LINE
  5
AA
100
AcDbEntity
  8
1
  6
CONTINUOUS
 62
           3
100
AcDbLine
 10
431.29495460681
 20
593.665688424182
 11
436.530147300795
 21
593.665688424182
  0
LINE
  5
A9
100
AcDbEntity
  8
1
  6
CONTINUOUS
 62
           3
100
AcDbLine
 10
438.063769588605
 20
621.292621145079
 11
431.29495460681
 21
593.665688424182
  0
LINE
  5
A8
100
AcDbEntity
  8
1
  6
CONTINUOUS
 62
           3
100
AcDbLine
 10
431.781538355795
 20
621.292621145079
 11
438.063769588605
 21
621.292621145079
  0
LINE
  5
A7
100
AcDbEntity
  8
1
  6
CONTINUOUS
 62
           3
100
AcDbLine
 10
423.928749314802
 20
589.241446
 11
431.781538355795
 21
621.292621145079
  0
LINE
  5
A6
100
AcDbEntity
  8
1
  6
CONTINUOUS
 62
           3
100
AcDbLine
 10
419.740595159676
 20
589.241446
 11
401.940940000028
 21
589.241446
  0
LINE
  5
A5
100
AcDbEntity
  8
1
  6
CONTINUOUS
 62
           3
100
AcDbLine
 10
430.303319348595
 20
632.353227205662
 11
419.740595159676
 21
589.241446
  0
LINE
  5
A4
100
AcDbEntity
  8
1
  6
CONTINUOUS
 62
           3
100
AcDbLine
 10
406.329992271303
 20
632.353227205662
 11
430.303319348595
 21
632.353227205662
  0
LINE
  5
A3
100
AcDbEntity
  8
1
  6
CONTINUOUS
 62
           3
100
AcDbLine
 10
404.975024697318
 20
626.822924175404
 11
406.329992271303
 21
632.353227205662
  0
LINE
  5
A2
100
AcDbEntity
  8
1
  6
CONTINUOUS
 62
           3
100
AcDbLine
 10
422.666120541851
 20
626.822924175404
 11
404.975024697318
 21
626.822924175404
  0
LINE
  5
A1
100
AcDbEntity
  8
1
  6
CONTINUOUS
 62
           3
100
AcDbLine
 10
414.542337985969
 20
593.665688424182
 11
422.666120541851
 21
626.822924175404
  0
LINE
  5
A0
100
AcDbEntity
  8
1
  6
CONTINUOUS
 62
           3
100
AcDbLine
 10
409.30714529209
 20
593.665688424182
 11
414.542337985969
 21
593.665688424182
  0
LINE
  5
9F
100
AcDbEntity
  8
1
  6
CONTINUOUS
 62
           3
100
AcDbLine
 10
416.07596027378
 20
621.292621145079
 11
409.30714529209
 21
593.665688424182
  0
LINE
  5
9E
100
AcDbEntity
  8
1
  6
CONTINUOUS
 62
           3
100
AcDbLine
 10
409.793729041082
 20
621.292621145079
 11
416.07596027378
 21
621.292621145079
  0
LINE
  5
9D
100
AcDbEntity
  8
1
  6
CONTINUOUS
 62
           3
100
AcDbLine
 10
401.940940000028
 20
589.241446
 11
409.793729041082
 21
621.292621145079
  0
LINE
  5
9C
100
AcDbEntity
  8
1
  6
CONTINUOUS
 62
           3
100
AcDbLine
 10
537.060621233542
 20
595.435385393909
 11
546.105781739634
 21
632.353227205662
  0
LINE
  5
9B
100
AcDbEntity
  8
1
  6
CONTINUOUS
 62
           3
100
AcDbLine
 10
546.105781739634
 20
632.353227205662
 11
540.242365922366
 21
632.353227205662
  0
LINE
  5
9A
100
AcDbEntity
  8
1
  6
CONTINUOUS
 62
           3
100
AcDbLine
 10
540.242365922366
 20
632.353227205662
 11
529.679641733424
 21
589.241446
  0
LINE
  5
99
100
AcDbEntity
  8
1
  6
CONTINUOUS
 62
           3
100
AcDbLine
 10
547.584000746995
 20
621.292621145079
 11
541.899159824306
 21
598.089930848477
  0
LINE
  5
98
100
AcDbEntity
  8
1
  6
CONTINUOUS
 62
           3
100
AcDbLine
 10
541.899159824306
 20
598.089930848477
 11
557.604737906227
 21
598.089930848477
  0
LINE
  5
97
100
AcDbEntity
  8
1
  6
CONTINUOUS
 62
           3
100
AcDbLine
 10
557.604737906227
 20
598.089930848477
 11
563.289578828836
 21
621.292621145079
  0
LINE
  5
96
100
AcDbEntity
  8
1
  6
CONTINUOUS
 62
           3
100
AcDbLine
 10
563.289578828836
 20
621.292621145079
 11
558.054386134912
 21
621.292621145079
  0
LINE
  5
95
100
AcDbEntity
  8
1
  6
CONTINUOUS
 62
           3
100
AcDbLine
 10
558.054386134912
 20
621.292621145079
 11
553.453519271518
 21
602.514173272797
  0
LINE
  5
94
100
AcDbEntity
  8
1
  6
CONTINUOUS
 62
           3
100
AcDbLine
 10
553.453519271518
 20
602.514173272797
 11
548.218326577565
 21
602.514173272797
  0
LINE
  5
93
100
AcDbEntity
  8
1
  6
CONTINUOUS
 62
           3
100
AcDbLine
 10
548.218326577565
 20
602.514173272797
 11
552.819193440917
 21
621.292621145079
  0
LINE
  5
92
100
AcDbEntity
  8
1
  6
CONTINUOUS
 62
           3
100
AcDbLine
 10
552.819193440917
 20
621.292621145079
 11
547.584000746995
 21
621.292621145079
  0
LINE
  5
91
100
AcDbEntity
  8
1
  6
CONTINUOUS
 62
           3
100
AcDbLine
 10
569.847917584977
 20
621.292621145079
 11
565.802471321962
 21
621.292621145079
  0
LINE
  5
90
100
AcDbEntity
  8
1
  6
CONTINUOUS
 62
           3
100
AcDbLine
 10
565.802471321962
 20
621.292621145079
 11
569.924766844159
 21
610.656747218661
  0
LINE
  5
8F
100
AcDbEntity
  8
1
  6
CONTINUOUS
 62
           3
100
AcDbLine
 10
569.924766844159
 20
610.656747218661
 11
560.117630399369
 21
598.089930848477
  0
LINE
  5
8E
100
AcDbEntity
  8
1
  6
CONTINUOUS
 62
           3
100
AcDbLine
 10
560.117630399369
 20
598.089930848477
 11
564.163076662366
 21
598.089930848477
  0
LINE
  5
8D
100
AcDbEntity
  8
1
  6
CONTINUOUS
 62
           3
100
AcDbLine
 10
564.163076662366
 20
598.089930848477
 11
571.267209242467
 21
607.193131370502
  0
LINE
  5
8C
100
AcDbEntity
  8
1
  6
CONTINUOUS
 62
           3
100
AcDbLine
 10
571.267209242467
 20
607.193131370502
 11
574.795464937151
 21
598.089930848477
  0
LINE
  5
8B
100
AcDbEntity
  8
1
  6
CONTINUOUS
 62
           3
100
AcDbLine
 10
574.795464937151
 20
598.089930848477
 11
578.8409112002
 21
598.089930848477
  0
LINE
  5
8A
100
AcDbEntity
  8
1
  6
CONTINUOUS
 62
           3
100
AcDbLine
 10
578.8409112002
 20
598.089930848477
 11
573.970213107195
 21
610.656747218603
  0
LINE
  5
89
100
AcDbEntity
  8
1
  6
CONTINUOUS
 62
           3
100
AcDbLine
 10
573.970213107195
 20
610.656747218603
 11
582.270443152278
 21
621.292621145079
  0
LINE
  5
88
100
AcDbEntity
  8
1
  6
CONTINUOUS
 62
           3
100
AcDbLine
 10
582.270443152278
 20
621.292621145079
 11
578.22499688922
 21
621.292621145079
  0
LINE
  5
87
100
AcDbEntity
  8
1
  6
CONTINUOUS
 62
           3
100
AcDbLine
 10
578.22499688922
 20
621.292621145079
 11
572.627770708934
 21
614.120363066823
  0
LINE
  5
86
100
AcDbEntity
  8
1
  6
CONTINUOUS
 62
           3
100
AcDbLine
 10
572.627770708934
 20
614.120363066823
 11
569.847917584977
 21
621.292621145079
  0
LINE
  5
85
100
AcDbEntity
  8
1
  6
CONTINUOUS
 62
           3
100
AcDbLine
 10
579.869770785715
 20
595.435385393909
 11
582.270443152234
 21
589.241446
  0
LINE
  5
84
100
AcDbEntity
  8
1
  6
CONTINUOUS
 62
           3
100
AcDbLine
 10
579.869770785715
 20
595.435385393909
 11
537.060621233542
 21
595.435385393909
  0
LINE
  5
83
100
AcDbEntity
  8
1
  6
CONTINUOUS
 62
           3
100
AcDbLine
 10
582.270443152234
 20
589.241446
 11
529.679641733424
 21
589.241446
  0
LINE
  5
82
100
AcDbEntity
  8
1
  6
CONTINUOUS
 62
           3
100
AcDbLine
 10
438.679627658994
 20
632.353227205662
 11
441.931549836476
 21
645.625954478319
  0
LINE
  5
81
100
AcDbEntity
  8
1
  6
CONTINUOUS
 62
           3
100
AcDbLine
 10
441.931549836476
 20
645.625954478319
 11
454.496012302194
 21
645.625954478319
  0
LINE
  5
80
100
AcDbEntity
  8
1
  6
CONTINUOUS
 62
           3
100
AcDbLine
 10
454.496012302194
 20
645.625954478319
 11
451.244090124519
 21
632.353227205662
  0
LINE
  5
7F
100
AcDbEntity
  8
1
  6
CONTINUOUS
 62
           3
100
AcDbLine
 10
451.244090124519
 20
632.353227205662
 11
438.679627658994
 21
632.353227205662
  0
LINE
  5
7E
100
AcDbEntity
  8
1
  6
CONTINUOUS
 62
           3
100
AcDbLine
 10
449.692000076515
 20
634.565348417793
 11
441.31569176616
 21
634.565348417793
  0
LINE
  5
7D
100
AcDbEntity
  8
1
  6
CONTINUOUS
 62
           3
100
AcDbLine
 10
451.859948194991
 20
643.413833266268
 11
449.692000076515
 21
634.565348417793
  0
LINE
  5
7C
100
AcDbEntity
  8
1
  6
CONTINUOUS
 62
           3
100
AcDbLine
 10
443.483639884502
 20
643.413833266268
 11
451.859948194991
 21
643.413833266268
  0
LINE
  5
7B
100
AcDbEntity
  8
1
  6
CONTINUOUS
 62
           3
100
AcDbLine
 10
441.31569176616
 20
634.565348417793
 11
443.483639884502
 21
643.413833266268
  0
LINE
  5
7A
100
AcDbEntity
  8
1
  6
CONTINUOUS
 62
           3
100
AcDbLine
 10
457.008904795186
 20
645.625954478319
 11
453.75698261765
 21
632.353227205662
  0
LINE
  5
79
100
AcDbEntity
  8
1
  6
CONTINUOUS
 62
           3
100
AcDbLine
 10
457.008904795186
 20
645.625954478319
 11
469.573367260766
 21
645.625954478319
  0
LINE
  5
78
100
AcDbEntity
  8
1
  6
CONTINUOUS
 62
           3
100
AcDbLine
 10
469.573367260766
 20
645.625954478319
 11
467.705843150912
 21
638.003650858332
  0
LINE
  5
77
100
AcDbEntity
  8
1
  6
CONTINUOUS
 62
           3
100
AcDbLine
 10
466.321445083233
 20
632.353227205662
 11
464.227368005593
 21
632.353227205662
  0
LINE
  5
76
100
AcDbEntity
  8
1
  6
CONTINUOUS
 62
           3
100
AcDbLine
 10
464.227368005593
 20
632.353227205662
 11
465.311342064966
 21
636.777469629844
  0
LINE
  5
75
100
AcDbEntity
  8
1
  6
CONTINUOUS
 62
           3
100
AcDbLine
 10
465.311342064966
 20
636.777469629844
 11
456.935033754437
 21
636.777469629844
  0
LINE
  5
74
100
AcDbEntity
  8
1
  6
CONTINUOUS
 62
           3
100
AcDbLine
 10
457.477020784028
 20
638.989590842033
 11
465.853329094409
 21
638.989590842033
  0
LINE
  5
73
100
AcDbEntity
  8
1
  6
CONTINUOUS
 62
           3
100
AcDbLine
 10
465.853329094409
 20
638.989590842033
 11
466.937303153731
 21
643.413833266268
  0
LINE
  5
72
100
AcDbEntity
  8
1
  6
CONTINUOUS
 62
           3
100
AcDbLine
 10
466.937303153731
 20
643.413833266268
 11
458.560994843212
 21
643.413833266268
  0
LINE
  5
71
100
AcDbEntity
  8
1
  6
CONTINUOUS
 62
           3
100
AcDbLine
 10
458.560994843212
 20
643.413833266268
 11
457.477020784028
 21
638.989590842033
  0
LINE
  5
70
100
AcDbEntity
  8
1
  6
CONTINUOUS
 62
           3
100
AcDbLine
 10
467.269163469345
 20
636.221341810781
 11
466.321445083233
 21
632.353227205662
  0
LINE
  5
6F
100
AcDbEntity
  8
1
  6
CONTINUOUS
 62
           3
100
AcDbLine
 10
453.75698261765
 20
632.353227205662
 11
455.851059695326
 21
632.353227205662
  0
LINE
  5
6E
100
AcDbEntity
  8
1
  6
CONTINUOUS
 62
           3
100
AcDbLine
 10
455.851059695326
 20
632.353227205662
 11
456.935033754437
 21
636.777469629844
  0
LINE
  5
6D
100
AcDbEntity
  8
1
  6
CONTINUOUS
 62
           3
100
AcDbLine
 10
474.180336831492
 20
645.625954478319
 11
472.086259753929
 21
645.625954478319
  0
LINE
  5
6C
100
AcDbEntity
  8
1
  6
CONTINUOUS
 62
           3
100
AcDbLine
 10
472.086259753929
 20
645.625954478319
 11
468.834337576363
 21
632.353227205662
  0
LINE
  5
6B
100
AcDbEntity
  8
1
  6
CONTINUOUS
 62
           3
100
AcDbLine
 10
468.834337576363
 20
632.353227205662
 11
470.928414654083
 21
632.353227205662
  0
LINE
  5
6A
100
AcDbEntity
  8
1
  6
CONTINUOUS
 62
           3
100
AcDbLine
 10
470.928414654083
 20
632.353227205662
 11
474.180336831492
 21
645.625954478319
  0
LINE
  5
69
100
AcDbEntity
  8
1
  6
CONTINUOUS
 62
           3
100
AcDbLine
 10
473.441307147068
 20
632.353227205662
 11
476.693229324612
 21
645.625954478319
  0
LINE
  5
68
100
AcDbEntity
  8
1
  6
CONTINUOUS
 62
           3
100
AcDbLine
 10
476.693229324612
 20
645.625954478319
 11
489.257691790202
 21
645.625954478319
  0
LINE
  5
67
100
AcDbEntity
  8
1
  6
CONTINUOUS
 62
           3
100
AcDbLine
 10
489.257691790202
 20
645.625954478319
 11
488.119519028076
 21
640.980499932891
  0
LINE
  5
66
100
AcDbEntity
  8
1
  6
CONTINUOUS
 62
           3
100
AcDbLine
 10
486.00576961268
 20
632.353227205662
 11
473.441307147068
 21
632.353227205662
  0
LINE
  5
65
100
AcDbEntity
  8
1
  6
CONTINUOUS
 62
           3
100
AcDbLine
 10
484.453679564633
 20
634.565348417793
 11
476.077371254303
 21
634.565348417793
  0
LINE
  5
64
100
AcDbEntity
  8
1
  6
CONTINUOUS
 62
           3
100
AcDbLine
 10
486.621627682927
 20
643.413833266268
 11
486.02544195055
 21
640.980499932891
  0
LINE
  5
63
100
AcDbEntity
  8
1
  6
CONTINUOUS
 62
           3
100
AcDbLine
 10
478.245319372631
 20
643.413833266268
 11
486.621627682927
 21
643.413833266268
  0
LINE
  5
62
100
AcDbEntity
  8
1
  6
CONTINUOUS
 62
           3
100
AcDbLine
 10
476.077371254303
 20
634.565348417793
 11
478.245319372631
 21
643.413833266268
  0
LINE
  5
61
100
AcDbEntity
  8
1
  6
CONTINUOUS
 62
           3
100
AcDbLine
 10
487.631730701452
 20
638.989590842033
 11
481.349499468647
 21
638.989590842033
  0
LINE
  5
60
100
AcDbEntity
  8
1
  6
CONTINUOUS
 62
           3
100
AcDbLine
 10
487.631730701452
 20
638.989590842033
 11
486.00576961268
 21
632.353227205662
  0
LINE
  5
5F
100
AcDbEntity
  8
1
  6
CONTINUOUS
 62
           3
100
AcDbLine
 10
481.349499468647
 20
638.989590842033
 11
480.807512439
 21
636.777469629844
  0
LINE
  5
5E
100
AcDbEntity
  8
1
  6
CONTINUOUS
 62
           3
100
AcDbLine
 10
480.807512439
 20
636.777469629844
 11
484.9956665944
 21
636.777469629844
  0
LINE
  5
5D
100
AcDbEntity
  8
1
  6
CONTINUOUS
 62
           3
100
AcDbLine
 10
484.9956665944
 20
636.777469629844
 11
484.453679564633
 21
634.565348417793
  0
LINE
  5
5C
100
AcDbEntity
  8
1
  6
CONTINUOUS
 62
           3
100
AcDbLine
 10
486.02544195055
 20
640.980499932891
 11
488.119519028076
 21
640.980499932891
  0
LINE
  5
5B
100
AcDbEntity
  8
1
  6
CONTINUOUS
 62
           3
100
AcDbLine
 10
488.518662105797
 20
632.353227205662
 11
490.612739183357
 21
632.353227205662
  0
LINE
  5
5A
100
AcDbEntity
  8
1
  6
CONTINUOUS
 62
           3
100
AcDbLine
 10
490.612739183357
 20
632.353227205662
 11
493.864661360926
 21
645.625954478319
  0
LINE
  5
59
100
AcDbEntity
  8
1
  6
CONTINUOUS
 62
           3
100
AcDbLine
 10
491.770584283362
 20
645.625954478319
 11
488.518662105797
 21
632.353227205662
  0
LINE
  5
58
100
AcDbEntity
  8
1
  6
CONTINUOUS
 62
           3
100
AcDbLine
 10
493.864661360926
 20
645.625954478319
 11
491.770584283362
 21
645.625954478319
  0
LINE
  5
57
100
AcDbEntity
  8
1
  6
CONTINUOUS
 62
           3
100
AcDbLine
 10
493.125631676527
 20
632.353227205662
 11
496.377553854042
 21
645.625954478319
  0
LINE
  5
56
100
AcDbEntity
  8
1
  6
CONTINUOUS
 62
           3
100
AcDbLine
 10
496.377553854042
 20
645.625954478319
 11
499.518669470383
 21
645.625954478319
  0
LINE
  5
55
100
AcDbEntity
  8
1
  6
CONTINUOUS
 62
           3
100
AcDbLine
 10
499.518669470383
 20
645.625954478319
 11
504.002507336658
 21
634.012318114746
  0
LINE
  5
54
100
AcDbEntity
  8
1
  6
CONTINUOUS
 62
           3
100
AcDbLine
 10
504.002507336658
 20
634.012318114746
 11
506.84793924201
 21
645.625954478319
  0
LINE
  5
53
100
AcDbEntity
  8
1
  6
CONTINUOUS
 62
           3
100
AcDbLine
 10
506.84793924201
 20
645.625954478319
 11
508.942016319625
 21
645.625954478319
  0
LINE
  5
52
100
AcDbEntity
  8
1
  6
CONTINUOUS
 62
           3
100
AcDbLine
 10
508.942016319625
 20
645.625954478319
 11
505.690094142005
 21
632.353227205662
  0
LINE
  5
51
100
AcDbEntity
  8
1
  6
CONTINUOUS
 62
           3
100
AcDbLine
 10
505.690094142005
 20
632.353227205662
 11
502.447415653236
 21
632.353227205662
  0
LINE
  5
50
100
AcDbEntity
  8
1
  6
CONTINUOUS
 62
           3
100
AcDbLine
 10
502.447415653236
 20
632.353227205662
 11
498.666259317526
 21
642.146840629534
  0
LINE
  5
4F
100
AcDbEntity
  8
1
  6
CONTINUOUS
 62
           3
100
AcDbLine
 10
498.666259317526
 20
642.146840629534
 11
498.025711051016
 21
643.805931538597
  0
LINE
  5
4E
100
AcDbEntity
  8
1
  6
CONTINUOUS
 62
           3
100
AcDbLine
 10
498.025711051016
 20
643.805931538597
 11
495.219708754087
 21
632.353227205662
  0
LINE
  5
4D
100
AcDbEntity
  8
1
  6
CONTINUOUS
 62
           3
100
AcDbLine
 10
495.219708754087
 20
632.353227205662
 11
493.125631676527
 21
632.353227205662
  0
LINE
  5
4C
100
AcDbEntity
  8
1
  6
CONTINUOUS
 62
           3
100
AcDbLine
 10
508.20298663512
 20
632.353227205662
 11
515.714416914017
 21
645.625954478319
  0
LINE
  5
4B
100
AcDbEntity
  8
1
  6
CONTINUOUS
 62
           3
100
AcDbLine
 10
515.714416914017
 20
645.625954478319
 11
519.759863176992
 21
645.625954478319
  0
LINE
  5
4A
100
AcDbEntity
  8
1
  6
CONTINUOUS
 62
           3
100
AcDbLine
 10
519.759863176992
 20
645.625954478319
 11
520.767449100754
 21
632.353227205662
  0
LINE
  5
49
100
AcDbEntity
  8
1
  6
CONTINUOUS
 62
           3
100
AcDbLine
 10
520.767449100754
 20
632.353227205662
 11
518.737766937685
 21
632.353227205662
  0
LINE
  5
48
100
AcDbEntity
  8
1
  6
CONTINUOUS
 62
           3
100
AcDbLine
 10
518.737766937685
 20
632.353227205662
 11
518.569835950419
 21
634.565348417793
  0
LINE
  5
47
100
AcDbEntity
  8
1
  6
CONTINUOUS
 62
           3
100
AcDbLine
 10
518.569835950419
 20
634.565348417793
 11
511.833688670054
 21
634.565348417793
  0
LINE
  5
46
100
AcDbEntity
  8
1
  6
CONTINUOUS
 62
           3
100
AcDbLine
 10
511.833688670054
 20
634.565348417793
 11
510.581783623692
 21
632.353227205662
  0
LINE
  5
45
100
AcDbEntity
  8
1
  6
CONTINUOUS
 62
           3
100
AcDbLine
 10
510.581783623692
 20
632.353227205662
 11
508.20298663512
 21
632.353227205662
  0
LINE
  5
44
100
AcDbEntity
  8
1
  6
CONTINUOUS
 62
           3
100
AcDbLine
 10
513.085593716586
 20
636.777469629844
 11
518.401904963097
 21
636.777469629844
  0
LINE
  5
43
100
AcDbEntity
  8
1
  6
CONTINUOUS
 62
           3
100
AcDbLine
 10
518.401904963097
 20
636.777469629844
 11
517.898112001241
 21
643.413833266268
  0
LINE
  5
42
100
AcDbEntity
  8
1
  6
CONTINUOUS
 62
           3
100
AcDbLine
 10
517.898112001241
 20
643.413833266268
 11
516.841308855952
 21
643.413833266268
  0
LINE
  5
41
100
AcDbEntity
  8
1
  6
CONTINUOUS
 62
           3
100
AcDbLine
 10
513.085593716586
 20
636.777469629844
 11
516.841308855952
 21
643.413833266268
  0
LINE
  5
40
100
AcDbEntity
  8
1
  6
CONTINUOUS
 62
           3
100
AcDbLine
 10
526.532263771443
 20
645.625954478319
 11
523.280341593875
 21
632.353227205662
  0
LINE
  5
3F
100
AcDbEntity
  8
1
  6
CONTINUOUS
 62
           3
100
AcDbLine
 10
523.280341593875
 20
632.353227205662
 11
535.844804059454
 21
632.353227205662
  0
LINE
  5
3E
100
AcDbEntity
  8
1
  6
CONTINUOUS
 62
           3
100
AcDbLine
 10
535.844804059454
 20
632.353227205662
 11
536.386791089115
 21
634.565348417793
  0
LINE
  5
3D
100
AcDbEntity
  8
1
  6
CONTINUOUS
 62
           3
100
AcDbLine
 10
536.386791089115
 20
634.565348417793
 11
525.916405701095
 21
634.565348417793
  0
LINE
  5
3C
100
AcDbEntity
  8
1
  6
CONTINUOUS
 62
           3
100
AcDbLine
 10
525.916405701095
 20
634.565348417793
 11
528.626340849057
 21
645.625954478319
  0
LINE
  5
3B
100
AcDbEntity
  8
1
  6
CONTINUOUS
 62
           3
100
AcDbLine
 10
528.626340849057
 20
645.625954478319
 11
526.532263771443
 21
645.625954478319
  0
LINE
  5
3A
100
AcDbEntity
  8
1
  6
CONTINUOUS
 62
           3
100
AcDbLine
 10
573.147576135727
 20
639.441557213841
 11
573.147576135727
 21
636.692501788281
  0
LINE
  5
39
100
AcDbEntity
  8
1
  6
CONTINUOUS
 62
           3
100
AcDbLine
 10
572.275128436611
 20
636.692501788281
 11
572.275128436611
 21
643.550969963455
  0
LINE
  5
38
100
AcDbEntity
  8
1
  6
CONTINUOUS
 62
           3
100
AcDbLine
 10
572.275128436611
 20
643.550969963455
 11
574.717048295852
 21
643.550969963455
  0
LINE
  5
37
100
AcDbEntity
  8
1
  6
CONTINUOUS
 62
           3
100
AcDbLine
 10
574.717048295852
 20
643.550969963455
 11
575.013404878204
 21
643.550969963455
  0
LINE
  5
36
100
AcDbEntity
  8
1
  6
CONTINUOUS
 62
           3
100
AcDbLine
 10
576.84703939277
 20
638.572135554626
 11
576.84703939277
 21
636.692501788281
  0
LINE
  5
35
100
AcDbEntity
  8
1
  6
CONTINUOUS
 62
           3
100
AcDbLine
 10
576.84703939277
 20
636.692501788281
 11
575.885852577265
 21
636.692501788281
  0
LINE
  5
34
100
AcDbEntity
  8
1
  6
CONTINUOUS
 62
           3
100
AcDbLine
 10
575.885852577265
 20
636.692501788281
 11
575.885852577265
 21
638.3143570559
  0
LINE
  5
33
100
AcDbEntity
  8
1
  6
CONTINUOUS
 62
           3
100
AcDbLine
 10
574.872637837345
 20
639.441557213841
 11
573.147576135727
 21
639.441557213841
  0
LINE
  5
32
100
AcDbEntity
  8
1
  6
CONTINUOUS
 62
           3
100
AcDbLine
 10
573.147576135727
 20
636.692501788281
 11
572.275128436611
 21
636.692501788281
  0
LINE
  5
31
100
AcDbEntity
  8
1
  6
CONTINUOUS
 62
           3
100
AcDbLine
 10
573.147576135727
 20
640.291780541275
 11
575.135059363669
 21
640.291780541275
  0
LINE
  5
30
100
AcDbEntity
  8
1
  6
CONTINUOUS
 62
           3
100
AcDbLine
 10
575.003549127813
 20
642.747438531278
 11
573.147576135727
 21
642.747438531278
  0
LINE
  5
2F
100
AcDbEntity
  8
1
  6
CONTINUOUS
 62
           3
100
AcDbLine
 10
573.147576135727
 20
642.747438531278
 11
573.147576135727
 21
640.291780541275
  0
ENDBLK
  5
E3
100
AcDbEntity
  8
0
100
AcDbBlockEnd
  0
BLOCK
  5
2A
100
AcDbEntity
  8
0
100
AcDbBlockBegin
  2
WANNE_PRIME_LINE_259
 70
           0
 10
0.0
 20
0.0
 30
0.0
  3
WANNE_PRIME_LINE_259
  1

  0
ARC
  5
FC
100
AcDbEntity
  8
1
  6
CONTINUOUS
 62
           7
100
AcDbCircle
 10
428.43425100003
 20
614.241446
 40
100.0
100
AcDbArc
 50
90.0
 51
164.079738371119
  0
ARC
  5
FB
100
AcDbEntity
  8
1
  6
CONTINUOUS
 62
           7
100
AcDbCircle
 10
428.15061424153
 20
287.490139000001
 40
100.0
100
AcDbArc
 50
-164.179209649408
 51
-90.0
  0
ARC
  5
FA
100
AcDbEntity
  8
1
  6
CONTINUOUS
 62
           7
100
AcDbCircle
 10
1571.849385000031
 20
287.490139000001
 40
100.0
100
AcDbArc
 50
-90.0
 51
-15.820790186565
  0
ARC
  5
F9
100
AcDbEntity
  8
1
  6
CONTINUOUS
 62
           7
100
AcDbCircle
 10
1571.565747999967
 20
614.241446
 40
100.0
100
AcDbArc
 50
15.92026154957
 51
90.0
  0
SPLINE
  5
F8
100
AcDbEntity
  8
1
  6
CONTINUOUS
 62
           7
100
AcDbSpline
210
0.0
220
0.0
230
1.0
 70
           0
 71
           3
 72
          41
 73
          38
 74
          77
 42
0.00000000001
 43
0.00000000001
 44
0.00000000001
 40
-1.9332773527505083
 40
-0.0519149600601736
 40
1.8294474326301575
 40
3.8160231382418295
 40
6.0890057211309054
 40
8.7583165725678391
 40
11.856343216495894
 40
15.358060651054204
 40
19.202594105613109
 40
23.306173214999838
 40
27.570576436275807
 40
31.889464432284349
 40
36.153867653561399
 40
40.257446762947723
 40
44.101980217507069
 40
47.603697652065051
 40
50.701724295992321
 40
53.37103514742941
 40
55.64401773031922
 40
57.63059343593018
 40
59.511955828620259
 40
61.498531534232306
 40
63.771514117120759
 40
66.440824968558076
 40
69.538851612485587
 40
73.040569047043533
 40
76.885102501603342
 40
80.988681610989616
 40
85.253084832265699
 40
89.571972828274227
 40
93.836376049550722
 40
97.939955158937437
 40
101.78448861349675
 40
105.28620604805459
 40
108.38423269198208
 40
111.05354354341992
 40
113.32652612630937
 40
115.31310183192045
 40
117.1944642246104
 40
119.07582661730073
 40
120.95718900999107
 10
1025.102286043086
 20
120.3742534243468
 30
0.0
 10
1024.6788107928321
 20
122.2073363916595
 30
0.0
 10
1023.478460477079
 20
123.9204447996497
 30
0.0
 10
1021.591518974496
 20
125.4896587199094
 30
0.0
 10
1019.073679516376
 20
126.896964879393
 30
0.0
 10
1015.992047953821
 20
128.1095211398663
 30
0.0
 10
1012.433657004863
 20
129.09310716205511
 30
0.0
 10
1008.502717517492
 20
129.8181178815023
 30
0.0
 10
1004.31629616962
 20
130.26229084853301
 30
0.0
 10
1000.000000000001
 20
130.41189331571221
 30
0.0
 10
995.68370383037905
 20
130.26229084853301
 30
0.0
 10
991.4972824825079
 20
129.8181178815023
 30
0.0
 10
987.56634299513689
 20
129.09310716205511
 30
0.0
 10
984.00795204617793
 20
128.1095211398663
 30
0.0
 10
980.92632048362498
 20
126.896964879392
 30
0.0
 10
978.40848102550399
 20
125.4896587199103
 30
0.0
 10
976.52153952292201
 20
123.92044479964881
 30
0.0
 10
975.32118920716698
 20
122.2073363916586
 30
0.0
 10
974.89771395691491
 20
120.3742534243481
 30
0.0
 10
975.32118920716789
 20
118.5411704570331
 30
0.0
 10
976.52153952292201
 20
116.8280620490452
 30
0.0
 10
978.40848102550399
 20
115.25884812878419
 30
0.0
 10
980.92632048362498
 20
113.851541969301
 30
0.0
 10
984.00795204617793
 20
112.63898570882731
 30
0.0
 10
987.56634299513689
 20
111.65539968663801
 30
0.0
 10
991.49728248250904
 20
110.9303889671926
 30
0.0
 10
995.68370383037905
 20
110.4862160001596
 30
0.0
 10
1000.0
 20
110.3366135329814
 30
0.0
 10
1004.31629616962
 20
110.4862160001605
 30
0.0
 10
1008.502717517492
 20
110.9303889671917
 30
0.0
 10
1012.433657004863
 20
111.6553996866385
 30
0.0
 10
1015.992047953822
 20
112.63898570882731
 30
0.0
 10
1019.073679516375
 20
113.8515419693006
 30
0.0
 10
1021.591518974496
 20
115.2588481287837
 30
0.0
 10
1023.478460477079
 20
116.8280620490452
 30
0.0
 10
1024.6788107928321
 20
118.54117045703489
 30
0.0
 10
1025.102286043086
 20
120.3742534243468
 30
0.0
 10
1024.6788107928321
 20
122.2073363916595
 30
0.0
 11
1024.8963079767843
 21
121.26586370086525
 31
0.0
 11
1024.5932300386723
 21
122.17170838647901
 31
0.0
 11
1024.1189905922411
 21
123.00629706173176
 31
0.0
 11
1023.4216398227321
 21
123.87232996864168
 31
0.0
 11
1022.6106477445298
 21
124.64213321353559
 31
0.0
 11
1021.5549667257161
 21
125.44061407715643
 31
0.0
 11
1020.4261812093423
 21
126.14100565527127
 31
0.0
 11
1019.0501630117629
 21
126.85027345484275
 31
0.0
 11
1017.6271118049574
 21
127.46615840531373
 31
0.0
 11
1015.9767717822899
 21
128.06589127485773
 31
0.0
 11
1014.2958794165608
 21
128.57836441438457
 31
0.0
 11
1012.4238598669493
 21
129.05209411261598
 31
0.0
 11
1010.5322460415107
 21
129.44379771196913
 31
0.0
 11
1008.4968543252104
 21
129.77899239089854
 31
0.0
 11
1006.449736224347
 21
130.03593608862047
 31
0.0
 11
1004.3135440200375
 21
130.22428376166027
 31
0.0
 11
1002.1718475165627
 21
130.33661726095454
 31
0.0
 11
1000.0000000000006
 21
130.37425528833336
 31
0.0
 11
997.82815248343809
 21
130.33661726095454
 31
0.0
 11
995.68645597996203
 21
130.22428376166025
 31
0.0
 11
993.55026377565207
 21
130.03593608862045
 31
0.0
 11
991.50314567478927
 21
129.77899239089854
 31
0.0
 11
989.46775395848942
 21
129.44379771196915
 31
0.0
 11
987.57614013305033
 21
129.05209411261598
 31
0.0
 11
985.70412058343845
 21
128.57836441438451
 31
0.0
 11
984.0232282177094
 21
128.06589127485759
 31
0.0
 11
982.37288819504249
 21
127.46615840531314
 31
0.0
 11
980.94983698823773
 21
126.85027345484212
 31
0.0
 11
979.57381879065838
 21
126.14100565527139
 31
0.0
 11
978.44503327428424
 21
125.44061407715688
 31
0.0
 11
977.38935225547084
 21
124.64213321353562
 31
0.0
 11
976.57836017726845
 21
123.87232996864095
 31
0.0
 11
975.88100940775894
 21
123.00629706173058
 31
0.0
 11
975.40676996132709
 21
122.17170838647833
 31
0.0
 11
975.10369202321567
 21
121.26586370086558
 31
0.0
 11
975.00070299006552
 21
120.37425342434761
 31
0.0
 11
975.10369202321613
 21
119.48264314782868
 31
0.0
 11
975.40676996132777
 21
118.57679846221414
 31
0.0
 11
975.88100940775973
 21
117.74220978696172
 31
0.0
 11
976.57836017726856
 21
116.87617688005275
 31
0.0
 11
977.38935225547038
 21
116.10637363515887
 31
0.0
 11
978.44503327428424
 21
115.30789277153741
 31
0.0
 11
979.57381879065838
 21
114.60750119342239
 31
0.0
 11
980.94983698823773
 21
113.89823339385111
 31
0.0
 11
982.37288819504261
 21
113.28234844338012
 31
0.0
 11
984.02322821770917
 21
112.6826155738359
 31
0.0
 11
985.70412058343823
 21
112.1701424343089
 31
0.0
 11
987.57614013305056
 21
111.69641273607742
 31
0.0
 11
989.46775395849011
 21
111.3047091367248
 31
0.0
 11
991.50314567479029
 21
110.96951445779582
 31
0.0
 11
993.55026377565287
 21
110.71257076007331
 31
0.0
 11
995.68645597996203
 21
110.52422308703277
 31
0.0
 11
997.82815248343741
 21
110.41188958773859
 31
0.0
 11
999.99999999999977
 21
110.37425156036009
 31
0.0
 11
1002.1718475165621
 21
110.41188958773904
 31
0.0
 11
1004.3135440200373
 21
110.52422308703333
 31
0.0
 11
1006.4497362243471
 21
110.71257076007331
 31
0.0
 11
1008.4968543252105
 21
110.96951445779536
 31
0.0
 11
1010.5322460415107
 21
111.30470913672467
 31
0.0
 11
1012.4238598669494
 21
111.6964127360777
 31
0.0
 11
1014.2958794165614
 21
112.1701424343091
 31
0.0
 11
1015.9767717822906
 21
112.6826155738359
 31
0.0
 11
1017.6271118049573
 21
113.2823484433799
 31
0.0
 11
1019.0501630117622
 21
113.89823339385075
 31
0.0
 11
1020.4261812093416
 21
114.60750119342188
 31
0.0
 11
1021.554966725716
 21
115.30789277153696
 31
0.0
 11
1022.6106477445301
 21
116.10637363515855
 31
0.0
 11
1023.4216398227322
 21
116.87617688005299
 31
0.0
 11
1024.1189905922411
 21
117.74220978696306
 31
0.0
 11
1024.5932300386723
 21
118.57679846221536
 31
0.0
 11
1024.8963079767843
 21
119.48264314782868
 31
0.0
 11
1024.9978571202289
 21
120.38048622613132
 31
0.0
 11
1024.8905484179591
 21
121.29079490800305
 31
0.0
 11
1024.7846796053955
 21
121.74906564983128
 31
0.0
 11
1024.8905484179591
 21
121.29079490800315
 31
0.0
 11
1024.9978571202289
 21
120.82629136439051
 31
0.0
 11
1024.8963079767843
 21
121.26586370086525
 31
0.0
  0
CIRCLE
  5
F7
100
AcDbEntity
  8
WANNE
  6
CONTINUOUS
 62
           7
100
AcDbCircle
 10
999.999999999994
 20
318.0
 40
45.0
  0
CIRCLE
  5
F6
100
AcDbEntity
  8
WANNE
  6
CONTINUOUS
 62
           7
100
AcDbCircle
 10
999.999999999994
 20
318.0
 40
26.0
  0
ARC
  5
F5
100
AcDbEntity
  8
1
  6
CONTINUOUS
 62
           7
100
AcDbCircle
 10
1002.948924732283
 20
450.366961428231
 40
697.429457783378
100
AcDbArc
 50
164.079738371119
 51
-164.179209649408
  0
ARC
  5
F4
100
AcDbEntity
  8
1
  6
CONTINUOUS
 62
           7
100
AcDbCircle
 10
997.051069749333
 20
450.366960999364
 40
697.429462246091
100
AcDbArc
 50
-15.820790186565
 51
15.920261549571
  0
ARC
  5
F3
100
AcDbEntity
  8
1
  6
CONTINUOUS
 62
           7
100
AcDbCircle
 10
400.0
 20
450.0
 40
350.0
100
AcDbArc
 50
180.0
 51
-90.0
  0
ARC
  5
F2
100
AcDbEntity
  8
1
  6
CONTINUOUS
 62
           7
100
AcDbCircle
 10
1600.0
 20
450.0
 40
350.0
100
AcDbArc
 50
-90.0
 51
0.0
  0
ARC
  5
F1
100
AcDbEntity
  8
1
  6
CONTINUOUS
 62
           7
100
AcDbCircle
 10
400.0
 20
450.0
 40
350.0
100
AcDbArc
 50
90.0
 51
180.0
  0
ARC
  5
F0
100
AcDbEntity
  8
1
  6
CONTINUOUS
 62
           7
100
AcDbCircle
 10
1600.0
 20
450.0
 40
350.0
100
AcDbArc
 50
0.0
 51
90.0
  0
ARC
  5
EF
100
AcDbEntity
  8
1
  6
CONTINUOUS
 62
           7
100
AcDbCircle
 10
450.0
 20
450.0
 40
450.0
100
AcDbArc
 50
180.0
 51
-90.0
  0
ARC
  5
EE
100
AcDbEntity
  8
1
  6
CONTINUOUS
 62
           7
100
AcDbCircle
 10
1550.0
 20
450.0
 40
450.0
100
AcDbArc
 50
-90.0
 51
0.0
  0
ARC
  5
ED
100
AcDbEntity
  8
1
  6
CONTINUOUS
 62
           7
100
AcDbCircle
 10
1550.0
 20
450.0
 40
450.0
100
AcDbArc
 50
0.0
 51
90.0
  0
ARC
  5
EC
100
AcDbEntity
  8
1
  6
CONTINUOUS
 62
           7
100
AcDbCircle
 10
450.0
 20
450.0
 40
450.0
100
AcDbArc
 50
90.0
 51
180.0
  0
LINE
  5
EB
100
AcDbEntity
  8
1
  6
CONTINUOUS
 62
           7
100
AcDbLine
 10
428.15061424153
 20
187.490139000001
 11
1571.849385000031
 21
187.490139000001
  0
LINE
  5
EA
100
AcDbEntity
  8
1
  6
CONTINUOUS
 62
           7
100
AcDbLine
 10
428.43425100003
 20
714.241446
 11
1571.565747999967
 21
714.241446
  0
LINE
  5
E9
100
AcDbEntity
  8
1
  6
CONTINUOUS
 62
           7
100
AcDbLine
 10
400.0
 20
100.0
 11
1600.0
 21
100.0
  0
LINE
  5
E8
100
AcDbEntity
  8
1
  6
CONTINUOUS
 62
           7
100
AcDbLine
 10
400.0
 20
800.0
 11
1600.0
 21
800.0
  0
LINE
  5
E7
100
AcDbEntity
  8
WANNE
  6
CONTINUOUS
 62
           7
100
AcDbLine
 10
450.0
 20
900.0
 11
1550.0
 21
900.0
  0
LINE
  5
E6
100
AcDbEntity
  8
WANNE
  6
CONTINUOUS
 62
           7
100
AcDbLine
 10
450.0
 20
0.0
 11
1550.0
 21
0.0
  0
LINE
  5
E5
100
AcDbEntity
  8
MITTELLINIEN
  6
DOT_CENTER
 62
           3
100
AcDbLine
 10
1000.0
 20
381.989954999999
 11
1000.0
 21
252.321980999999
  0
LINE
  5
E4
100
AcDbEntity
  8
MITTELLINIEN
  6
DOT_CENTER
 62
           3
100
AcDbLine
 10
1063.989954999998
 20
318.0
 11
934.321980999987
 21
318.0
  0
ENDBLK
  5
FD
100
AcDbEntity
  8
0
100
AcDbBlockEnd
  0
ENDSEC
  0
SECTION
  2
ENTITIES
  0
TEXT
  5
101
100
AcDbEntity
  8
1
 62
           3
100
AcDbText
 10
1049.999999999988
 20
368.0
 40
35.0
  1
ø 52
 41
0.71262
  7
CONVERTER_1
100
AcDbText
  0
TEXT
  5
100
100
AcDbEntity
  8
1
 62
           2
100
AcDbText
 10
401.940940000028
 20
499.241446
 40
35.0
  1
Prime-line 259
 41
0.71262
  7
CONVERTER_1
100
AcDbText
  0
INSERT
  5
2D
100
AcDbEntity
  8
0
100
AcDbBlockReference
  2
DLX
 10
0.0
 20
0.0
  0
INSERT
  5
2E
100
AcDbEntity
  8
0
100
AcDbBlockReference
  2
WANNE_PRIME_LINE_259
 10
0.0
 20
0.0
  0
ENDSEC
  0
SECTION
  2
OBJECTS
  0
DICTIONARY
  5
19
100
AcDbDictionary
  3
ACAD_GROUP
350
1A
  3
ACAD_MLINESTYLE
350
1B
  0
DICTIONARY
  5
1A
102
{ACAD_REACTORS
330
19
102
}
100
AcDbDictionary
  0
DICTIONARY
  5
1B
102
{ACAD_REACTORS
330
19
102
}
100
AcDbDictionary
  3
STANDARD
350
1C
  0
MLINESTYLE
  5
1C
102
{ACAD_REACTORS
330
1B
102
}
100
AcDbMlineStyle
  2
STANDARD
 70
           0
  3

 62
           0
 51
90.0
 52
90.0
 71
           2
 49
0.5
 62
         256
  6
BYLAYER
 49
-0.5
 62
         256
  6
BYLAYER
  0
ENDSEC
  0
EOF
