  0
SECTION
  2
HEADER
  9
$ACADVER
  1
AC1014
  9
$ACADMAINTVER
 70
           0
  9
$DWGCODEPAGE
  3
ANSI_1252
  9
$INSBASE
 10
0.0
 20
0.0
 30
0.0
  9
$EXTMIN
 10
1.000000000000E+20
 20
1.000000000000E+20
 30
1.000000000000E+20
  9
$EXTMAX
 10
-1.000000000000E+20
 20
-1.000000000000E+20
 30
-1.000000000000E+20
  9
$LIMMIN
 10
0.0
 20
0.0
  9
$LIMMAX
 10
0.0
 20
0.0
  9
$ORTHOMODE
 70
           0
  9
$REGENMODE
 70
           1
  9
$FILLMODE
 70
           1
  9
$QTEXTMODE
 70
           0
  9
$MIRRTEXT
 70
           1
  9
$DRAGMODE
 70
           2
  9
$LTSCALE
 40
1.0
  9
$OSMODE
 70
           0
  9
$ATTMODE
 70
           1
  9
$TEXTSIZE
 40
0.2
  9
$TRACEWID
 40
0.05
  9
$TEXTSTYLE
  7
STANDARD
  9
$CLAYER
  8
0
  9
$CELTYPE
  6
CONTINUOUS
  9
$CECOLOR
 62
         256
  9
$CELTSCALE
 40
1.0
  9
$DELOBJ
 70
           1
  9
$DISPSILH
 70
           0
  9
$DIMSCALE
 40
1.0
  9
$DIMASZ
 40
0.18
  9
$DIMEXO
 40
0.0625
  9
$DIMDLI
 40
0.38
  9
$DIMRND
 40
0.0
  9
$DIMDLE
 40
0.0
  9
$DIMEXE
 40
0.18
  9
$DIMTP
 40
0.0
  9
$DIMTM
 40
0.0
  9
$DIMTXT
 40
0.18
  9
$DIMCEN
 40
0.09
  9
$DIMTSZ
 40
0.0
  9
$DIMTOL
 70
           0
  9
$DIMLIM
 70
           0
  9
$DIMTIH
 70
           1
  9
$DIMTOH
 70
           1
  9
$DIMSE1
 70
           0
  9
$DIMSE2
 70
           0
  9
$DIMTAD
 70
           0
  9
$DIMZIN
 70
           0
  9
$DIMBLK
  1

  9
$DIMASO
 70
           1
  9
$DIMSHO
 70
           1
  9
$DIMPOST
  1

  9
$DIMAPOST
  1

  9
$DIMALT
 70
           0
  9
$DIMALTD
 70
           2
  9
$DIMALTF
 40
25.4
  9
$DIMLFAC
 40
1.0
  9
$DIMTOFL
 70
           0
  9
$DIMTVP
 40
0.0
  9
$DIMTIX
 70
           0
  9
$DIMSOXD
 70
           0
  9
$DIMSAH
 70
           0
  9
$DIMBLK1
  1

  9
$DIMBLK2
  1

  9
$DIMSTYLE
  2
STANDARD
  9
$DIMCLRD
 70
           0
  9
$DIMCLRE
 70
           0
  9
$DIMCLRT
 70
           0
  9
$DIMTFAC
 40
1.0
  9
$DIMGAP
 40
0.09
  9
$DIMJUST
 70
           0
  9
$DIMSD1
 70
           0
  9
$DIMSD2
 70
           0
  9
$DIMTOLJ
 70
           1
  9
$DIMTZIN
 70
           0
  9
$DIMALTZ
 70
           0
  9
$DIMALTTZ
 70
           0
  9
$DIMFIT
 70
           3
  9
$DIMUPT
 70
           0
  9
$DIMUNIT
 70
           2
  9
$DIMDEC
 70
           4
  9
$DIMTDEC
 70
           4
  9
$DIMALTU
 70
           2
  9
$DIMALTTD
 70
           2
  9
$DIMTXSTY
  7
STANDARD
  9
$DIMAUNIT
 70
           0
  9
$LUNITS
 70
           2
  9
$LUPREC
 70
           4
  9
$SKETCHINC
 40
0.1
  9
$FILLETRAD
 40
0.0
  9
$AUNITS
 70
           0
  9
$AUPREC
 70
           0
  9
$MENU
  1
acad
  9
$ELEVATION
 40
0.0
  9
$PELEVATION
 40
0.0
  9
$THICKNESS
 40
0.0
  9
$LIMCHECK
 70
           0
  9
$BLIPMODE
 70
           1
  9
$CHAMFERA
 40
0.0
  9
$CHAMFERB
 40
0.0
  9
$CHAMFERC
 40
0.0
  9
$CHAMFERD
 40
0.0
  9
$SKPOLY
 70
           0
  9
$TDCREATE
 40
0.000000000
  9
$TDUPDATE
 40
0.000000000
  9
$TDINDWG
 40
0.0000000000
  9
$TDUSRTIMER
 40
0.0000000000
  9
$USRTIMER
 70
           1
  9
$ANGBASE
 50
0.0
  9
$ANGDIR
 70
           0
  9
$PDMODE
 70
           0
  9
$PDSIZE
 40
0.0
  9
$PLINEWID
 40
0.0
  9
$COORDS
 70
           0
  9
$SPLFRAME
 70
           0
  9
$SPLINETYPE
 70
           6
  9
$SPLINESEGS
 70
           8
  9
$ATTDIA
 70
           0
  9
$ATTREQ
 70
           1
  9
$HANDLING
 70
           1
  9
$HANDSEED
  5
105
  9
$SURFTAB1
 70
           6
  9
$SURFTAB2
 70
           6
  9
$SURFTYPE
 70
           6
  9
$SURFU
 70
           6
  9
$SURFV
 70
           6
  9
$UCSNAME
  2

  9
$UCSORG
 10
0.0
 20
0.0
 30
0.0
  9
$UCSXDIR
 10
1.0
 20
0.0
 30
0.0
  9
$UCSYDIR
 10
0.0
 20
1.0
 30
0.0
  9
$PUCSNAME
  2

  9
$PUCSORG
 10
0.0
 20
0.0
 30
0.0
  9
$PUCSXDIR
 10
1.0
 20
0.0
 30
0.0
  9
$PUCSYDIR
 10
0.0
 20
1.0
 30
0.0
  9
$USERI1
 70
           0
  9
$USERI2
 70
           0
  9
$USERI3
 70
           0
  9
$USERI4
 70
           0
  9
$USERI5
 70
           0
  9
$USERR1
 40
0.0
  9
$USERR2
 40
0.0
  9
$USERR3
 40
0.0
  9
$USERR4
 40
0.0
  9
$USERR5
 40
0.0
  9
$WORLDVIEW
 70
           1
  9
$SHADEDGE
 70
           3
  9
$SHADEDIF
 70
          70
  9
$TILEMODE
 70
           1
  9
$MAXACTVP
 70
          16
  9
$PINSBASE
 10
0.0
 20
0.0
 30
0.0
  9
$PLIMCHECK
 70
           0
  9
$PEXTMIN
 10
1.000000000000E+20
 20
1.000000000000E+20
 30
1.000000000000E+20
  9
$PEXTMAX
 10
-1.000000000000E+20
 20
-1.000000000000E+20
 30
-1.000000000000E+20
  9
$PLIMMIN
 10
0.0
 20
0.0
  9
$PLIMMAX
 10
12.0
 20
9.0
  9
$UNITMODE
 70
           0
  9
$VISRETAIN
 70
           0
  9
$PLINEGEN
 70
           1
  9
$PSLTSCALE
 70
           0
  9
$TREEDEPTH
 70
        3020
  9
$PICKSTYLE
 70
           1
  9
$CMLSTYLE
  2
STANDARD
  9
$CMLJUST
 70
           0
  9
$CMLSCALE
 40
1.0
  9
$PROXYGRAPHICS
 70
           0
  9
$MEASUREMENT
 70
           0
  0
ENDSEC
  0
SECTION
  2
CLASSES
  0
CLASS
  1
LWPOLYLINE
  2
AcDbPolyline
  3
"AutoCAD"
 90
        0
280
           0
281
           1
  0
CLASS
  1
IMAGE
  2
AcDbRasterImage
  3
ISM
 90
      127
280
           0
281
           1
  0
CLASS
  1
OLE2FRAME
  2
AcDbOle2Frame
  3
""
 90
        0
280
           0
281
           1
  0
CLASS
  1
HATCH
  2
AcDbHatch
  3
"ACAD_SEDONA"
 90
        0
280
           0
281
           1
  0
CLASS
  1
DICTIONARYVAR
  2
AcDbDictionaryVar
  3
"AutoCAD"
 90
        0
280
           0
281
           0
  0
CLASS
  1
RASTERVARIABLES
  2
AcDbRasterVariables
  3
ISM
 90
        0
280
           0
281
           0
  0
CLASS
  1
IMAGEDEF
  2
AcDbRasterImageDef
  3
ISM
 90
        0
280
           0
281
           0
  0
CLASS
  1
IMAGEDEF_REACTOR
  2
AcDbRasterImageDefReactor
  3
ISM
 90
        1
280
           0
281
           0
  0
CLASS
  1
IDBUFFER
  2
AcDbIdBuffer
  3
"Acad"
 90
        0
280
           0
281
           0
  0
CLASS
  1
SPATIAL_FILTER
  2
AcDbSpatialFilter
  3
"Acad"
 90
        0
280
           0
281
           0
  0
CLASS
  1
XRECORD
  2
AcDbXrecord
  3
"<Built In>"
 90
        0
280
           0
281
           0
  0
CLASS
  1
SORTENTSTABLE
  2
AcDbSortentsTable
  3
"AutoCAD"
 90
        0
280
           0
281
           0
  0
CLASS
  1
LAYER_INDEX
  2
AcDbLayerIndex
  3
"Acad"
 90
        0
280
           0
281
           0
  0
CLASS
  1
SPATIAL_INDEX
  2
AcDbSpatialIndex
  3
"Acad"
 90
        0
280
           0
281
           0
  0
CLASS
  1
OBJECT_PTR
  2
CAseDLPNTableRecord
  3
"ASE-LPNTableRecord"
 90
        1
280
           0
281
           0
  0
CLASS
  1
LAYOUT
  2
AcDbLayout
  3
"AutoCAD 2000"
 90
        1
280
           0
281
           0
  0
CLASS
  1
PLOTSETTINGS
  2
AcDbPlotSettings
  3
"AutoCAD 2000"
 90
        1
280
           0
281
           0
  0
CLASS
  1
ACDBDICTIONARYWDFLT
  2
AcDbDictionaryWithDefault
  3
"AutoCAD 2000"
 90
        1
280
           0
281
           0
  0
CLASS
  1
ACDBPLACEHOLDER
  2
AcDbPlaceHolder
  3
"AutoCAD 2000"
 90
        1
280
           0
281
           0
  0
CLASS
  1
VBA_PROJECT
  2
AcDbVbaProject
  3
"acadvba"
 90
        1
280
           0
281
           0
  0
CLASS
  1
WIPEOUT
  2
AcDbWipeout
  3
WipeOut|AutoCAD Express Tool|expresstools@autodesk.com
 90
      127
280
           0
281
           1
  0
CLASS
  1
WIPEOUTVARIABLES
  2
AcDbWipeoutVariables
  3
WipeOut|AutoCAD Express Tool|expresstools@autodesk.com
 90
        0
280
           0
281
           0
  0
CLASS
  1
RTEXT
  2
RText
  3
RText|AutoCAD Express Tool|expresstools@autodesk.com
 90
        0
280
           0
281
           1
  0
CLASS
  1
ARCALIGNEDTEXT
  2
AcDbArcAlignedText
  3
ATEXT|AutoCAD Express Tool|expresstools@autodesk.com
 90
        0
280
           0
281
           1
  0
ENDSEC
  0
SECTION
  2
TABLES
  0
TABLE
  2
VPORT
  5
7
100
AcDbSymbolTable
 70
           1
  0
VPORT
  5
15
100
AcDbSymbolTableRecord
100
AcDbViewportTableRecord
  2
*ACTIVE
 70
           0
 10
0.0
 20
0.0
 11
1.0
 21
1.0
 12
6.591288
 22
4.579184
 13
0.0
 23
0.0
 14
1.0
 24
1.0
 15
0.0
 25
0.0
 16
0.0
 26
0.0
 36
1.0
 17
0.0
 27
0.0
 37
0.0
 40
9.158369
 41
0.688564
 42
50.0
 43
0.0
 44
0.0
 50
0.0
 51
0.0
 71
           0
 72
         100
 73
           1
 74
           1
 75
           0
 76
           0
 77
           0
 78
           0
  0
ENDTAB
  0
TABLE
  2
LTYPE
  5
4
100
AcDbSymbolTable
 70
          10
  0
LTYPE
  5
11
100
AcDbSymbolTableRecord
100
AcDbLinetypeTableRecord
  2
BYBLOCK
 70
          64
  3

 72
          65
 73
           0
 40
0.0
  0
LTYPE
  5
12
100
AcDbSymbolTableRecord
100
AcDbLinetypeTableRecord
  2
BYLAYER
 70
          64
  3

 72
          65
 73
           0
 40
0.0
  0
LTYPE
  5
13
100
AcDbSymbolTableRecord
100
AcDbLinetypeTableRecord
  2
CONTINUOUS
 70
          64
  3
Solid line
 72
          65
 73
           0
 40
0.0
  0
LTYPE
  5
1D
100
AcDbSymbolTableRecord
100
AcDbLinetypeTableRecord
  2
DASHED
 70
          64
  3
Dashed
 72
          65
 73
           2
 40
15.0
 49
12.0
 74
           0
 49
-3.0
 74
           0
  0
LTYPE
  5
1E
100
AcDbSymbolTableRecord
100
AcDbLinetypeTableRecord
  2
DOTTED
 70
          64
  3
Dotted
 72
          65
 73
           2
 40
3.5
 49
0.5
 74
           0
 49
-3.0
 74
           0
  0
LTYPE
  5
1F
100
AcDbSymbolTableRecord
100
AcDbLinetypeTableRecord
  2
DOT_CENTER
 70
          64
  3
Dot_Center
 72
          65
 73
           4
 40
2.0
 49
1.25
 74
           0
 49
-0.25
 74
           0
 49
0.25
 74
           0
 49
-0.25
 74
           0
  0
LTYPE
  5
20
100
AcDbSymbolTableRecord
100
AcDbLinetypeTableRecord
  2
LONG_DASHED
 70
          64
  3
Long_Dashed
 72
          65
 73
           2
 40
2.0
 49
1.5
 74
           0
 49
-0.5
 74
           0
  0
LTYPE
  5
21
100
AcDbSymbolTableRecord
100
AcDbLinetypeTableRecord
  2
DASH_CENTER
 70
          64
  3
Dash_Center
 72
          65
 73
           4
 40
36.0
 49
24.0
 74
           0
 49
-3.0
 74
           0
 49
6.0
 74
           0
 49
-3.0
 74
           0
  0
LTYPE
  5
22
100
AcDbSymbolTableRecord
100
AcDbLinetypeTableRecord
  2
PHANTOM
 70
          64
  3
Phantom
 72
          65
 73
           6
 40
2.5
 49
1.25
 74
           0
 49
-0.25
 74
           0
 49
0.25
 74
           0
 49
-0.25
 74
           0
 49
0.25
 74
           0
 49
-0.25
 74
           0
  0
LTYPE
  5
23
100
AcDbSymbolTableRecord
100
AcDbLinetypeTableRecord
  2
CENTER_DASH_DASH
 70
          64
  3
Center_Dash_Dash
 72
          65
 73
           6
 40
22.0
 49
12.0
 74
           0
 49
-3.0
 74
           0
 49
0.5
 74
           0
 49
-3.0
 74
           0
 49
0.5
 74
           0
 49
-3.0
 74
           0
  0
ENDTAB
  0
TABLE
  2
LAYER
  5
2
100
AcDbSymbolTable
 70
           5
  0
LAYER
  5
14
100
AcDbSymbolTableRecord
100
AcDbLayerTableRecord
  2
0
 70
           0
 62
           7
  6
CONTINUOUS
  0
LAYER
  5
24
100
AcDbSymbolTableRecord
100
AcDbLayerTableRecord
  2
MITTELLINIEN
 70
           0
 62
           7
  6
CONTINUOUS
  0
LAYER
  5
25
100
AcDbSymbolTableRecord
100
AcDbLayerTableRecord
  2
1
 70
           0
 62
           7
  6
CONTINUOUS
  0
LAYER
  5
26
100
AcDbSymbolTableRecord
100
AcDbLayerTableRecord
  2
GEOMETRIE
 70
           0
 62
           7
  6
CONTINUOUS
  0
LAYER
  5
27
100
AcDbSymbolTableRecord
100
AcDbLayerTableRecord
  2
WANNE
 70
           0
 62
           7
  6
CONTINUOUS
  0
ENDTAB
  0
TABLE
  2
STYLE
  5
3
100
AcDbSymbolTable
 70
           2
  0
STYLE
  5
17
100
AcDbSymbolTableRecord
100
AcDbTextStyleTableRecord
  2
STANDARD
 70
           0
 40
0.0
 41
1.0
 50
0.0
 71
           0
 42
0.0
  3
txt
  4

  0
STYLE
  5
101
100
AcDbSymbolTableRecord
100
AcDbTextStyleTableRecord
  2
CONVERTER_1
 70
           0
 40
0.0
 41
0.71262
 50
0.0
 71
           0
 42
0.0
  3
txt.shx
  4

  0
ENDTAB
  0
TABLE
  2
VIEW
  5
5
100
AcDbSymbolTable
 70
           0
  0
ENDTAB
  0
TABLE
  2
UCS
  5
6
100
AcDbSymbolTable
 70
           0
  0
ENDTAB
  0
TABLE
  2
APPID
  5
8
100
AcDbSymbolTable
 70
           1
  0
APPID
  5
16
100
AcDbSymbolTableRecord
100
AcDbRegAppTableRecord
  2
ACAD
 70
           0
  0
ENDTAB
  0
TABLE
  2
DIMSTYLE
  5
9
100
AcDbSymbolTable
 70
           1
  0
DIMSTYLE
105
18
100
AcDbSymbolTableRecord
100
AcDbDimStyleTableRecord
  2
STANDARD
 70
           0
  3

  4

  5

  6

  7

 40
1.0
 41
0.18
 42
0.0625
 43
0.38
 44
0.18
 45
0.0
 46
0.0
 47
0.0
 48
0.0
 71
           0
 72
           0
 73
           1
 74
           1
 75
           0
 76
           0
 77
           0
 78
           0
140
0.18
141
0.09
142
0.0
143
25.4
144
1.0
145
0.0
146
1.0
147
0.09
170
           0
171
           2
172
           0
173
           0
174
           0
175
           0
176
           0
177
           0
178
           0
270
           2
271
           4
272
           4
273
           2
274
           2
275
           0
280
           0
281
           0
282
           0
283
           1
284
           0
285
           0
286
           0
287
           0
288
           0
340
17
  0
ENDTAB
  0
TABLE
  2
BLOCK_RECORD
  5
1
100
AcDbSymbolTable
 70
           2
  0
BLOCK_RECORD
  5
A
100
AcDbSymbolTableRecord
100
AcDbBlockTableRecord
  2
*MODEL_SPACE
  0
BLOCK_RECORD
  5
B
100
AcDbSymbolTableRecord
100
AcDbBlockTableRecord
  2
*PAPER_SPACE
  0
BLOCK_RECORD
  5
28
100
AcDbSymbolTableRecord
100
AcDbBlockTableRecord
  2
WANNE_PRIME_LINE_264
  0
BLOCK_RECORD
  5
2A
100
AcDbSymbolTableRecord
100
AcDbBlockTableRecord
  2
DLX
  0
ENDTAB
  0
ENDSEC
  0
SECTION
  2
BLOCKS
  0
BLOCK
  5
D
100
AcDbEntity
  8
0
100
AcDbBlockBegin
  2
*MODEL_SPACE
 70
           0
 10
0.0
 20
0.0
 30
0.0
  3
*MODEL_SPACE
  1

  0
ENDBLK
  5
E
100
AcDbEntity
  8
0
100
AcDbBlockEnd
  0
BLOCK
  5
F
100
AcDbEntity
 67
           1
  8
0
100
AcDbBlockBegin
  2
*PAPER_SPACE
 70
           0
 10
0.0
 20
0.0
 30
0.0
  3
*PAPER_SPACE
  1

  0
ENDBLK
  5
10
100
AcDbEntity
 67
           1
  8
0
100
AcDbBlockEnd
  0
BLOCK
  5
29
100
AcDbEntity
  8
0
100
AcDbBlockBegin
  2
WANNE_PRIME_LINE_264
 70
           0
 10
0.0
 20
0.0
 30
0.0
  3
WANNE_PRIME_LINE_264
  1

  0
ARC
  5
49
100
AcDbEntity
  8
1
  6
CONTINUOUS
 62
           7
100
AcDbCircle
 10
1325.0
 20
375.0
 40
375.0
100
AcDbArc
 50
-90.0
 51
0.0
  0
ARC
  5
48
100
AcDbEntity
  8
1
  6
CONTINUOUS
 62
           7
100
AcDbCircle
 10
1355.0
 20
375.0
 40
295.0
100
AcDbArc
 50
-90.0
 51
0.0
  0
ARC
  5
47
100
AcDbEntity
  8
1
  6
CONTINUOUS
 62
           7
100
AcDbCircle
 10
1600.000000000001
 20
650.0
 40
50.0
100
AcDbArc
 50
0.0
 51
90.0
  0
ARC
  5
46
100
AcDbEntity
  8
1
  6
CONTINUOUS
 62
           7
100
AcDbCircle
 10
100.0
 20
650.0
 40
50.0
100
AcDbArc
 50
90.0
 51
180.0
  0
ARC
  5
45
100
AcDbEntity
  8
1
  6
CONTINUOUS
 62
           7
100
AcDbCircle
 10
100.0
 20
130.0
 40
50.0
100
AcDbArc
 50
180.0
 51
-90.0
  0
ARC
  5
44
100
AcDbEntity
  8
1
  6
CONTINUOUS
 62
           7
100
AcDbCircle
 10
391.281765
 20
257.71322060059
 40
100.0
100
AcDbArc
 50
180.0
 51
-90.0
  0
ARC
  5
43
100
AcDbEntity
  8
1
  6
CONTINUOUS
 62
           7
100
AcDbCircle
 10
391.281765
 20
522.286779
 40
100.0
100
AcDbArc
 50
90.0
 51
180.0
  0
ARC
  5
42
100
AcDbEntity
  8
1
  6
CONTINUOUS
 62
           7
100
AcDbCircle
 10
1489.208409756981
 20
522.286779
 40
100.0
100
AcDbArc
 50
0.0
 51
90.0
  0
ARC
  5
41
100
AcDbEntity
  8
1
  6
CONTINUOUS
 62
           7
100
AcDbCircle
 10
1371.208409756981
 20
375.71322060059
 40
218.0
100
AcDbArc
 50
-90.0
 51
0.0
  0
SPLINE
  5
40
100
AcDbEntity
  8
1
  6
CONTINUOUS
 62
           7
100
AcDbSpline
210
0.0
220
0.0
230
1.0
 70
           0
 71
           3
 72
          41
 73
          38
 74
          77
 42
0.00000000001
 43
0.00000000001
 44
0.00000000001
 40
-1.9332773527487177
 40
-0.0519149600595767
 40
1.8294474326295651
 40
3.8160231382408325
 40
6.0890057211301798
 40
8.7583165725672067
 40
11.856343216494647
 40
15.358060651053515
 40
19.202594105613201
 40
23.306173214999557
 40
27.570576436275516
 40
31.889464432283525
 40
36.153867653560049
 40
40.257446762946756
 40
44.101980217506394
 40
47.603697652063971
 40
50.701724295990992
 40
53.371035147428017
 40
55.644017730317685
 40
57.630593435929285
 40
59.511955828619065
 40
61.498531534230736
 40
63.771514117119807
 40
66.440824968557109
 40
69.538851612484223
 40
73.054514667696481
 40
76.912993742911056
 40
81.016572852298225
 40
85.280976073574749
 40
89.599864069582878
 40
93.864267290858834
 40
97.967846400245435
 40
101.82632547546012
 40
105.34198853067295
 40
108.44001517460046
 40
111.10932602603778
 40
113.38230860892725
 40
115.36888431453872
 40
117.25024670722789
 40
119.13160909991703
 40
121.01297149260617
 10
1350.102286043104
 20
103.0291838561114
 30
0.0
 10
1349.6788107928519
 20
104.8622668234233
 30
0.0
 10
1348.478460477098
 20
106.5753752314134
 30
0.0
 10
1346.591518974516
 20
108.14458915167459
 30
0.0
 10
1344.073679516395
 20
109.5518953111564
 30
0.0
 10
1340.9920479538421
 20
110.7644515716315
 30
0.0
 10
1337.4336570048811
 20
111.74803759381849
 30
0.0
 10
1333.502717517511
 20
112.4730483132662
 30
0.0
 10
1329.3162961696389
 20
112.9172212802964
 30
0.0
 10
1325.00000000002
 20
113.0668237474765
 30
0.0
 10
1320.6837038303991
 20
112.9172212802964
 30
0.0
 10
1316.4972824825279
 20
112.4730483132662
 30
0.0
 10
1312.566342995156
 20
111.7480375938194
 30
0.0
 10
1309.007952046197
 20
110.7644515716315
 30
0.0
 10
1305.926320483645
 20
109.5518953111564
 30
0.0
 10
1303.408481025524
 20
108.14458915167459
 30
0.0
 10
1301.521539522942
 20
106.5753752314134
 30
0.0
 10
1300.321189207187
 20
104.8622668234233
 30
0.0
 10
1299.8977139569349
 20
103.0291838561114
 30
0.0
 10
1300.321189207187
 20
101.1961008887982
 30
0.0
 10
1301.521539522942
 20
99.482992480809457
 30
0.0
 10
1303.408481025524
 20
97.913778560548394
 30
0.0
 10
1305.926320483645
 20
96.506472401065253
 30
0.0
 10
1309.007952046197
 20
95.293916140591477
 30
0.0
 10
1312.566342995156
 20
94.210330118402226
 30
0.0
 10
1316.4972824825279
 20
93.485319398955426
 30
0.0
 10
1320.6837038304
 20
93.041146431925199
 30
0.0
 10
1325.00000000002
 20
92.891543964745097
 30
0.0
 10
1329.3162961696401
 20
93.041146431925199
 30
0.0
 10
1333.502717517511
 20
93.485319398955426
 30
0.0
 10
1337.4336570048829
 20
94.210330118402226
 30
0.0
 10
1340.9920479538421
 20
95.293916140591477
 30
0.0
 10
1344.073679516395
 20
96.506472401065253
 30
0.0
 10
1346.591518974516
 20
97.913778560548394
 30
0.0
 10
1348.478460477098
 20
99.482992480809457
 30
0.0
 10
1349.678810792853
 20
101.19610088879919
 30
0.0
 10
1350.102286043104
 20
103.0291838561114
 30
0.0
 10
1349.6788107928519
 20
104.8622668234233
 30
0.0
 11
1349.8963079768032
 21
103.92079413262927
 31
0.0
 11
1349.5932300386919
 21
104.8266388182428
 31
0.0
 11
1349.1189905922606
 21
105.66122749349537
 31
0.0
 11
1348.4216398227513
 21
106.52726040040554
 31
0.0
 11
1347.6106477445494
 21
107.29706364530001
 31
0.0
 11
1346.5549667257358
 21
108.09554450892122
 31
0.0
 11
1345.4261812093619
 21
108.79593608703573
 31
0.0
 11
1344.0501630117824
 21
109.50520388660659
 31
0.0
 11
1342.6271118049776
 21
110.12108883707785
 31
0.0
 11
1340.9767717823106
 21
110.72082170662243
 31
0.0
 11
1339.2958794165802
 21
111.23329484614888
 31
0.0
 11
1337.4238598669681
 21
111.70702454437966
 31
0.0
 11
1335.5322460415289
 21
112.09872814373281
 31
0.0
 11
1333.4968543252294
 21
112.43392282266234
 31
0.0
 11
1331.449736224366
 21
112.69086652038412
 31
0.0
 11
1329.3135440200565
 21
112.87921419342383
 31
0.0
 11
1327.1718475165812
 21
112.99154769271836
 31
0.0
 11
1325.0000000000196
 21
113.02918572009742
 31
0.0
 11
1322.8281524834574
 21
112.99154769271837
 31
0.0
 11
1320.6864559799819
 21
112.87921419342382
 31
0.0
 11
1318.5502637756722
 21
112.69086652038412
 31
0.0
 11
1316.5031456748093
 21
112.43392282266245
 31
0.0
 11
1314.4677539585091
 21
112.09872814373327
 31
0.0
 11
1312.5761401330697
 21
111.70702454438035
 31
0.0
 11
1310.7041205834571
 21
111.23329484614922
 31
0.0
 11
1309.0232282177283
 21
110.72082170662253
 31
0.0
 11
1307.3728881950622
 21
110.12108883707792
 31
0.0
 11
1305.9498369882574
 21
109.50520388660661
 31
0.0
 11
1304.5738187906782
 21
108.79593608703576
 31
0.0
 11
1303.4450332743043
 21
108.09554450892126
 31
0.0
 11
1302.3893522554908
 21
107.29706364530007
 31
0.0
 11
1301.5783601772882
 21
106.52726040040557
 31
0.0
 11
1300.8810094077789
 21
105.66122749349539
 31
0.0
 11
1300.406769961347
 21
104.82663881824283
 31
0.0
 11
1300.1036920232355
 21
103.92079413262934
 31
0.0
 11
1300.0007029900851
 21
103.02918385611123
 31
0.0
 11
1300.1036920232357
 21
102.13757357959284
 31
0.0
 11
1300.4067699613472
 21
101.23172889397895
 31
0.0
 11
1300.8810094077789
 21
100.39714021872661
 31
0.0
 11
1301.5783601772882
 21
99.531107311817124
 31
0.0
 11
1302.3893522554904
 21
98.761304066923003
 31
0.0
 11
1303.4450332743043
 21
97.962823203301596
 31
0.0
 11
1304.5738187906784
 21
97.262431625186579
 31
0.0
 11
1305.9490744303862
 21
96.553463875865404
 31
0.0
 11
1307.3698379635769
 21
95.938479076144489
 31
0.0
 11
1309.0225441681193
 21
95.32590546683204
 31
0.0
 11
1310.7044346165067
 21
94.777310510000703
 31
0.0
 11
1312.5771073259612
 21
94.264238672488901
 31
0.0
 11
1314.471308697026
 21
93.858983943150463
 31
0.0
 11
1316.5040343594387
 21
93.524280983224713
 31
0.0
 11
1318.5502637756729
 21
93.267501191837482
 31
0.0
 11
1320.6864559799828
 21
93.079153518797767
 31
0.0
 11
1322.8281524834581
 21
92.966820019503231
 31
0.0
 11
1325.00000000002
 21
92.929181992124171
 31
0.0
 11
1327.1718475165821
 21
92.966820019503245
 31
0.0
 11
1329.3135440200572
 21
93.079153518797767
 31
0.0
 11
1331.4497362243665
 21
93.267501191837482
 31
0.0
 11
1333.4959656406002
 21
93.524280983224685
 31
0.0
 11
1335.5286913030127
 21
93.858983943150434
 31
0.0
 11
1337.4228926740777
 21
94.264238672488887
 31
0.0
 11
1339.295565383532
 21
94.777310510000675
 31
0.0
 11
1340.9774558319198
 21
95.325905466832026
 31
0.0
 11
1342.6301620364629
 21
95.938479076144503
 31
0.0
 11
1344.0509255696538
 21
96.553463875865418
 31
0.0
 11
1345.4261812093616
 21
97.262431625186622
 31
0.0
 11
1346.5549667257358
 21
97.962823203301596
 31
0.0
 11
1347.6106477445494
 21
98.761304066922932
 31
0.0
 11
1348.4216398227518
 21
99.53110731181728
 31
0.0
 11
1349.1189905922611
 21
100.39714021872727
 31
0.0
 11
1349.5932300386928
 21
101.23172889397978
 31
0.0
 11
1349.8963079768037
 21
102.13757357959342
 31
0.0
 11
1349.9978571202473
 21
103.03541665789589
 31
0.0
 11
1349.8905484179782
 21
103.94572533976736
 31
0.0
 11
1349.784679605415
 21
104.40399608159532
 31
0.0
 11
1349.8905484179779
 21
103.94572533976735
 31
0.0
 11
1349.9978571202473
 21
103.48122179615486
 31
0.0
 11
1349.8963079768032
 21
103.92079413262925
 31
0.0
  0
CIRCLE
  5
3F
100
AcDbEntity
  8
WANNE
  6
CONTINUOUS
 62
           7
100
AcDbCircle
 10
1325.000000000014
 20
289.0423910869
 40
26.0
  0
CIRCLE
  5
3E
100
AcDbEntity
  8
WANNE
  6
CONTINUOUS
 62
           7
100
AcDbCircle
 10
1325.000000000014
 20
289.0423910869
 40
45.0
  0
LINE
  5
3D
100
AcDbEntity
  8
MITTELLINIEN
  6
DOT_CENTER
 62
           3
100
AcDbLine
 10
1388.989955000018
 20
289.0423910869
 11
1259.321981000007
 21
289.0423910869
  0
LINE
  5
3C
100
AcDbEntity
  8
MITTELLINIEN
  6
DOT_CENTER
 62
           3
100
AcDbLine
 10
1325.00000000002
 20
353.0323460869
 11
1325.00000000002
 21
223.364372086899
  0
LINE
  5
3B
100
AcDbEntity
  8
GEOMETRIE
  6
CONTINUOUS
 62
           7
100
AcDbLine
 10
0.0
 20
0.0
 11
0.0
 21
750.0
  0
LINE
  5
3A
100
AcDbEntity
  8
GEOMETRIE
  6
CONTINUOUS
 62
           7
100
AcDbLine
 10
1700.000000000001
 20
375.0
 11
1700.000000000001
 21
750.0
  0
LINE
  5
39
100
AcDbEntity
  8
GEOMETRIE
  6
CONTINUOUS
 62
           7
100
AcDbLine
 10
1700.000000000001
 20
750.0
 11
0.0
 21
750.0
  0
LINE
  5
38
100
AcDbEntity
  8
GEOMETRIE
  6
CONTINUOUS
 62
           7
100
AcDbLine
 10
1325.0
 20
0.0
 11
0.0
 21
0.0
  0
LINE
  5
37
100
AcDbEntity
  8
1
  6
CONTINUOUS
 62
           7
100
AcDbLine
 10
1600.000000000001
 20
700.0
 11
100.0
 21
700.0
  0
LINE
  5
36
100
AcDbEntity
  8
1
  6
CONTINUOUS
 62
           7
100
AcDbLine
 10
1355.0
 20
80.0
 11
100.0
 21
80.0
  0
LINE
  5
35
100
AcDbEntity
  8
1
  6
CONTINUOUS
 62
           7
100
AcDbLine
 10
1650.000000000001
 20
375.0
 11
1650.000000000001
 21
650.0
  0
LINE
  5
34
100
AcDbEntity
  8
1
  6
CONTINUOUS
 62
           7
100
AcDbLine
 10
50.0
 20
130.0
 11
50.0
 21
650.0
  0
LINE
  5
33
100
AcDbEntity
  8
1
  6
CONTINUOUS
 62
           7
100
AcDbLine
 10
291.281765
 20
257.71322060059
 11
291.281765
 21
522.286779
  0
LINE
  5
32
100
AcDbEntity
  8
1
  6
CONTINUOUS
 62
           7
100
AcDbLine
 10
1589.208409756981
 20
375.71322060059
 11
1589.208409756981
 21
522.286779
  0
LINE
  5
31
100
AcDbEntity
  8
1
  6
CONTINUOUS
 62
           7
100
AcDbLine
 10
1489.208409756981
 20
622.286779
 11
391.281765
 21
622.286779
  0
LINE
  5
30
100
AcDbEntity
  8
1
  6
CONTINUOUS
 62
           7
100
AcDbLine
 10
1371.208409756981
 20
157.71322060059
 11
391.281764999999
 21
157.71322060059
  0
ENDBLK
  5
4A
100
AcDbEntity
  8
0
100
AcDbBlockEnd
  0
BLOCK
  5
2B
100
AcDbEntity
  8
0
100
AcDbBlockBegin
  2
DLX
 70
           0
 10
0.0
 20
0.0
 30
0.0
  3
DLX
  1

  0
CIRCLE
  5
FE
100
AcDbEntity
  8
1
  6
CONTINUOUS
 62
           3
100
AcDbCircle
 10
537.524329237935
 20
548.165566878754
 40
5.972862778755
  0
CIRCLE
  5
FD
100
AcDbEntity
  8
1
  6
CONTINUOUS
 62
           3
100
AcDbCircle
 10
537.524329237935
 20
548.165566878754
 40
5.530127989697
  0
ARC
  5
FC
100
AcDbEntity
  8
1
  6
CONTINUOUS
 62
           3
100
AcDbCircle
 10
537.731148069314
 20
549.590698921381
 40
2.009798008862
100
AcDbArc
 50
-55.929988464567
 51
86.297888718245
  0
ARC
  5
FB
100
AcDbEntity
  8
1
  6
CONTINUOUS
 62
           3
100
AcDbCircle
 10
537.6528302433
 20
549.550804930551
 40
1.257687287768
100
AcDbArc
 50
-74.800419047062
 51
80.93139523879
  0
ARC
  5
FA
100
AcDbEntity
  8
1
  6
CONTINUOUS
 62
           3
100
AcDbCircle
 10
537.577647605104
 20
546.339818389822
 40
1.155889798232
100
AcDbArc
 50
0.985058170485
 51
82.918254632949
  0
ARC
  5
F9
100
AcDbEntity
  8
1
  6
CONTINUOUS
 62
           3
100
AcDbCircle
 10
538.303040791594
 20
546.649012682225
 40
1.391870091328
100
AcDbArc
 50
-1.298612665717
 51
66.544866494049
  0
LINE
  5
F8
100
AcDbEntity
  8
1
  6
CONTINUOUS
 62
           3
100
AcDbLine
 10
430.116677469316
 20
544.266674810781
 11
429.821274381935
 21
545.265226872362
  0
LINE
  5
F7
100
AcDbEntity
  8
1
  6
CONTINUOUS
 62
           3
100
AcDbLine
 10
430.553357150882
 20
546.048983858331
 11
429.821274381935
 21
545.265226872362
  0
LINE
  5
F6
100
AcDbEntity
  8
1
  6
CONTINUOUS
 62
           3
100
AcDbLine
 10
465.584381119552
 20
515.524487784527
 11
468.968788610433
 21
529.337954145079
  0
LINE
  5
F5
100
AcDbEntity
  8
1
  6
CONTINUOUS
 62
           3
100
AcDbLine
 10
461.396226964312
 20
515.524487784527
 11
464.780634455329
 21
529.337954145079
  0
LINE
  5
F4
100
AcDbEntity
  8
1
  6
CONTINUOUS
 62
           3
100
AcDbLine
 10
461.396226964312
 20
515.524487784527
 11
465.584381119552
 21
515.524487784527
  0
LINE
  5
F3
100
AcDbEntity
  8
1
  6
CONTINUOUS
 62
           3
100
AcDbLine
 10
460.312252905144
 20
511.100245360341
 11
464.500407060332
 21
511.100245360341
  0
LINE
  5
F2
100
AcDbEntity
  8
1
  6
CONTINUOUS
 62
           3
100
AcDbLine
 10
461.115999569437
 20
497.286779
 11
467.398230802334
 21
497.286779
  0
LINE
  5
F1
100
AcDbEntity
  8
1
  6
CONTINUOUS
 62
           3
100
AcDbLine
 10
464.780634455329
 20
529.337954145079
 11
458.498403222464
 21
529.337954145079
  0
LINE
  5
F0
100
AcDbEntity
  8
1
  6
CONTINUOUS
 62
           3
100
AcDbLine
 10
496.191790619287
 20
529.337954145079
 11
488.339001578268
 21
497.286779
  0
LINE
  5
EF
100
AcDbEntity
  8
1
  6
CONTINUOUS
 62
           3
100
AcDbLine
 10
488.82558532729
 20
524.913711720838
 11
483.140744404566
 21
501.711021424182
  0
LINE
  5
EE
100
AcDbEntity
  8
1
  6
CONTINUOUS
 62
           3
100
AcDbLine
 10
484.63743117204
 20
524.913711720838
 11
488.82558532729
 21
524.913711720838
  0
LINE
  5
ED
100
AcDbEntity
  8
1
  6
CONTINUOUS
 62
           3
100
AcDbLine
 10
496.191790619287
 20
529.337954145079
 11
479.439173998457
 21
529.337954145079
  0
LINE
  5
EC
100
AcDbEntity
  8
1
  6
CONTINUOUS
 62
           3
100
AcDbLine
 10
478.952590249465
 20
501.711021424182
 11
484.63743117204
 21
524.913711720838
  0
LINE
  5
EB
100
AcDbEntity
  8
1
  6
CONTINUOUS
 62
           3
100
AcDbLine
 10
479.439173998457
 20
529.337954145079
 11
471.58638495746
 21
497.286779
  0
LINE
  5
EA
100
AcDbEntity
  8
1
  6
CONTINUOUS
 62
           3
100
AcDbLine
 10
483.140744404566
 20
501.711021424182
 11
478.952590249465
 21
501.711021424182
  0
LINE
  5
E9
100
AcDbEntity
  8
1
  6
CONTINUOUS
 62
           3
100
AcDbLine
 10
471.58638495746
 20
497.286779
 11
488.339001578268
 21
497.286779
  0
LINE
  5
E8
100
AcDbEntity
  8
1
  6
CONTINUOUS
 62
           3
100
AcDbLine
 10
475.251019843349
 20
529.337954145079
 11
468.968788610433
 21
529.337954145079
  0
LINE
  5
E7
100
AcDbEntity
  8
1
  6
CONTINUOUS
 62
           3
100
AcDbLine
 10
458.498403222464
 20
529.337954145079
 11
450.645614181471
 21
497.286779
  0
LINE
  5
E6
100
AcDbEntity
  8
1
  6
CONTINUOUS
 62
           3
100
AcDbLine
 10
456.927845414259
 20
497.286779
 11
460.312252905144
 21
511.100245360341
  0
LINE
  5
E5
100
AcDbEntity
  8
1
  6
CONTINUOUS
 62
           3
100
AcDbLine
 10
461.115999569437
 20
497.286779
 11
464.500407060332
 21
511.100245360341
  0
LINE
  5
E4
100
AcDbEntity
  8
1
  6
CONTINUOUS
 62
           3
100
AcDbLine
 10
467.398230802334
 20
497.286779
 11
475.251019843349
 21
529.337954145079
  0
LINE
  5
E3
100
AcDbEntity
  8
1
  6
CONTINUOUS
 62
           3
100
AcDbLine
 10
450.645614181471
 20
497.286779
 11
456.927845414259
 21
497.286779
  0
LINE
  5
E2
100
AcDbEntity
  8
1
  6
CONTINUOUS
 62
           3
100
AcDbLine
 10
445.318082686514
 20
518.277348084413
 11
451.60031391932
 21
518.277348084413
  0
LINE
  5
E1
100
AcDbEntity
  8
1
  6
CONTINUOUS
 62
           3
100
AcDbLine
 10
446.944043775307
 20
524.913711720838
 11
445.318082686514
 21
518.277348084413
  0
LINE
  5
E0
100
AcDbEntity
  8
1
  6
CONTINUOUS
 62
           3
100
AcDbLine
 10
442.755889620116
 20
524.913711720838
 11
446.944043775307
 21
524.913711720838
  0
LINE
  5
DF
100
AcDbEntity
  8
1
  6
CONTINUOUS
 62
           3
100
AcDbLine
 10
437.071048697486
 20
501.711021424182
 11
442.755889620116
 21
524.913711720838
  0
LINE
  5
DE
100
AcDbEntity
  8
1
  6
CONTINUOUS
 62
           3
100
AcDbLine
 10
441.259202852689
 20
501.711021424182
 11
437.071048697486
 21
501.711021424182
  0
LINE
  5
DD
100
AcDbEntity
  8
1
  6
CONTINUOUS
 62
           3
100
AcDbLine
 10
442.885163941476
 20
508.347385060608
 11
441.259202852689
 21
501.711021424182
  0
LINE
  5
DC
100
AcDbEntity
  8
1
  6
CONTINUOUS
 62
           3
100
AcDbLine
 10
449.167395174264
 20
508.347385060608
 11
442.885163941476
 21
508.347385060608
  0
LINE
  5
DB
100
AcDbEntity
  8
1
  6
CONTINUOUS
 62
           3
100
AcDbLine
 10
446.45746002629
 20
497.286779
 11
449.167395174264
 21
508.347385060608
  0
LINE
  5
DA
100
AcDbEntity
  8
1
  6
CONTINUOUS
 62
           3
100
AcDbLine
 10
429.704843405536
 20
497.286779
 11
446.45746002629
 21
497.286779
  0
LINE
  5
D9
100
AcDbEntity
  8
1
  6
CONTINUOUS
 62
           3
100
AcDbLine
 10
437.557632446529
 20
529.337954145079
 11
429.704843405536
 21
497.286779
  0
LINE
  5
D8
100
AcDbEntity
  8
1
  6
CONTINUOUS
 62
           3
100
AcDbLine
 10
454.31024906725
 20
529.337954145079
 11
437.557632446529
 21
529.337954145079
  0
LINE
  5
D7
100
AcDbEntity
  8
1
  6
CONTINUOUS
 62
           3
100
AcDbLine
 10
451.60031391932
 20
518.277348084413
 11
454.31024906725
 21
529.337954145079
  0
LINE
  5
D6
100
AcDbEntity
  8
1
  6
CONTINUOUS
 62
           3
100
AcDbLine
 10
432.285504232153
 20
524.913711720838
 11
433.369478291312
 21
529.337954145079
  0
LINE
  5
D5
100
AcDbEntity
  8
1
  6
CONTINUOUS
 62
           3
100
AcDbLine
 10
421.815118844173
 20
524.913711720838
 11
432.285504232153
 21
524.913711720838
  0
LINE
  5
D4
100
AcDbEntity
  8
1
  6
CONTINUOUS
 62
           3
100
AcDbLine
 10
419.38220009916
 20
514.983748696953
 11
421.815118844173
 21
524.913711720838
  0
LINE
  5
D3
100
AcDbEntity
  8
1
  6
CONTINUOUS
 62
           3
100
AcDbLine
 10
429.852585487224
 20
514.983748696953
 11
419.38220009916
 21
514.983748696953
  0
LINE
  5
D2
100
AcDbEntity
  8
1
  6
CONTINUOUS
 62
           3
100
AcDbLine
 10
425.5166892503
 20
497.286779
 11
429.852585487224
 21
514.983748696953
  0
LINE
  5
D1
100
AcDbEntity
  8
1
  6
CONTINUOUS
 62
           3
100
AcDbLine
 10
408.764072629478
 20
497.286779
 11
425.5166892503
 21
497.286779
  0
LINE
  5
D0
100
AcDbEntity
  8
1
  6
CONTINUOUS
 62
           3
100
AcDbLine
 10
409.848046688785
 20
501.711021424182
 11
408.764072629478
 21
497.286779
  0
LINE
  5
CF
100
AcDbEntity
  8
1
  6
CONTINUOUS
 62
           3
100
AcDbLine
 10
420.318432076696
 20
501.711021424182
 11
409.848046688785
 21
501.711021424182
  0
LINE
  5
CE
100
AcDbEntity
  8
1
  6
CONTINUOUS
 62
           3
100
AcDbLine
 10
422.486380195114
 20
510.559506272797
 11
420.318432076696
 21
501.711021424182
  0
LINE
  5
CD
100
AcDbEntity
  8
1
  6
CONTINUOUS
 62
           3
100
AcDbLine
 10
412.015994807149
 20
510.559506272797
 11
422.486380195114
 21
510.559506272797
  0
LINE
  5
CC
100
AcDbEntity
  8
1
  6
CONTINUOUS
 62
           3
100
AcDbLine
 10
416.61686167054
 20
529.337954145079
 11
412.015994807149
 21
510.559506272797
  0
LINE
  5
CB
100
AcDbEntity
  8
1
  6
CONTINUOUS
 62
           3
100
AcDbLine
 10
433.369478291312
 20
529.337954145079
 11
416.61686167054
 21
529.337954145079
  0
LINE
  5
CA
100
AcDbEntity
  8
1
  6
CONTINUOUS
 62
           3
100
AcDbLine
 10
412.428707515377
 20
529.337954145079
 11
404.575918474362
 21
497.286779
  0
LINE
  5
C9
100
AcDbEntity
  8
1
  6
CONTINUOUS
 62
           3
100
AcDbLine
 10
406.146476282571
 20
529.337954145079
 11
412.428707515377
 21
529.337954145079
  0
LINE
  5
C8
100
AcDbEntity
  8
1
  6
CONTINUOUS
 62
           3
100
AcDbLine
 10
404.575918474362
 20
497.286779
 11
386.776263314772
 21
497.286779
  0
LINE
  5
C7
100
AcDbEntity
  8
1
  6
CONTINUOUS
 62
           3
100
AcDbLine
 10
399.377661300765
 20
501.711021424182
 11
406.146476282571
 21
529.337954145079
  0
LINE
  5
C6
100
AcDbEntity
  8
1
  6
CONTINUOUS
 62
           3
100
AcDbLine
 10
394.14246860678
 20
501.711021424182
 11
399.377661300765
 21
501.711021424182
  0
LINE
  5
C5
100
AcDbEntity
  8
1
  6
CONTINUOUS
 62
           3
100
AcDbLine
 10
400.911283588575
 20
529.337954145079
 11
394.14246860678
 21
501.711021424182
  0
LINE
  5
C4
100
AcDbEntity
  8
1
  6
CONTINUOUS
 62
           3
100
AcDbLine
 10
394.629052355766
 20
529.337954145079
 11
400.911283588575
 21
529.337954145079
  0
LINE
  5
C3
100
AcDbEntity
  8
1
  6
CONTINUOUS
 62
           3
100
AcDbLine
 10
386.776263314772
 20
497.286779
 11
394.629052355766
 21
529.337954145079
  0
LINE
  5
C2
100
AcDbEntity
  8
1
  6
CONTINUOUS
 62
           3
100
AcDbLine
 10
382.588109159646
 20
497.286779
 11
364.788453999998
 21
497.286779
  0
LINE
  5
C1
100
AcDbEntity
  8
1
  6
CONTINUOUS
 62
           3
100
AcDbLine
 10
393.150833348565
 20
540.398560205662
 11
382.588109159646
 21
497.286779
  0
LINE
  5
C0
100
AcDbEntity
  8
1
  6
CONTINUOUS
 62
           3
100
AcDbLine
 10
369.177506271273
 20
540.398560205662
 11
393.150833348565
 21
540.398560205662
  0
LINE
  5
BF
100
AcDbEntity
  8
1
  6
CONTINUOUS
 62
           3
100
AcDbLine
 10
367.822538697288
 20
534.868257175404
 11
369.177506271273
 21
540.398560205662
  0
LINE
  5
BE
100
AcDbEntity
  8
1
  6
CONTINUOUS
 62
           3
100
AcDbLine
 10
385.513634541822
 20
534.868257175404
 11
367.822538697288
 21
534.868257175404
  0
LINE
  5
BD
100
AcDbEntity
  8
1
  6
CONTINUOUS
 62
           3
100
AcDbLine
 10
377.389851985939
 20
501.711021424182
 11
385.513634541822
 21
534.868257175404
  0
LINE
  5
BC
100
AcDbEntity
  8
1
  6
CONTINUOUS
 62
           3
100
AcDbLine
 10
372.154659292061
 20
501.711021424182
 11
377.389851985939
 21
501.711021424182
  0
LINE
  5
BB
100
AcDbEntity
  8
1
  6
CONTINUOUS
 62
           3
100
AcDbLine
 10
378.92347427375
 20
529.337954145079
 11
372.154659292061
 21
501.711021424182
  0
LINE
  5
BA
100
AcDbEntity
  8
1
  6
CONTINUOUS
 62
           3
100
AcDbLine
 10
372.641243041053
 20
529.337954145079
 11
378.92347427375
 21
529.337954145079
  0
LINE
  5
B9
100
AcDbEntity
  8
1
  6
CONTINUOUS
 62
           3
100
AcDbLine
 10
364.788453999998
 20
497.286779
 11
372.641243041053
 21
529.337954145079
  0
LINE
  5
B8
100
AcDbEntity
  8
1
  6
CONTINUOUS
 62
           3
100
AcDbLine
 10
499.908135233513
 20
503.480718393909
 11
508.953295739604
 21
540.398560205662
  0
LINE
  5
B7
100
AcDbEntity
  8
1
  6
CONTINUOUS
 62
           3
100
AcDbLine
 10
508.953295739604
 20
540.398560205662
 11
503.089879922336
 21
540.398560205662
  0
LINE
  5
B6
100
AcDbEntity
  8
1
  6
CONTINUOUS
 62
           3
100
AcDbLine
 10
503.089879922336
 20
540.398560205662
 11
492.527155733394
 21
497.286779
  0
LINE
  5
B5
100
AcDbEntity
  8
1
  6
CONTINUOUS
 62
           3
100
AcDbLine
 10
510.431514746965
 20
529.337954145079
 11
504.746673824276
 21
506.135263848477
  0
LINE
  5
B4
100
AcDbEntity
  8
1
  6
CONTINUOUS
 62
           3
100
AcDbLine
 10
504.746673824276
 20
506.135263848477
 11
520.452251906198
 21
506.135263848477
  0
LINE
  5
B3
100
AcDbEntity
  8
1
  6
CONTINUOUS
 62
           3
100
AcDbLine
 10
520.452251906198
 20
506.135263848477
 11
526.137092828806
 21
529.337954145079
  0
LINE
  5
B2
100
AcDbEntity
  8
1
  6
CONTINUOUS
 62
           3
100
AcDbLine
 10
526.137092828806
 20
529.337954145079
 11
520.901900134883
 21
529.337954145079
  0
LINE
  5
B1
100
AcDbEntity
  8
1
  6
CONTINUOUS
 62
           3
100
AcDbLine
 10
520.901900134883
 20
529.337954145079
 11
516.301033271488
 21
510.559506272797
  0
LINE
  5
B0
100
AcDbEntity
  8
1
  6
CONTINUOUS
 62
           3
100
AcDbLine
 10
516.301033271488
 20
510.559506272797
 11
511.065840577536
 21
510.559506272797
  0
LINE
  5
AF
100
AcDbEntity
  8
1
  6
CONTINUOUS
 62
           3
100
AcDbLine
 10
511.065840577536
 20
510.559506272797
 11
515.666707440887
 21
529.337954145079
  0
LINE
  5
AE
100
AcDbEntity
  8
1
  6
CONTINUOUS
 62
           3
100
AcDbLine
 10
515.666707440887
 20
529.337954145079
 11
510.431514746965
 21
529.337954145079
  0
LINE
  5
AD
100
AcDbEntity
  8
1
  6
CONTINUOUS
 62
           3
100
AcDbLine
 10
532.695431584947
 20
529.337954145079
 11
528.649985321932
 21
529.337954145079
  0
LINE
  5
AC
100
AcDbEntity
  8
1
  6
CONTINUOUS
 62
           3
100
AcDbLine
 10
528.649985321932
 20
529.337954145079
 11
532.772280844129
 21
518.702080218661
  0
LINE
  5
AB
100
AcDbEntity
  8
1
  6
CONTINUOUS
 62
           3
100
AcDbLine
 10
532.772280844129
 20
518.702080218661
 11
522.965144399339
 21
506.135263848477
  0
LINE
  5
AA
100
AcDbEntity
  8
1
  6
CONTINUOUS
 62
           3
100
AcDbLine
 10
522.965144399339
 20
506.135263848477
 11
527.010590662336
 21
506.135263848477
  0
LINE
  5
A9
100
AcDbEntity
  8
1
  6
CONTINUOUS
 62
           3
100
AcDbLine
 10
527.010590662336
 20
506.135263848477
 11
534.114723242437
 21
515.238464370502
  0
LINE
  5
A8
100
AcDbEntity
  8
1
  6
CONTINUOUS
 62
           3
100
AcDbLine
 10
534.114723242437
 20
515.238464370502
 11
537.642978937121
 21
506.135263848477
  0
LINE
  5
A7
100
AcDbEntity
  8
1
  6
CONTINUOUS
 62
           3
100
AcDbLine
 10
537.642978937121
 20
506.135263848477
 11
541.68842520017
 21
506.135263848477
  0
LINE
  5
A6
100
AcDbEntity
  8
1
  6
CONTINUOUS
 62
           3
100
AcDbLine
 10
541.68842520017
 20
506.135263848477
 11
536.817727107165
 21
518.702080218603
  0
LINE
  5
A5
100
AcDbEntity
  8
1
  6
CONTINUOUS
 62
           3
100
AcDbLine
 10
536.817727107165
 20
518.702080218603
 11
545.117957152248
 21
529.337954145079
  0
LINE
  5
A4
100
AcDbEntity
  8
1
  6
CONTINUOUS
 62
           3
100
AcDbLine
 10
545.117957152248
 20
529.337954145079
 11
541.07251088919
 21
529.337954145079
  0
LINE
  5
A3
100
AcDbEntity
  8
1
  6
CONTINUOUS
 62
           3
100
AcDbLine
 10
541.07251088919
 20
529.337954145079
 11
535.475284708904
 21
522.165696066823
  0
LINE
  5
A2
100
AcDbEntity
  8
1
  6
CONTINUOUS
 62
           3
100
AcDbLine
 10
535.475284708904
 20
522.165696066823
 11
532.695431584947
 21
529.337954145079
  0
LINE
  5
A1
100
AcDbEntity
  8
1
  6
CONTINUOUS
 62
           3
100
AcDbLine
 10
542.717284785685
 20
503.480718393909
 11
545.117957152204
 21
497.286779
  0
LINE
  5
A0
100
AcDbEntity
  8
1
  6
CONTINUOUS
 62
           3
100
AcDbLine
 10
542.717284785685
 20
503.480718393909
 11
499.908135233513
 21
503.480718393909
  0
LINE
  5
9F
100
AcDbEntity
  8
1
  6
CONTINUOUS
 62
           3
100
AcDbLine
 10
545.117957152204
 20
497.286779
 11
492.527155733394
 21
497.286779
  0
LINE
  5
9E
100
AcDbEntity
  8
1
  6
CONTINUOUS
 62
           3
100
AcDbLine
 10
401.527141658964
 20
540.398560205662
 11
404.779063836446
 21
553.671287478319
  0
LINE
  5
9D
100
AcDbEntity
  8
1
  6
CONTINUOUS
 62
           3
100
AcDbLine
 10
404.779063836446
 20
553.671287478319
 11
417.343526302164
 21
553.671287478319
  0
LINE
  5
9C
100
AcDbEntity
  8
1
  6
CONTINUOUS
 62
           3
100
AcDbLine
 10
417.343526302164
 20
553.671287478319
 11
414.091604124489
 21
540.398560205662
  0
LINE
  5
9B
100
AcDbEntity
  8
1
  6
CONTINUOUS
 62
           3
100
AcDbLine
 10
414.091604124489
 20
540.398560205662
 11
401.527141658964
 21
540.398560205662
  0
LINE
  5
9A
100
AcDbEntity
  8
1
  6
CONTINUOUS
 62
           3
100
AcDbLine
 10
412.539514076485
 20
542.610681417793
 11
404.16320576613
 21
542.610681417793
  0
LINE
  5
99
100
AcDbEntity
  8
1
  6
CONTINUOUS
 62
           3
100
AcDbLine
 10
414.707462194961
 20
551.459166266268
 11
412.539514076485
 21
542.610681417793
  0
LINE
  5
98
100
AcDbEntity
  8
1
  6
CONTINUOUS
 62
           3
100
AcDbLine
 10
406.331153884472
 20
551.459166266268
 11
414.707462194961
 21
551.459166266268
  0
LINE
  5
97
100
AcDbEntity
  8
1
  6
CONTINUOUS
 62
           3
100
AcDbLine
 10
404.16320576613
 20
542.610681417793
 11
406.331153884472
 21
551.459166266268
  0
LINE
  5
96
100
AcDbEntity
  8
1
  6
CONTINUOUS
 62
           3
100
AcDbLine
 10
419.856418795156
 20
553.671287478319
 11
416.60449661762
 21
540.398560205662
  0
LINE
  5
95
100
AcDbEntity
  8
1
  6
CONTINUOUS
 62
           3
100
AcDbLine
 10
419.856418795156
 20
553.671287478319
 11
432.420881260736
 21
553.671287478319
  0
LINE
  5
94
100
AcDbEntity
  8
1
  6
CONTINUOUS
 62
           3
100
AcDbLine
 10
432.420881260736
 20
553.671287478319
 11
430.553357150882
 21
546.048983858331
  0
LINE
  5
93
100
AcDbEntity
  8
1
  6
CONTINUOUS
 62
           3
100
AcDbLine
 10
429.168959083203
 20
540.398560205662
 11
427.074882005563
 21
540.398560205662
  0
LINE
  5
92
100
AcDbEntity
  8
1
  6
CONTINUOUS
 62
           3
100
AcDbLine
 10
427.074882005563
 20
540.398560205662
 11
428.158856064936
 21
544.822802629844
  0
LINE
  5
91
100
AcDbEntity
  8
1
  6
CONTINUOUS
 62
           3
100
AcDbLine
 10
428.158856064936
 20
544.822802629844
 11
419.782547754407
 21
544.822802629844
  0
LINE
  5
90
100
AcDbEntity
  8
1
  6
CONTINUOUS
 62
           3
100
AcDbLine
 10
420.324534783999
 20
547.034923842033
 11
428.700843094379
 21
547.034923842033
  0
LINE
  5
8F
100
AcDbEntity
  8
1
  6
CONTINUOUS
 62
           3
100
AcDbLine
 10
428.700843094379
 20
547.034923842033
 11
429.784817153701
 21
551.459166266268
  0
LINE
  5
8E
100
AcDbEntity
  8
1
  6
CONTINUOUS
 62
           3
100
AcDbLine
 10
429.784817153701
 20
551.459166266268
 11
421.408508843182
 21
551.459166266268
  0
LINE
  5
8D
100
AcDbEntity
  8
1
  6
CONTINUOUS
 62
           3
100
AcDbLine
 10
421.408508843182
 20
551.459166266268
 11
420.324534783999
 21
547.034923842033
  0
LINE
  5
8C
100
AcDbEntity
  8
1
  6
CONTINUOUS
 62
           3
100
AcDbLine
 10
430.116677469316
 20
544.266674810781
 11
429.168959083203
 21
540.398560205662
  0
LINE
  5
8B
100
AcDbEntity
  8
1
  6
CONTINUOUS
 62
           3
100
AcDbLine
 10
416.60449661762
 20
540.398560205662
 11
418.698573695296
 21
540.398560205662
  0
LINE
  5
8A
100
AcDbEntity
  8
1
  6
CONTINUOUS
 62
           3
100
AcDbLine
 10
418.698573695296
 20
540.398560205662
 11
419.782547754407
 21
544.822802629844
  0
LINE
  5
89
100
AcDbEntity
  8
1
  6
CONTINUOUS
 62
           3
100
AcDbLine
 10
437.027850831462
 20
553.671287478319
 11
434.933773753899
 21
553.671287478319
  0
LINE
  5
88
100
AcDbEntity
  8
1
  6
CONTINUOUS
 62
           3
100
AcDbLine
 10
434.933773753899
 20
553.671287478319
 11
431.681851576334
 21
540.398560205662
  0
LINE
  5
87
100
AcDbEntity
  8
1
  6
CONTINUOUS
 62
           3
100
AcDbLine
 10
431.681851576334
 20
540.398560205662
 11
433.775928654053
 21
540.398560205662
  0
LINE
  5
86
100
AcDbEntity
  8
1
  6
CONTINUOUS
 62
           3
100
AcDbLine
 10
433.775928654053
 20
540.398560205662
 11
437.027850831462
 21
553.671287478319
  0
LINE
  5
85
100
AcDbEntity
  8
1
  6
CONTINUOUS
 62
           3
100
AcDbLine
 10
436.288821147038
 20
540.398560205662
 11
439.540743324582
 21
553.671287478319
  0
LINE
  5
84
100
AcDbEntity
  8
1
  6
CONTINUOUS
 62
           3
100
AcDbLine
 10
439.540743324582
 20
553.671287478319
 11
452.105205790173
 21
553.671287478319
  0
LINE
  5
83
100
AcDbEntity
  8
1
  6
CONTINUOUS
 62
           3
100
AcDbLine
 10
452.105205790173
 20
553.671287478319
 11
450.967033028046
 21
549.025832932891
  0
LINE
  5
82
100
AcDbEntity
  8
1
  6
CONTINUOUS
 62
           3
100
AcDbLine
 10
448.853283612651
 20
540.398560205662
 11
436.288821147038
 21
540.398560205662
  0
LINE
  5
81
100
AcDbEntity
  8
1
  6
CONTINUOUS
 62
           3
100
AcDbLine
 10
447.301193564603
 20
542.610681417793
 11
438.924885254273
 21
542.610681417793
  0
LINE
  5
80
100
AcDbEntity
  8
1
  6
CONTINUOUS
 62
           3
100
AcDbLine
 10
449.469141682897
 20
551.459166266268
 11
448.87295595052
 21
549.025832932891
  0
LINE
  5
7F
100
AcDbEntity
  8
1
  6
CONTINUOUS
 62
           3
100
AcDbLine
 10
441.092833372601
 20
551.459166266268
 11
449.469141682897
 21
551.459166266268
  0
LINE
  5
7E
100
AcDbEntity
  8
1
  6
CONTINUOUS
 62
           3
100
AcDbLine
 10
438.924885254273
 20
542.610681417793
 11
441.092833372601
 21
551.459166266268
  0
LINE
  5
7D
100
AcDbEntity
  8
1
  6
CONTINUOUS
 62
           3
100
AcDbLine
 10
450.479244701423
 20
547.034923842033
 11
444.197013468617
 21
547.034923842033
  0
LINE
  5
7C
100
AcDbEntity
  8
1
  6
CONTINUOUS
 62
           3
100
AcDbLine
 10
450.479244701423
 20
547.034923842033
 11
448.853283612651
 21
540.398560205662
  0
LINE
  5
7B
100
AcDbEntity
  8
1
  6
CONTINUOUS
 62
           3
100
AcDbLine
 10
444.197013468617
 20
547.034923842033
 11
443.65502643897
 21
544.822802629844
  0
LINE
  5
7A
100
AcDbEntity
  8
1
  6
CONTINUOUS
 62
           3
100
AcDbLine
 10
443.65502643897
 20
544.822802629844
 11
447.84318059437
 21
544.822802629844
  0
LINE
  5
79
100
AcDbEntity
  8
1
  6
CONTINUOUS
 62
           3
100
AcDbLine
 10
447.84318059437
 20
544.822802629844
 11
447.301193564603
 21
542.610681417793
  0
LINE
  5
78
100
AcDbEntity
  8
1
  6
CONTINUOUS
 62
           3
100
AcDbLine
 10
448.87295595052
 20
549.025832932891
 11
450.967033028046
 21
549.025832932891
  0
LINE
  5
77
100
AcDbEntity
  8
1
  6
CONTINUOUS
 62
           3
100
AcDbLine
 10
451.366176105767
 20
540.398560205662
 11
453.460253183327
 21
540.398560205662
  0
LINE
  5
76
100
AcDbEntity
  8
1
  6
CONTINUOUS
 62
           3
100
AcDbLine
 10
453.460253183327
 20
540.398560205662
 11
456.712175360896
 21
553.671287478319
  0
LINE
  5
75
100
AcDbEntity
  8
1
  6
CONTINUOUS
 62
           3
100
AcDbLine
 10
454.618098283332
 20
553.671287478319
 11
451.366176105767
 21
540.398560205662
  0
LINE
  5
74
100
AcDbEntity
  8
1
  6
CONTINUOUS
 62
           3
100
AcDbLine
 10
456.712175360896
 20
553.671287478319
 11
454.618098283332
 21
553.671287478319
  0
LINE
  5
73
100
AcDbEntity
  8
1
  6
CONTINUOUS
 62
           3
100
AcDbLine
 10
455.973145676497
 20
540.398560205662
 11
459.225067854012
 21
553.671287478319
  0
LINE
  5
72
100
AcDbEntity
  8
1
  6
CONTINUOUS
 62
           3
100
AcDbLine
 10
459.225067854012
 20
553.671287478319
 11
462.366183470353
 21
553.671287478319
  0
LINE
  5
71
100
AcDbEntity
  8
1
  6
CONTINUOUS
 62
           3
100
AcDbLine
 10
462.366183470353
 20
553.671287478319
 11
466.850021336628
 21
542.057651114746
  0
LINE
  5
70
100
AcDbEntity
  8
1
  6
CONTINUOUS
 62
           3
100
AcDbLine
 10
466.850021336628
 20
542.057651114746
 11
469.695453241981
 21
553.671287478319
  0
LINE
  5
6F
100
AcDbEntity
  8
1
  6
CONTINUOUS
 62
           3
100
AcDbLine
 10
469.695453241981
 20
553.671287478319
 11
471.789530319595
 21
553.671287478319
  0
LINE
  5
6E
100
AcDbEntity
  8
1
  6
CONTINUOUS
 62
           3
100
AcDbLine
 10
471.789530319595
 20
553.671287478319
 11
468.537608141975
 21
540.398560205662
  0
LINE
  5
6D
100
AcDbEntity
  8
1
  6
CONTINUOUS
 62
           3
100
AcDbLine
 10
468.537608141975
 20
540.398560205662
 11
465.294929653206
 21
540.398560205662
  0
LINE
  5
6C
100
AcDbEntity
  8
1
  6
CONTINUOUS
 62
           3
100
AcDbLine
 10
465.294929653206
 20
540.398560205662
 11
461.513773317496
 21
550.192173629534
  0
LINE
  5
6B
100
AcDbEntity
  8
1
  6
CONTINUOUS
 62
           3
100
AcDbLine
 10
461.513773317496
 20
550.192173629534
 11
460.873225050986
 21
551.851264538597
  0
LINE
  5
6A
100
AcDbEntity
  8
1
  6
CONTINUOUS
 62
           3
100
AcDbLine
 10
460.873225050986
 20
551.851264538597
 11
458.067222754057
 21
540.398560205662
  0
LINE
  5
69
100
AcDbEntity
  8
1
  6
CONTINUOUS
 62
           3
100
AcDbLine
 10
458.067222754057
 20
540.398560205662
 11
455.973145676497
 21
540.398560205662
  0
LINE
  5
68
100
AcDbEntity
  8
1
  6
CONTINUOUS
 62
           3
100
AcDbLine
 10
471.050500635091
 20
540.398560205662
 11
478.561930913988
 21
553.671287478319
  0
LINE
  5
67
100
AcDbEntity
  8
1
  6
CONTINUOUS
 62
           3
100
AcDbLine
 10
478.561930913988
 20
553.671287478319
 11
482.607377176962
 21
553.671287478319
  0
LINE
  5
66
100
AcDbEntity
  8
1
  6
CONTINUOUS
 62
           3
100
AcDbLine
 10
482.607377176962
 20
553.671287478319
 11
483.614963100725
 21
540.398560205662
  0
LINE
  5
65
100
AcDbEntity
  8
1
  6
CONTINUOUS
 62
           3
100
AcDbLine
 10
483.614963100725
 20
540.398560205662
 11
481.585280937656
 21
540.398560205662
  0
LINE
  5
64
100
AcDbEntity
  8
1
  6
CONTINUOUS
 62
           3
100
AcDbLine
 10
481.585280937656
 20
540.398560205662
 11
481.417349950389
 21
542.610681417793
  0
LINE
  5
63
100
AcDbEntity
  8
1
  6
CONTINUOUS
 62
           3
100
AcDbLine
 10
481.417349950389
 20
542.610681417793
 11
474.681202670025
 21
542.610681417793
  0
LINE
  5
62
100
AcDbEntity
  8
1
  6
CONTINUOUS
 62
           3
100
AcDbLine
 10
474.681202670025
 20
542.610681417793
 11
473.429297623662
 21
540.398560205662
  0
LINE
  5
61
100
AcDbEntity
  8
1
  6
CONTINUOUS
 62
           3
100
AcDbLine
 10
473.429297623662
 20
540.398560205662
 11
471.050500635091
 21
540.398560205662
  0
LINE
  5
60
100
AcDbEntity
  8
1
  6
CONTINUOUS
 62
           3
100
AcDbLine
 10
475.933107716556
 20
544.822802629844
 11
481.249418963067
 21
544.822802629844
  0
LINE
  5
5F
100
AcDbEntity
  8
1
  6
CONTINUOUS
 62
           3
100
AcDbLine
 10
481.249418963067
 20
544.822802629844
 11
480.745626001212
 21
551.459166266268
  0
LINE
  5
5E
100
AcDbEntity
  8
1
  6
CONTINUOUS
 62
           3
100
AcDbLine
 10
480.745626001212
 20
551.459166266268
 11
479.688822855922
 21
551.459166266268
  0
LINE
  5
5D
100
AcDbEntity
  8
1
  6
CONTINUOUS
 62
           3
100
AcDbLine
 10
475.933107716556
 20
544.822802629844
 11
479.688822855922
 21
551.459166266268
  0
LINE
  5
5C
100
AcDbEntity
  8
1
  6
CONTINUOUS
 62
           3
100
AcDbLine
 10
489.379777771413
 20
553.671287478319
 11
486.127855593845
 21
540.398560205662
  0
LINE
  5
5B
100
AcDbEntity
  8
1
  6
CONTINUOUS
 62
           3
100
AcDbLine
 10
486.127855593845
 20
540.398560205662
 11
498.692318059424
 21
540.398560205662
  0
LINE
  5
5A
100
AcDbEntity
  8
1
  6
CONTINUOUS
 62
           3
100
AcDbLine
 10
498.692318059424
 20
540.398560205662
 11
499.234305089085
 21
542.610681417793
  0
LINE
  5
59
100
AcDbEntity
  8
1
  6
CONTINUOUS
 62
           3
100
AcDbLine
 10
499.234305089085
 20
542.610681417793
 11
488.763919701065
 21
542.610681417793
  0
LINE
  5
58
100
AcDbEntity
  8
1
  6
CONTINUOUS
 62
           3
100
AcDbLine
 10
488.763919701065
 20
542.610681417793
 11
491.473854849028
 21
553.671287478319
  0
LINE
  5
57
100
AcDbEntity
  8
1
  6
CONTINUOUS
 62
           3
100
AcDbLine
 10
491.473854849028
 20
553.671287478319
 11
489.379777771413
 21
553.671287478319
  0
LINE
  5
56
100
AcDbEntity
  8
1
  6
CONTINUOUS
 62
           3
100
AcDbLine
 10
535.995090135697
 20
547.486890213841
 11
535.995090135697
 21
544.737834788281
  0
LINE
  5
55
100
AcDbEntity
  8
1
  6
CONTINUOUS
 62
           3
100
AcDbLine
 10
535.122642436581
 20
544.737834788281
 11
535.122642436581
 21
551.596302963455
  0
LINE
  5
54
100
AcDbEntity
  8
1
  6
CONTINUOUS
 62
           3
100
AcDbLine
 10
535.122642436581
 20
551.596302963455
 11
537.564562295822
 21
551.596302963455
  0
LINE
  5
53
100
AcDbEntity
  8
1
  6
CONTINUOUS
 62
           3
100
AcDbLine
 10
537.564562295822
 20
551.596302963455
 11
537.860918878174
 21
551.596302963455
  0
LINE
  5
52
100
AcDbEntity
  8
1
  6
CONTINUOUS
 62
           3
100
AcDbLine
 10
539.69455339274
 20
546.617468554626
 11
539.69455339274
 21
544.737834788281
  0
LINE
  5
51
100
AcDbEntity
  8
1
  6
CONTINUOUS
 62
           3
100
AcDbLine
 10
539.69455339274
 20
544.737834788281
 11
538.733366577235
 21
544.737834788281
  0
LINE
  5
50
100
AcDbEntity
  8
1
  6
CONTINUOUS
 62
           3
100
AcDbLine
 10
538.733366577235
 20
544.737834788281
 11
538.733366577235
 21
546.3596900559
  0
LINE
  5
4F
100
AcDbEntity
  8
1
  6
CONTINUOUS
 62
           3
100
AcDbLine
 10
537.720151837315
 20
547.486890213841
 11
535.995090135697
 21
547.486890213841
  0
LINE
  5
4E
100
AcDbEntity
  8
1
  6
CONTINUOUS
 62
           3
100
AcDbLine
 10
535.995090135697
 20
544.737834788281
 11
535.122642436581
 21
544.737834788281
  0
LINE
  5
4D
100
AcDbEntity
  8
1
  6
CONTINUOUS
 62
           3
100
AcDbLine
 10
535.995090135697
 20
548.337113541275
 11
537.982573363639
 21
548.337113541275
  0
LINE
  5
4C
100
AcDbEntity
  8
1
  6
CONTINUOUS
 62
           3
100
AcDbLine
 10
537.851063127783
 20
550.792771531278
 11
535.995090135697
 21
550.792771531278
  0
LINE
  5
4B
100
AcDbEntity
  8
1
  6
CONTINUOUS
 62
           3
100
AcDbLine
 10
535.995090135697
 20
550.792771531278
 11
535.995090135697
 21
548.337113541275
  0
ENDBLK
  5
FF
100
AcDbEntity
  8
0
100
AcDbBlockEnd
  0
ENDSEC
  0
SECTION
  2
ENTITIES
  0
TEXT
  5
103
100
AcDbEntity
  8
1
 62
           2
100
AcDbText
 10
364.788453999998
 20
407.286779
 40
35.0
  1
Prime-line 264
 41
0.71262
  7
CONVERTER_1
100
AcDbText
  0
MTEXT
  5
102
100
AcDbEntity
  8
1
 62
           3
100
AcDbMText
 10
1275.00000000002
 20
339.24239148631
 30
0.0
 40
35.0
 41
0.0
 71
           9
 72
           1
  1
ø 52
  7
CONVERTER_1
  0
INSERT
  5
2E
100
AcDbEntity
  8
0
100
AcDbBlockReference
  2
WANNE_PRIME_LINE_264
 10
0.0
 20
0.0
  0
INSERT
  5
2F
100
AcDbEntity
  8
0
100
AcDbBlockReference
  2
DLX
 10
0.0
 20
0.0
  0
ENDSEC
  0
SECTION
  2
OBJECTS
  0
DICTIONARY
  5
19
100
AcDbDictionary
  3
ACAD_GROUP
350
1A
  3
ACAD_MLINESTYLE
350
1B
  0
DICTIONARY
  5
1A
102
{ACAD_REACTORS
330
19
102
}
100
AcDbDictionary
  0
DICTIONARY
  5
1B
102
{ACAD_REACTORS
330
19
102
}
100
AcDbDictionary
  3
STANDARD
350
1C
  0
MLINESTYLE
  5
1C
102
{ACAD_REACTORS
330
1B
102
}
100
AcDbMlineStyle
  2
STANDARD
 70
           0
  3

 62
           0
 51
90.0
 52
90.0
 71
           2
 49
0.5
 62
         256
  6
BYLAYER
 49
-0.5
 62
         256
  6
BYLAYER
  0
ENDSEC
  0
EOF
