  0
SECTION
  2
HEADER
  9
$ACADVER
  1
AC1014
  9
$ACADMAINTVER
 70
           0
  9
$DWGCODEPAGE
  3
ANSI_1252
  9
$INSBASE
 10
0.0
 20
0.0
 30
0.0
  9
$EXTMIN
 10
1.000000000000E+20
 20
1.000000000000E+20
 30
1.000000000000E+20
  9
$EXTMAX
 10
-1.000000000000E+20
 20
-1.000000000000E+20
 30
-1.000000000000E+20
  9
$LIMMIN
 10
0.0
 20
0.0
  9
$LIMMAX
 10
0.0
 20
0.0
  9
$ORTHOMODE
 70
           0
  9
$REGENMODE
 70
           1
  9
$FILLMODE
 70
           1
  9
$QTEXTMODE
 70
           0
  9
$MIRRTEXT
 70
           1
  9
$DRAGMODE
 70
           2
  9
$LTSCALE
 40
1.0
  9
$OSMODE
 70
           0
  9
$ATTMODE
 70
           1
  9
$TEXTSIZE
 40
0.2
  9
$TRACEWID
 40
0.05
  9
$TEXTSTYLE
  7
STANDARD
  9
$CLAYER
  8
0
  9
$CELTYPE
  6
CONTINUOUS
  9
$CECOLOR
 62
         256
  9
$CELTSCALE
 40
1.0
  9
$DELOBJ
 70
           1
  9
$DISPSILH
 70
           0
  9
$DIMSCALE
 40
1.0
  9
$DIMASZ
 40
0.18
  9
$DIMEXO
 40
0.0625
  9
$DIMDLI
 40
0.38
  9
$DIMRND
 40
0.0
  9
$DIMDLE
 40
0.0
  9
$DIMEXE
 40
0.18
  9
$DIMTP
 40
0.0
  9
$DIMTM
 40
0.0
  9
$DIMTXT
 40
0.18
  9
$DIMCEN
 40
0.09
  9
$DIMTSZ
 40
0.0
  9
$DIMTOL
 70
           0
  9
$DIMLIM
 70
           0
  9
$DIMTIH
 70
           1
  9
$DIMTOH
 70
           1
  9
$DIMSE1
 70
           0
  9
$DIMSE2
 70
           0
  9
$DIMTAD
 70
           0
  9
$DIMZIN
 70
           0
  9
$DIMBLK
  1

  9
$DIMASO
 70
           1
  9
$DIMSHO
 70
           1
  9
$DIMPOST
  1

  9
$DIMAPOST
  1

  9
$DIMALT
 70
           0
  9
$DIMALTD
 70
           2
  9
$DIMALTF
 40
25.4
  9
$DIMLFAC
 40
1.0
  9
$DIMTOFL
 70
           0
  9
$DIMTVP
 40
0.0
  9
$DIMTIX
 70
           0
  9
$DIMSOXD
 70
           0
  9
$DIMSAH
 70
           0
  9
$DIMBLK1
  1

  9
$DIMBLK2
  1

  9
$DIMSTYLE
  2
STANDARD
  9
$DIMCLRD
 70
           0
  9
$DIMCLRE
 70
           0
  9
$DIMCLRT
 70
           0
  9
$DIMTFAC
 40
1.0
  9
$DIMGAP
 40
0.09
  9
$DIMJUST
 70
           0
  9
$DIMSD1
 70
           0
  9
$DIMSD2
 70
           0
  9
$DIMTOLJ
 70
           1
  9
$DIMTZIN
 70
           0
  9
$DIMALTZ
 70
           0
  9
$DIMALTTZ
 70
           0
  9
$DIMFIT
 70
           3
  9
$DIMUPT
 70
           0
  9
$DIMUNIT
 70
           2
  9
$DIMDEC
 70
           4
  9
$DIMTDEC
 70
           4
  9
$DIMALTU
 70
           2
  9
$DIMALTTD
 70
           2
  9
$DIMTXSTY
  7
STANDARD
  9
$DIMAUNIT
 70
           0
  9
$LUNITS
 70
           2
  9
$LUPREC
 70
           4
  9
$SKETCHINC
 40
0.1
  9
$FILLETRAD
 40
0.0
  9
$AUNITS
 70
           0
  9
$AUPREC
 70
           0
  9
$MENU
  1
acad
  9
$ELEVATION
 40
0.0
  9
$PELEVATION
 40
0.0
  9
$THICKNESS
 40
0.0
  9
$LIMCHECK
 70
           0
  9
$BLIPMODE
 70
           1
  9
$CHAMFERA
 40
0.0
  9
$CHAMFERB
 40
0.0
  9
$CHAMFERC
 40
0.0
  9
$CHAMFERD
 40
0.0
  9
$SKPOLY
 70
           0
  9
$TDCREATE
 40
0.000000000
  9
$TDUPDATE
 40
0.000000000
  9
$TDINDWG
 40
0.0000000000
  9
$TDUSRTIMER
 40
0.0000000000
  9
$USRTIMER
 70
           1
  9
$ANGBASE
 50
0.0
  9
$ANGDIR
 70
           0
  9
$PDMODE
 70
           0
  9
$PDSIZE
 40
0.0
  9
$PLINEWID
 40
0.0
  9
$COORDS
 70
           0
  9
$SPLFRAME
 70
           0
  9
$SPLINETYPE
 70
           6
  9
$SPLINESEGS
 70
           8
  9
$ATTDIA
 70
           0
  9
$ATTREQ
 70
           1
  9
$HANDLING
 70
           1
  9
$HANDSEED
  5
105
  9
$SURFTAB1
 70
           6
  9
$SURFTAB2
 70
           6
  9
$SURFTYPE
 70
           6
  9
$SURFU
 70
           6
  9
$SURFV
 70
           6
  9
$UCSNAME
  2

  9
$UCSORG
 10
0.0
 20
0.0
 30
0.0
  9
$UCSXDIR
 10
1.0
 20
0.0
 30
0.0
  9
$UCSYDIR
 10
0.0
 20
1.0
 30
0.0
  9
$PUCSNAME
  2

  9
$PUCSORG
 10
0.0
 20
0.0
 30
0.0
  9
$PUCSXDIR
 10
1.0
 20
0.0
 30
0.0
  9
$PUCSYDIR
 10
0.0
 20
1.0
 30
0.0
  9
$USERI1
 70
           0
  9
$USERI2
 70
           0
  9
$USERI3
 70
           0
  9
$USERI4
 70
           0
  9
$USERI5
 70
           0
  9
$USERR1
 40
0.0
  9
$USERR2
 40
0.0
  9
$USERR3
 40
0.0
  9
$USERR4
 40
0.0
  9
$USERR5
 40
0.0
  9
$WORLDVIEW
 70
           1
  9
$SHADEDGE
 70
           3
  9
$SHADEDIF
 70
          70
  9
$TILEMODE
 70
           1
  9
$MAXACTVP
 70
          16
  9
$PINSBASE
 10
0.0
 20
0.0
 30
0.0
  9
$PLIMCHECK
 70
           0
  9
$PEXTMIN
 10
1.000000000000E+20
 20
1.000000000000E+20
 30
1.000000000000E+20
  9
$PEXTMAX
 10
-1.000000000000E+20
 20
-1.000000000000E+20
 30
-1.000000000000E+20
  9
$PLIMMIN
 10
0.0
 20
0.0
  9
$PLIMMAX
 10
12.0
 20
9.0
  9
$UNITMODE
 70
           0
  9
$VISRETAIN
 70
           0
  9
$PLINEGEN
 70
           1
  9
$PSLTSCALE
 70
           0
  9
$TREEDEPTH
 70
        3020
  9
$PICKSTYLE
 70
           1
  9
$CMLSTYLE
  2
STANDARD
  9
$CMLJUST
 70
           0
  9
$CMLSCALE
 40
1.0
  9
$PROXYGRAPHICS
 70
           0
  9
$MEASUREMENT
 70
           0
  0
ENDSEC
  0
SECTION
  2
CLASSES
  0
CLASS
  1
LWPOLYLINE
  2
AcDbPolyline
  3
"AutoCAD"
 90
        0
280
           0
281
           1
  0
CLASS
  1
IMAGE
  2
AcDbRasterImage
  3
ISM
 90
      127
280
           0
281
           1
  0
CLASS
  1
OLE2FRAME
  2
AcDbOle2Frame
  3
""
 90
        0
280
           0
281
           1
  0
CLASS
  1
HATCH
  2
AcDbHatch
  3
"ACAD_SEDONA"
 90
        0
280
           0
281
           1
  0
CLASS
  1
DICTIONARYVAR
  2
AcDbDictionaryVar
  3
"AutoCAD"
 90
        0
280
           0
281
           0
  0
CLASS
  1
RASTERVARIABLES
  2
AcDbRasterVariables
  3
ISM
 90
        0
280
           0
281
           0
  0
CLASS
  1
IMAGEDEF
  2
AcDbRasterImageDef
  3
ISM
 90
        0
280
           0
281
           0
  0
CLASS
  1
IMAGEDEF_REACTOR
  2
AcDbRasterImageDefReactor
  3
ISM
 90
        1
280
           0
281
           0
  0
CLASS
  1
IDBUFFER
  2
AcDbIdBuffer
  3
"Acad"
 90
        0
280
           0
281
           0
  0
CLASS
  1
SPATIAL_FILTER
  2
AcDbSpatialFilter
  3
"Acad"
 90
        0
280
           0
281
           0
  0
CLASS
  1
XRECORD
  2
AcDbXrecord
  3
"<Built In>"
 90
        0
280
           0
281
           0
  0
CLASS
  1
SORTENTSTABLE
  2
AcDbSortentsTable
  3
"AutoCAD"
 90
        0
280
           0
281
           0
  0
CLASS
  1
LAYER_INDEX
  2
AcDbLayerIndex
  3
"Acad"
 90
        0
280
           0
281
           0
  0
CLASS
  1
SPATIAL_INDEX
  2
AcDbSpatialIndex
  3
"Acad"
 90
        0
280
           0
281
           0
  0
CLASS
  1
OBJECT_PTR
  2
CAseDLPNTableRecord
  3
"ASE-LPNTableRecord"
 90
        1
280
           0
281
           0
  0
CLASS
  1
LAYOUT
  2
AcDbLayout
  3
"AutoCAD 2000"
 90
        1
280
           0
281
           0
  0
CLASS
  1
PLOTSETTINGS
  2
AcDbPlotSettings
  3
"AutoCAD 2000"
 90
        1
280
           0
281
           0
  0
CLASS
  1
ACDBDICTIONARYWDFLT
  2
AcDbDictionaryWithDefault
  3
"AutoCAD 2000"
 90
        1
280
           0
281
           0
  0
CLASS
  1
ACDBPLACEHOLDER
  2
AcDbPlaceHolder
  3
"AutoCAD 2000"
 90
        1
280
           0
281
           0
  0
CLASS
  1
VBA_PROJECT
  2
AcDbVbaProject
  3
"acadvba"
 90
        1
280
           0
281
           0
  0
CLASS
  1
WIPEOUT
  2
AcDbWipeout
  3
WipeOut|AutoCAD Express Tool|expresstools@autodesk.com
 90
      127
280
           0
281
           1
  0
CLASS
  1
WIPEOUTVARIABLES
  2
AcDbWipeoutVariables
  3
WipeOut|AutoCAD Express Tool|expresstools@autodesk.com
 90
        0
280
           0
281
           0
  0
CLASS
  1
RTEXT
  2
RText
  3
RText|AutoCAD Express Tool|expresstools@autodesk.com
 90
        0
280
           0
281
           1
  0
CLASS
  1
ARCALIGNEDTEXT
  2
AcDbArcAlignedText
  3
ATEXT|AutoCAD Express Tool|expresstools@autodesk.com
 90
        0
280
           0
281
           1
  0
ENDSEC
  0
SECTION
  2
TABLES
  0
TABLE
  2
VPORT
  5
7
100
AcDbSymbolTable
 70
           1
  0
VPORT
  5
15
100
AcDbSymbolTableRecord
100
AcDbViewportTableRecord
  2
*ACTIVE
 70
           0
 10
0.0
 20
0.0
 11
1.0
 21
1.0
 12
6.591288
 22
4.579184
 13
0.0
 23
0.0
 14
1.0
 24
1.0
 15
0.0
 25
0.0
 16
0.0
 26
0.0
 36
1.0
 17
0.0
 27
0.0
 37
0.0
 40
9.158369
 41
0.688564
 42
50.0
 43
0.0
 44
0.0
 50
0.0
 51
0.0
 71
           0
 72
         100
 73
           1
 74
           1
 75
           0
 76
           0
 77
           0
 78
           0
  0
ENDTAB
  0
TABLE
  2
LTYPE
  5
4
100
AcDbSymbolTable
 70
          10
  0
LTYPE
  5
11
100
AcDbSymbolTableRecord
100
AcDbLinetypeTableRecord
  2
BYBLOCK
 70
          64
  3

 72
          65
 73
           0
 40
0.0
  0
LTYPE
  5
12
100
AcDbSymbolTableRecord
100
AcDbLinetypeTableRecord
  2
BYLAYER
 70
          64
  3

 72
          65
 73
           0
 40
0.0
  0
LTYPE
  5
13
100
AcDbSymbolTableRecord
100
AcDbLinetypeTableRecord
  2
CONTINUOUS
 70
          64
  3
Solid line
 72
          65
 73
           0
 40
0.0
  0
LTYPE
  5
1D
100
AcDbSymbolTableRecord
100
AcDbLinetypeTableRecord
  2
DASHED
 70
          64
  3
Dashed
 72
          65
 73
           2
 40
15.0
 49
12.0
 74
           0
 49
-3.0
 74
           0
  0
LTYPE
  5
1E
100
AcDbSymbolTableRecord
100
AcDbLinetypeTableRecord
  2
DOTTED
 70
          64
  3
Dotted
 72
          65
 73
           2
 40
3.5
 49
0.5
 74
           0
 49
-3.0
 74
           0
  0
LTYPE
  5
1F
100
AcDbSymbolTableRecord
100
AcDbLinetypeTableRecord
  2
DOT_CENTER
 70
          64
  3
Dot_Center
 72
          65
 73
           4
 40
2.0
 49
1.25
 74
           0
 49
-0.25
 74
           0
 49
0.25
 74
           0
 49
-0.25
 74
           0
  0
LTYPE
  5
20
100
AcDbSymbolTableRecord
100
AcDbLinetypeTableRecord
  2
LONG_DASHED
 70
          64
  3
Long_Dashed
 72
          65
 73
           2
 40
2.0
 49
1.5
 74
           0
 49
-0.5
 74
           0
  0
LTYPE
  5
21
100
AcDbSymbolTableRecord
100
AcDbLinetypeTableRecord
  2
DASH_CENTER
 70
          64
  3
Dash_Center
 72
          65
 73
           4
 40
36.0
 49
24.0
 74
           0
 49
-3.0
 74
           0
 49
6.0
 74
           0
 49
-3.0
 74
           0
  0
LTYPE
  5
22
100
AcDbSymbolTableRecord
100
AcDbLinetypeTableRecord
  2
PHANTOM
 70
          64
  3
Phantom
 72
          65
 73
           6
 40
2.5
 49
1.25
 74
           0
 49
-0.25
 74
           0
 49
0.25
 74
           0
 49
-0.25
 74
           0
 49
0.25
 74
           0
 49
-0.25
 74
           0
  0
LTYPE
  5
23
100
AcDbSymbolTableRecord
100
AcDbLinetypeTableRecord
  2
CENTER_DASH_DASH
 70
          64
  3
Center_Dash_Dash
 72
          65
 73
           6
 40
22.0
 49
12.0
 74
           0
 49
-3.0
 74
           0
 49
0.5
 74
           0
 49
-3.0
 74
           0
 49
0.5
 74
           0
 49
-3.0
 74
           0
  0
ENDTAB
  0
TABLE
  2
LAYER
  5
2
100
AcDbSymbolTable
 70
           5
  0
LAYER
  5
14
100
AcDbSymbolTableRecord
100
AcDbLayerTableRecord
  2
0
 70
           0
 62
           7
  6
CONTINUOUS
  0
LAYER
  5
24
100
AcDbSymbolTableRecord
100
AcDbLayerTableRecord
  2
MITTELLINIEN
 70
           0
 62
           7
  6
CONTINUOUS
  0
LAYER
  5
25
100
AcDbSymbolTableRecord
100
AcDbLayerTableRecord
  2
1
 70
           0
 62
           7
  6
CONTINUOUS
  0
LAYER
  5
26
100
AcDbSymbolTableRecord
100
AcDbLayerTableRecord
  2
GEOMETRIE
 70
           0
 62
           7
  6
CONTINUOUS
  0
LAYER
  5
27
100
AcDbSymbolTableRecord
100
AcDbLayerTableRecord
  2
WANNE
 70
           0
 62
           7
  6
CONTINUOUS
  0
ENDTAB
  0
TABLE
  2
STYLE
  5
3
100
AcDbSymbolTable
 70
           2
  0
STYLE
  5
17
100
AcDbSymbolTableRecord
100
AcDbTextStyleTableRecord
  2
STANDARD
 70
           0
 40
0.0
 41
1.0
 50
0.0
 71
           0
 42
0.0
  3
txt
  4

  0
STYLE
  5
101
100
AcDbSymbolTableRecord
100
AcDbTextStyleTableRecord
  2
CONVERTER_1
 70
           0
 40
0.0
 41
0.71262
 50
0.0
 71
           0
 42
0.0
  3
txt.shx
  4

  0
ENDTAB
  0
TABLE
  2
VIEW
  5
5
100
AcDbSymbolTable
 70
           0
  0
ENDTAB
  0
TABLE
  2
UCS
  5
6
100
AcDbSymbolTable
 70
           0
  0
ENDTAB
  0
TABLE
  2
APPID
  5
8
100
AcDbSymbolTable
 70
           1
  0
APPID
  5
16
100
AcDbSymbolTableRecord
100
AcDbRegAppTableRecord
  2
ACAD
 70
           0
  0
ENDTAB
  0
TABLE
  2
DIMSTYLE
  5
9
100
AcDbSymbolTable
 70
           1
  0
DIMSTYLE
105
18
100
AcDbSymbolTableRecord
100
AcDbDimStyleTableRecord
  2
STANDARD
 70
           0
  3

  4

  5

  6

  7

 40
1.0
 41
0.18
 42
0.0625
 43
0.38
 44
0.18
 45
0.0
 46
0.0
 47
0.0
 48
0.0
 71
           0
 72
           0
 73
           1
 74
           1
 75
           0
 76
           0
 77
           0
 78
           0
140
0.18
141
0.09
142
0.0
143
25.4
144
1.0
145
0.0
146
1.0
147
0.09
170
           0
171
           2
172
           0
173
           0
174
           0
175
           0
176
           0
177
           0
178
           0
270
           2
271
           4
272
           4
273
           2
274
           2
275
           0
280
           0
281
           0
282
           0
283
           1
284
           0
285
           0
286
           0
287
           0
288
           0
340
17
  0
ENDTAB
  0
TABLE
  2
BLOCK_RECORD
  5
1
100
AcDbSymbolTable
 70
           2
  0
BLOCK_RECORD
  5
A
100
AcDbSymbolTableRecord
100
AcDbBlockTableRecord
  2
*MODEL_SPACE
  0
BLOCK_RECORD
  5
B
100
AcDbSymbolTableRecord
100
AcDbBlockTableRecord
  2
*PAPER_SPACE
  0
BLOCK_RECORD
  5
28
100
AcDbSymbolTableRecord
100
AcDbBlockTableRecord
  2
WANNE_PRIME_LINE_265
  0
BLOCK_RECORD
  5
2A
100
AcDbSymbolTableRecord
100
AcDbBlockTableRecord
  2
DLX
  0
ENDTAB
  0
ENDSEC
  0
SECTION
  2
BLOCKS
  0
BLOCK
  5
D
100
AcDbEntity
  8
0
100
AcDbBlockBegin
  2
*MODEL_SPACE
 70
           0
 10
0.0
 20
0.0
 30
0.0
  3
*MODEL_SPACE
  1

  0
ENDBLK
  5
E
100
AcDbEntity
  8
0
100
AcDbBlockEnd
  0
BLOCK
  5
F
100
AcDbEntity
 67
           1
  8
0
100
AcDbBlockBegin
  2
*PAPER_SPACE
 70
           0
 10
0.0
 20
0.0
 30
0.0
  3
*PAPER_SPACE
  1

  0
ENDBLK
  5
10
100
AcDbEntity
 67
           1
  8
0
100
AcDbBlockEnd
  0
BLOCK
  5
29
100
AcDbEntity
  8
0
100
AcDbBlockBegin
  2
WANNE_PRIME_LINE_265
 70
           0
 10
0.0
 20
0.0
 30
0.0
  3
WANNE_PRIME_LINE_265
  1

  0
ARC
  5
49
100
AcDbEntity
  8
1
  6
CONTINUOUS
 62
           7
100
AcDbCircle
 10
328.79159024302
 20
375.71322060059
 40
218.0
100
AcDbArc
 50
180.0
 51
-90.0
  0
ARC
  5
48
100
AcDbEntity
  8
1
  6
CONTINUOUS
 62
           7
100
AcDbCircle
 10
210.79159024302
 20
522.286779
 40
100.0
100
AcDbArc
 50
90.0
 51
180.0
  0
ARC
  5
47
100
AcDbEntity
  8
1
  6
CONTINUOUS
 62
           7
100
AcDbCircle
 10
1308.718235
 20
522.286779
 40
100.0
100
AcDbArc
 50
0.0
 51
90.0
  0
ARC
  5
46
100
AcDbEntity
  8
1
  6
CONTINUOUS
 62
           7
100
AcDbCircle
 10
1308.718235
 20
257.71322060059
 40
100.0
100
AcDbArc
 50
-89.999999999999
 51
0.0
  0
ARC
  5
45
100
AcDbEntity
  8
1
  6
CONTINUOUS
 62
           7
100
AcDbCircle
 10
1600.0
 20
130.0
 40
50.0
100
AcDbArc
 50
-90.0
 51
0.0
  0
ARC
  5
44
100
AcDbEntity
  8
1
  6
CONTINUOUS
 62
           7
100
AcDbCircle
 10
1600.0
 20
650.0
 40
50.0
100
AcDbArc
 50
0.0
 51
90.0
  0
ARC
  5
43
100
AcDbEntity
  8
1
  6
CONTINUOUS
 62
           7
100
AcDbCircle
 10
100.0
 20
650.0
 40
50.0
100
AcDbArc
 50
90.0
 51
180.0
  0
ARC
  5
42
100
AcDbEntity
  8
1
  6
CONTINUOUS
 62
           7
100
AcDbCircle
 10
345.0
 20
375.0
 40
295.0
100
AcDbArc
 50
180.0
 51
-90.0
  0
ARC
  5
41
100
AcDbEntity
  8
1
  6
CONTINUOUS
 62
           7
100
AcDbCircle
 10
375.0
 20
375.0
 40
375.0
100
AcDbArc
 50
180.0
 51
-90.0
  0
SPLINE
  5
40
100
AcDbEntity
  8
1
  6
CONTINUOUS
 62
           7
100
AcDbSpline
210
0.0
220
0.0
230
1.0
 70
           0
 71
           3
 72
          41
 73
          38
 74
          77
 42
0.00000000001
 43
0.00000000001
 44
0.00000000001
 40
-1.9332773527489024
 40
-0.0519149600596478
 40
1.8294474326296291
 40
3.8160231382409604
 40
6.0890057211302322
 40
8.758316572567109
 40
11.856343216494501
 40
15.358060651053394
 40
19.202594105612942
 40
23.306173214999156
 40
27.570576436275115
 40
31.889464432283237
 40
36.153867653559878
 40
40.257446762946728
 40
44.101980217506366
 40
47.603697652063786
 40
50.701724295990921
 40
53.371035147428017
 40
55.644017730317557
 40
57.630593435929086
 40
59.511955828618888
 40
61.498531534230501
 40
63.771514117119466
 40
66.440824968556882
 40
69.538851612484109
 40
73.054514667696225
 40
76.9129937429108
 40
81.016572852298083
 40
85.28097607357472
 40
89.59986406958285
 40
93.864267290858805
 40
97.967846400245435
 40
101.82632547545998
 40
105.34198853067278
 40
108.44001517460025
 40
111.10932602603744
 40
113.38230860892696
 40
115.36888431453853
 40
117.2502467072278
 40
119.13160909991706
 40
121.01297149260634
 10
349.89771395689598
 20
103.0291838561114
 30
0.0
 10
350.32118920714862
 20
104.8622668234233
 30
0.0
 10
351.52153952290251
 20
106.5753752314134
 30
0.0
 10
353.40848102548438
 20
108.1445891516745
 30
0.0
 10
355.9263204836052
 20
109.5518953111563
 30
0.0
 10
359.00795204615821
 20
110.7644515716314
 30
0.0
 10
362.56634299511921
 20
111.7480375938184
 30
0.0
 10
366.49728248248903
 20
112.4730483132661
 30
0.0
 10
370.68370383036108
 20
112.9172212802963
 30
0.0
 10
374.99999999997999
 20
113.06682374747641
 30
0.0
 10
379.31629616960117
 20
112.9172212802963
 30
0.0
 10
383.50271751747232
 20
112.4730483132661
 30
0.0
 10
387.43365700484452
 20
111.7480375938193
 30
0.0
 10
390.99204795380319
 20
110.7644515716314
 30
0.0
 10
394.07367951635518
 20
109.5518953111563
 30
0.0
 10
396.59151897447651
 20
108.1445891516745
 30
0.0
 10
398.47846047705838
 20
106.5753752314134
 30
0.0
 10
399.67881079281318
 20
104.8622668234233
 30
0.0
 10
400.10228604306531
 20
103.0291838561114
 30
0.0
 10
399.67881079281318
 20
101.1961008887982
 30
0.0
 10
398.47846047705838
 20
99.482992480809457
 30
0.0
 10
396.59151897447651
 20
97.913778560548394
 30
0.0
 10
394.07367951635518
 20
96.506472401065253
 30
0.0
 10
390.99204795380319
 20
95.293916140591477
 30
0.0
 10
387.43365700484452
 20
94.210330118402226
 30
0.0
 10
383.50271751747232
 20
93.485319398955426
 30
0.0
 10
379.31629616960032
 20
93.041146431925199
 30
0.0
 10
374.99999999997999
 20
92.891543964745097
 30
0.0
 10
370.68370383036017
 20
93.041146431925199
 30
0.0
 10
366.49728248248903
 20
93.485319398955426
 30
0.0
 10
362.56634299511728
 20
94.210330118402226
 30
0.0
 10
359.00795204615821
 20
95.293916140591477
 30
0.0
 10
355.9263204836052
 20
96.506472401065253
 30
0.0
 10
353.40848102548438
 20
97.913778560548394
 30
0.0
 10
351.52153952290251
 20
99.482992480809457
 30
0.0
 10
350.3211892071472
 20
101.19610088879919
 30
0.0
 10
349.89771395689598
 20
103.0291838561114
 30
0.0
 10
350.32118920714862
 20
104.8622668234233
 30
0.0
 11
350.10369202319703
 21
103.92079413262928
 31
0.0
 11
350.40676996130861
 21
104.82663881824283
 31
0.0
 11
350.88100940774012
 21
105.6612274934954
 31
0.0
 11
351.57836017724907
 21
106.52726040040554
 31
0.0
 11
352.38935225545106
 21
107.29706364529997
 31
0.0
 11
353.44503327426463
 21
108.09554450892115
 31
0.0
 11
354.5738187906386
 21
108.79593608703561
 31
0.0
 11
355.94983698821784
 21
109.50520388660647
 31
0.0
 11
357.37288819502265
 21
110.12108883707775
 31
0.0
 11
359.02322821768973
 21
110.72082170662233
 31
0.0
 11
360.70412058341986
 21
111.23329484614879
 31
0.0
 11
362.57614013303237
 21
111.70702454437955
 31
0.0
 11
364.46775395847123
 21
112.0987281437327
 31
0.0
 11
366.50314567477079
 21
112.43392282266223
 31
0.0
 11
368.55026377563388
 21
112.69086652038402
 31
0.0
 11
370.68645597994362
 21
112.87921419342372
 31
0.0
 11
372.82815248341842
 21
112.99154769271826
 31
0.0
 11
374.99999999998022
 21
113.02918572009735
 31
0.0
 11
377.17184751654253
 21
112.99154769271829
 31
0.0
 11
379.31354402001818
 21
112.87921419342373
 31
0.0
 11
381.44973622432792
 21
112.69086652038402
 31
0.0
 11
383.49685432519107
 21
112.43392282266235
 31
0.0
 11
385.53224604149148
 21
112.09872814373315
 31
0.0
 11
387.42385986693085
 21
111.70702454438022
 31
0.0
 11
389.29587941654302
 21
111.23329484614912
 31
0.0
 11
390.97677178227184
 21
110.72082170662243
 31
0.0
 11
392.62711180493795
 21
110.12108883707785
 31
0.0
 11
394.0501630117426
 21
109.50520388660652
 31
0.0
 11
395.42618120932195
 21
108.79593608703566
 31
0.0
 11
396.55496672569615
 21
108.09554450892115
 31
0.0
 11
397.61064774450972
 21
107.29706364529999
 31
0.0
 11
398.42163982271188
 21
106.52726040040555
 31
0.0
 11
399.11899059222128
 21
105.6612274934954
 31
0.0
 11
399.59323003865308
 21
104.82663881824286
 31
0.0
 11
399.89630797676455
 21
103.92079413262937
 31
0.0
 11
399.99929700991487
 21
103.02918385611125
 31
0.0
 11
399.89630797676455
 21
102.13757357959283
 31
0.0
 11
399.59323003865302
 21
101.23172889397895
 31
0.0
 11
399.11899059222117
 21
100.39714021872661
 31
0.0
 11
398.42163982271194
 21
99.531107311817138
 31
0.0
 11
397.61064774450995
 21
98.761304066923032
 31
0.0
 11
396.55496672569626
 21
97.962823203301596
 31
0.0
 11
395.42618120932195
 21
97.262431625186565
 31
0.0
 11
394.05092556961387
 21
96.55346387586539
 31
0.0
 11
392.63016203642326
 21
95.938479076144461
 31
0.0
 11
390.97745583188083
 21
95.32590546683204
 31
0.0
 11
389.29556538349345
 21
94.777310510000717
 31
0.0
 11
387.42289267403925
 21
94.264238672488901
 31
0.0
 11
385.52869130297449
 21
93.858983943150477
 31
0.0
 11
383.49596564056162
 21
93.524280983224699
 31
0.0
 11
381.44973622432735
 21
93.267501191837482
 31
0.0
 11
379.31354402001756
 21
93.079153518797781
 31
0.0
 11
377.17184751654213
 21
92.966820019503231
 31
0.0
 11
374.99999999997999
 21
92.929181992124157
 31
0.0
 11
372.82815248341797
 21
92.966820019503245
 31
0.0
 11
370.68645597994299
 21
93.079153518797781
 31
0.0
 11
368.55026377563354
 21
93.267501191837482
 31
0.0
 11
366.50403435939972
 21
93.524280983224699
 31
0.0
 11
364.47130869698731
 21
93.858983943150449
 31
0.0
 11
362.5771073259225
 21
94.264238672488887
 31
0.0
 11
360.70443461646823
 21
94.77731051000066
 31
0.0
 11
359.02254416808051
 21
95.325905466832026
 31
0.0
 11
357.36983796353752
 21
95.938479076144489
 31
0.0
 11
355.94907443034663
 21
96.553463875865418
 31
0.0
 11
354.57381879063865
 21
97.262431625186636
 31
0.0
 11
353.44503327426463
 21
97.962823203301568
 31
0.0
 11
352.38935225545112
 21
98.761304066922904
 31
0.0
 11
351.5783601772489
 21
99.531107311817252
 31
0.0
 11
350.88100940773938
 21
100.39714021872726
 31
0.0
 11
350.40676996130748
 21
101.23172889397976
 31
0.0
 11
350.10369202319634
 21
102.13757357959344
 31
0.0
 11
350.00214287975268
 21
103.03541665789591
 31
0.0
 11
350.1094515820223
 21
103.94572533976735
 31
0.0
 11
350.21532039458543
 21
104.40399608159532
 31
0.0
 11
350.1094515820223
 21
103.94572533976736
 31
0.0
 11
350.0021428797528
 21
103.48122179615486
 31
0.0
 11
350.10369202319703
 21
103.92079413262928
 31
0.0
  0
CIRCLE
  5
3F
100
AcDbEntity
  8
WANNE
  6
CONTINUOUS
 62
           7
100
AcDbCircle
 10
374.999999999986
 20
289.0423910869
 40
45.0
  0
CIRCLE
  5
3E
100
AcDbEntity
  8
WANNE
  6
CONTINUOUS
 62
           7
100
AcDbCircle
 10
374.999999999986
 20
289.0423910869
 40
26.0
  0
LINE
  5
3D
100
AcDbEntity
  8
1
  6
CONTINUOUS
 62
           7
100
AcDbLine
 10
1308.718235000001
 20
157.71322060059
 11
328.79159024302
 21
157.71322060059
  0
LINE
  5
3C
100
AcDbEntity
  8
1
  6
CONTINUOUS
 62
           7
100
AcDbLine
 10
1308.718235
 20
622.286779
 11
210.79159024302
 21
622.286779
  0
LINE
  5
3B
100
AcDbEntity
  8
1
  6
CONTINUOUS
 62
           7
100
AcDbLine
 10
110.79159024302
 20
522.286779
 11
110.79159024302
 21
375.71322060059
  0
LINE
  5
3A
100
AcDbEntity
  8
1
  6
CONTINUOUS
 62
           7
100
AcDbLine
 10
1408.718235
 20
522.286779
 11
1408.718235
 21
257.71322060059
  0
LINE
  5
39
100
AcDbEntity
  8
1
  6
CONTINUOUS
 62
           7
100
AcDbLine
 10
1650.0
 20
650.0
 11
1650.0
 21
130.0
  0
LINE
  5
38
100
AcDbEntity
  8
1
  6
CONTINUOUS
 62
           7
100
AcDbLine
 10
50.0
 20
650.0
 11
50.0
 21
375.0
  0
LINE
  5
37
100
AcDbEntity
  8
1
  6
CONTINUOUS
 62
           7
100
AcDbLine
 10
1600.0
 20
80.0
 11
345.0
 21
80.0
  0
LINE
  5
36
100
AcDbEntity
  8
1
  6
CONTINUOUS
 62
           7
100
AcDbLine
 10
1600.0
 20
700.0
 11
100.0
 21
700.0
  0
LINE
  5
35
100
AcDbEntity
  8
GEOMETRIE
  6
CONTINUOUS
 62
           7
100
AcDbLine
 10
1700.0
 20
0.0
 11
375.0
 21
0.0
  0
LINE
  5
34
100
AcDbEntity
  8
GEOMETRIE
  6
CONTINUOUS
 62
           7
100
AcDbLine
 10
1700.0
 20
750.0
 11
0.0
 21
750.0
  0
LINE
  5
33
100
AcDbEntity
  8
GEOMETRIE
  6
CONTINUOUS
 62
           7
100
AcDbLine
 10
0.0
 20
750.0
 11
0.0
 21
375.0
  0
LINE
  5
32
100
AcDbEntity
  8
GEOMETRIE
  6
CONTINUOUS
 62
           7
100
AcDbLine
 10
1700.0
 20
750.0
 11
1700.0
 21
0.0
  0
LINE
  5
31
100
AcDbEntity
  8
MITTELLINIEN
  6
DOT_CENTER
 62
           3
100
AcDbLine
 10
374.99999999998
 20
223.364372086899
 11
374.99999999998
 21
353.0323460869
  0
LINE
  5
30
100
AcDbEntity
  8
MITTELLINIEN
  6
DOT_CENTER
 62
           3
100
AcDbLine
 10
440.678018999993
 20
289.0423910869
 11
311.010044999982
 21
289.0423910869
  0
ENDBLK
  5
4A
100
AcDbEntity
  8
0
100
AcDbBlockEnd
  0
BLOCK
  5
2B
100
AcDbEntity
  8
0
100
AcDbBlockBegin
  2
DLX
 70
           0
 10
0.0
 20
0.0
 30
0.0
  3
DLX
  1

  0
CIRCLE
  5
FE
100
AcDbEntity
  8
1
  6
CONTINUOUS
 62
           3
100
AcDbCircle
 10
1327.617918085733
 20
548.165566878754
 40
5.530127989697
  0
CIRCLE
  5
FD
100
AcDbEntity
  8
1
  6
CONTINUOUS
 62
           3
100
AcDbCircle
 10
1327.617918085733
 20
548.165566878754
 40
5.972862778755
  0
ARC
  5
FC
100
AcDbEntity
  8
1
  6
CONTINUOUS
 62
           3
100
AcDbCircle
 10
1328.396629639392
 20
546.649012682225
 40
1.391870091328
100
AcDbArc
 50
-1.298612665717
 51
66.544866494041
  0
ARC
  5
FB
100
AcDbEntity
  8
1
  6
CONTINUOUS
 62
           3
100
AcDbCircle
 10
1327.671236452902
 20
546.339818389822
 40
1.155889798232
100
AcDbArc
 50
0.985058170485
 51
82.918254632921
  0
ARC
  5
FA
100
AcDbEntity
  8
1
  6
CONTINUOUS
 62
           3
100
AcDbCircle
 10
1327.746419091098
 20
549.550804930551
 40
1.257687287768
100
AcDbArc
 50
-74.800419047072
 51
80.93139523879
  0
ARC
  5
F9
100
AcDbEntity
  8
1
  6
CONTINUOUS
 62
           3
100
AcDbCircle
 10
1327.824736917112
 20
549.590698921381
 40
2.009798008862
100
AcDbArc
 50
-55.929988464572
 51
86.297888718258
  0
LINE
  5
F8
100
AcDbEntity
  8
1
  6
CONTINUOUS
 62
           3
100
AcDbLine
 10
1326.088678983495
 20
550.792771531278
 11
1326.088678983495
 21
548.337113541275
  0
LINE
  5
F7
100
AcDbEntity
  8
1
  6
CONTINUOUS
 62
           3
100
AcDbLine
 10
1327.944651975581
 20
550.792771531278
 11
1326.088678983495
 21
550.792771531278
  0
LINE
  5
F6
100
AcDbEntity
  8
1
  6
CONTINUOUS
 62
           3
100
AcDbLine
 10
1326.088678983495
 20
548.337113541275
 11
1328.076162211437
 21
548.337113541275
  0
LINE
  5
F5
100
AcDbEntity
  8
1
  6
CONTINUOUS
 62
           3
100
AcDbLine
 10
1326.088678983495
 20
544.737834788281
 11
1325.216231284379
 21
544.737834788281
  0
LINE
  5
F4
100
AcDbEntity
  8
1
  6
CONTINUOUS
 62
           3
100
AcDbLine
 10
1327.813740685113
 20
547.486890213841
 11
1326.088678983495
 21
547.486890213841
  0
LINE
  5
F3
100
AcDbEntity
  8
1
  6
CONTINUOUS
 62
           3
100
AcDbLine
 10
1328.826955425033
 20
544.737834788281
 11
1328.826955425033
 21
546.3596900559
  0
LINE
  5
F2
100
AcDbEntity
  8
1
  6
CONTINUOUS
 62
           3
100
AcDbLine
 10
1329.788142240538
 20
544.737834788281
 11
1328.826955425033
 21
544.737834788281
  0
LINE
  5
F1
100
AcDbEntity
  8
1
  6
CONTINUOUS
 62
           3
100
AcDbLine
 10
1329.788142240538
 20
546.617468554626
 11
1329.788142240538
 21
544.737834788281
  0
LINE
  5
F0
100
AcDbEntity
  8
1
  6
CONTINUOUS
 62
           3
100
AcDbLine
 10
1327.65815114362
 20
551.596302963455
 11
1327.954507725972
 21
551.596302963455
  0
LINE
  5
EF
100
AcDbEntity
  8
1
  6
CONTINUOUS
 62
           3
100
AcDbLine
 10
1325.216231284379
 20
551.596302963455
 11
1327.65815114362
 21
551.596302963455
  0
LINE
  5
EE
100
AcDbEntity
  8
1
  6
CONTINUOUS
 62
           3
100
AcDbLine
 10
1325.216231284379
 20
544.737834788281
 11
1325.216231284379
 21
551.596302963455
  0
LINE
  5
ED
100
AcDbEntity
  8
1
  6
CONTINUOUS
 62
           3
100
AcDbLine
 10
1326.088678983495
 20
547.486890213841
 11
1326.088678983495
 21
544.737834788281
  0
LINE
  5
EC
100
AcDbEntity
  8
1
  6
CONTINUOUS
 62
           3
100
AcDbLine
 10
1281.567443696826
 20
553.671287478319
 11
1279.473366619211
 21
553.671287478319
  0
LINE
  5
EB
100
AcDbEntity
  8
1
  6
CONTINUOUS
 62
           3
100
AcDbLine
 10
1278.857508548863
 20
542.610681417793
 11
1281.567443696826
 21
553.671287478319
  0
LINE
  5
EA
100
AcDbEntity
  8
1
  6
CONTINUOUS
 62
           3
100
AcDbLine
 10
1289.327893936883
 20
542.610681417793
 11
1278.857508548863
 21
542.610681417793
  0
LINE
  5
E9
100
AcDbEntity
  8
1
  6
CONTINUOUS
 62
           3
100
AcDbLine
 10
1288.785906907222
 20
540.398560205662
 11
1289.327893936883
 21
542.610681417793
  0
LINE
  5
E8
100
AcDbEntity
  8
1
  6
CONTINUOUS
 62
           3
100
AcDbLine
 10
1276.221444441643
 20
540.398560205662
 11
1288.785906907222
 21
540.398560205662
  0
LINE
  5
E7
100
AcDbEntity
  8
1
  6
CONTINUOUS
 62
           3
100
AcDbLine
 10
1279.473366619211
 20
553.671287478319
 11
1276.221444441643
 21
540.398560205662
  0
LINE
  5
E6
100
AcDbEntity
  8
1
  6
CONTINUOUS
 62
           3
100
AcDbLine
 10
1266.026696564354
 20
544.822802629844
 11
1269.78241170372
 21
551.459166266268
  0
LINE
  5
E5
100
AcDbEntity
  8
1
  6
CONTINUOUS
 62
           3
100
AcDbLine
 10
1270.83921484901
 20
551.459166266268
 11
1269.78241170372
 21
551.459166266268
  0
LINE
  5
E4
100
AcDbEntity
  8
1
  6
CONTINUOUS
 62
           3
100
AcDbLine
 10
1271.343007810865
 20
544.822802629844
 11
1270.83921484901
 21
551.459166266268
  0
LINE
  5
E3
100
AcDbEntity
  8
1
  6
CONTINUOUS
 62
           3
100
AcDbLine
 10
1266.026696564354
 20
544.822802629844
 11
1271.343007810865
 21
544.822802629844
  0
LINE
  5
E2
100
AcDbEntity
  8
1
  6
CONTINUOUS
 62
           3
100
AcDbLine
 10
1263.52288647146
 20
540.398560205662
 11
1261.144089482889
 21
540.398560205662
  0
LINE
  5
E1
100
AcDbEntity
  8
1
  6
CONTINUOUS
 62
           3
100
AcDbLine
 10
1264.774791517823
 20
542.610681417793
 11
1263.52288647146
 21
540.398560205662
  0
LINE
  5
E0
100
AcDbEntity
  8
1
  6
CONTINUOUS
 62
           3
100
AcDbLine
 10
1271.510938798187
 20
542.610681417793
 11
1264.774791517823
 21
542.610681417793
  0
LINE
  5
DF
100
AcDbEntity
  8
1
  6
CONTINUOUS
 62
           3
100
AcDbLine
 10
1271.678869785454
 20
540.398560205662
 11
1271.510938798187
 21
542.610681417793
  0
LINE
  5
DE
100
AcDbEntity
  8
1
  6
CONTINUOUS
 62
           3
100
AcDbLine
 10
1273.708551948523
 20
540.398560205662
 11
1271.678869785454
 21
540.398560205662
  0
LINE
  5
DD
100
AcDbEntity
  8
1
  6
CONTINUOUS
 62
           3
100
AcDbLine
 10
1272.70096602476
 20
553.671287478319
 11
1273.708551948523
 21
540.398560205662
  0
LINE
  5
DC
100
AcDbEntity
  8
1
  6
CONTINUOUS
 62
           3
100
AcDbLine
 10
1268.655519761786
 20
553.671287478319
 11
1272.70096602476
 21
553.671287478319
  0
LINE
  5
DB
100
AcDbEntity
  8
1
  6
CONTINUOUS
 62
           3
100
AcDbLine
 10
1261.144089482889
 20
540.398560205662
 11
1268.655519761786
 21
553.671287478319
  0
LINE
  5
DA
100
AcDbEntity
  8
1
  6
CONTINUOUS
 62
           3
100
AcDbLine
 10
1248.160811601855
 20
540.398560205662
 11
1246.066734524295
 21
540.398560205662
  0
LINE
  5
D9
100
AcDbEntity
  8
1
  6
CONTINUOUS
 62
           3
100
AcDbLine
 10
1250.966813898784
 20
551.851264538597
 11
1248.160811601855
 21
540.398560205662
  0
LINE
  5
D8
100
AcDbEntity
  8
1
  6
CONTINUOUS
 62
           3
100
AcDbLine
 10
1251.607362165294
 20
550.192173629534
 11
1250.966813898784
 21
551.851264538597
  0
LINE
  5
D7
100
AcDbEntity
  8
1
  6
CONTINUOUS
 62
           3
100
AcDbLine
 10
1255.388518501004
 20
540.398560205662
 11
1251.607362165294
 21
550.192173629534
  0
LINE
  5
D6
100
AcDbEntity
  8
1
  6
CONTINUOUS
 62
           3
100
AcDbLine
 10
1258.631196989772
 20
540.398560205662
 11
1255.388518501004
 21
540.398560205662
  0
LINE
  5
D5
100
AcDbEntity
  8
1
  6
CONTINUOUS
 62
           3
100
AcDbLine
 10
1261.883119167393
 20
553.671287478319
 11
1258.631196989772
 21
540.398560205662
  0
LINE
  5
D4
100
AcDbEntity
  8
1
  6
CONTINUOUS
 62
           3
100
AcDbLine
 10
1259.789042089779
 20
553.671287478319
 11
1261.883119167393
 21
553.671287478319
  0
LINE
  5
D3
100
AcDbEntity
  8
1
  6
CONTINUOUS
 62
           3
100
AcDbLine
 10
1256.943610184426
 20
542.057651114746
 11
1259.789042089779
 21
553.671287478319
  0
LINE
  5
D2
100
AcDbEntity
  8
1
  6
CONTINUOUS
 62
           3
100
AcDbLine
 10
1252.459772318151
 20
553.671287478319
 11
1256.943610184426
 21
542.057651114746
  0
LINE
  5
D1
100
AcDbEntity
  8
1
  6
CONTINUOUS
 62
           3
100
AcDbLine
 10
1249.31865670181
 20
553.671287478319
 11
1252.459772318151
 21
553.671287478319
  0
LINE
  5
D0
100
AcDbEntity
  8
1
  6
CONTINUOUS
 62
           3
100
AcDbLine
 10
1246.066734524295
 20
540.398560205662
 11
1249.31865670181
 21
553.671287478319
  0
LINE
  5
CF
100
AcDbEntity
  8
1
  6
CONTINUOUS
 62
           3
100
AcDbLine
 10
1246.805764208694
 20
553.671287478319
 11
1244.71168713113
 21
553.671287478319
  0
LINE
  5
CE
100
AcDbEntity
  8
1
  6
CONTINUOUS
 62
           3
100
AcDbLine
 10
1244.71168713113
 20
553.671287478319
 11
1241.459764953565
 21
540.398560205662
  0
LINE
  5
CD
100
AcDbEntity
  8
1
  6
CONTINUOUS
 62
           3
100
AcDbLine
 10
1243.553842031125
 20
540.398560205662
 11
1246.805764208694
 21
553.671287478319
  0
LINE
  5
CC
100
AcDbEntity
  8
1
  6
CONTINUOUS
 62
           3
100
AcDbLine
 10
1241.459764953565
 20
540.398560205662
 11
1243.553842031125
 21
540.398560205662
  0
LINE
  5
CB
100
AcDbEntity
  8
1
  6
CONTINUOUS
 62
           3
100
AcDbLine
 10
1238.966544798318
 20
549.025832932891
 11
1241.060621875844
 21
549.025832932891
  0
LINE
  5
CA
100
AcDbEntity
  8
1
  6
CONTINUOUS
 62
           3
100
AcDbLine
 10
1237.936769442168
 20
544.822802629844
 11
1237.394782412401
 21
542.610681417793
  0
LINE
  5
C9
100
AcDbEntity
  8
1
  6
CONTINUOUS
 62
           3
100
AcDbLine
 10
1233.748615286768
 20
544.822802629844
 11
1237.936769442168
 21
544.822802629844
  0
LINE
  5
C8
100
AcDbEntity
  8
1
  6
CONTINUOUS
 62
           3
100
AcDbLine
 10
1234.290602316415
 20
547.034923842033
 11
1233.748615286768
 21
544.822802629844
  0
LINE
  5
C7
100
AcDbEntity
  8
1
  6
CONTINUOUS
 62
           3
100
AcDbLine
 10
1240.572833549221
 20
547.034923842033
 11
1238.946872460449
 21
540.398560205662
  0
LINE
  5
C6
100
AcDbEntity
  8
1
  6
CONTINUOUS
 62
           3
100
AcDbLine
 10
1240.572833549221
 20
547.034923842033
 11
1234.290602316415
 21
547.034923842033
  0
LINE
  5
C5
100
AcDbEntity
  8
1
  6
CONTINUOUS
 62
           3
100
AcDbLine
 10
1229.018474102071
 20
542.610681417793
 11
1231.186422220399
 21
551.459166266268
  0
LINE
  5
C4
100
AcDbEntity
  8
1
  6
CONTINUOUS
 62
           3
100
AcDbLine
 10
1231.186422220399
 20
551.459166266268
 11
1239.562730530695
 21
551.459166266268
  0
LINE
  5
C3
100
AcDbEntity
  8
1
  6
CONTINUOUS
 62
           3
100
AcDbLine
 10
1239.562730530695
 20
551.459166266268
 11
1238.966544798318
 21
549.025832932891
  0
LINE
  5
C2
100
AcDbEntity
  8
1
  6
CONTINUOUS
 62
           3
100
AcDbLine
 10
1237.394782412401
 20
542.610681417793
 11
1229.018474102071
 21
542.610681417793
  0
LINE
  5
C1
100
AcDbEntity
  8
1
  6
CONTINUOUS
 62
           3
100
AcDbLine
 10
1238.946872460449
 20
540.398560205662
 11
1226.382409994836
 21
540.398560205662
  0
LINE
  5
C0
100
AcDbEntity
  8
1
  6
CONTINUOUS
 62
           3
100
AcDbLine
 10
1242.198794637971
 20
553.671287478319
 11
1241.060621875844
 21
549.025832932891
  0
LINE
  5
BF
100
AcDbEntity
  8
1
  6
CONTINUOUS
 62
           3
100
AcDbLine
 10
1229.63433217238
 20
553.671287478319
 11
1242.198794637971
 21
553.671287478319
  0
LINE
  5
BE
100
AcDbEntity
  8
1
  6
CONTINUOUS
 62
           3
100
AcDbLine
 10
1226.382409994836
 20
540.398560205662
 11
1229.63433217238
 21
553.671287478319
  0
LINE
  5
BD
100
AcDbEntity
  8
1
  6
CONTINUOUS
 62
           3
100
AcDbLine
 10
1223.869517501851
 20
540.398560205662
 11
1227.12143967926
 21
553.671287478319
  0
LINE
  5
BC
100
AcDbEntity
  8
1
  6
CONTINUOUS
 62
           3
100
AcDbLine
 10
1221.775440424132
 20
540.398560205662
 11
1223.869517501851
 21
540.398560205662
  0
LINE
  5
BB
100
AcDbEntity
  8
1
  6
CONTINUOUS
 62
           3
100
AcDbLine
 10
1225.027362601697
 20
553.671287478319
 11
1221.775440424132
 21
540.398560205662
  0
LINE
  5
BA
100
AcDbEntity
  8
1
  6
CONTINUOUS
 62
           3
100
AcDbLine
 10
1227.12143967926
 20
553.671287478319
 11
1225.027362601697
 21
553.671287478319
  0
LINE
  5
B9
100
AcDbEntity
  8
1
  6
CONTINUOUS
 62
           3
100
AcDbLine
 10
1208.792162543094
 20
540.398560205662
 11
1209.876136602205
 21
544.822802629844
  0
LINE
  5
B8
100
AcDbEntity
  8
1
  6
CONTINUOUS
 62
           3
100
AcDbLine
 10
1206.698085465418
 20
540.398560205662
 11
1208.792162543094
 21
540.398560205662
  0
LINE
  5
B7
100
AcDbEntity
  8
1
  6
CONTINUOUS
 62
           3
100
AcDbLine
 10
1220.210266317114
 20
544.266674810781
 11
1219.262547931001
 21
540.398560205662
  0
LINE
  5
B6
100
AcDbEntity
  8
1
  6
CONTINUOUS
 62
           3
100
AcDbLine
 10
1211.50209769098
 20
551.459166266268
 11
1210.418123631796
 21
547.034923842033
  0
LINE
  5
B5
100
AcDbEntity
  8
1
  6
CONTINUOUS
 62
           3
100
AcDbLine
 10
1219.878406001499
 20
551.459166266268
 11
1211.50209769098
 21
551.459166266268
  0
LINE
  5
B4
100
AcDbEntity
  8
1
  6
CONTINUOUS
 62
           3
100
AcDbLine
 10
1218.794431942177
 20
547.034923842033
 11
1219.878406001499
 21
551.459166266268
  0
LINE
  5
B3
100
AcDbEntity
  8
1
  6
CONTINUOUS
 62
           3
100
AcDbLine
 10
1210.418123631796
 20
547.034923842033
 11
1218.794431942177
 21
547.034923842033
  0
LINE
  5
B2
100
AcDbEntity
  8
1
  6
CONTINUOUS
 62
           3
100
AcDbLine
 10
1218.252444912734
 20
544.822802629844
 11
1209.876136602205
 21
544.822802629844
  0
LINE
  5
B1
100
AcDbEntity
  8
1
  6
CONTINUOUS
 62
           3
100
AcDbLine
 10
1217.168470853361
 20
540.398560205662
 11
1218.252444912734
 21
544.822802629844
  0
LINE
  5
B0
100
AcDbEntity
  8
1
  6
CONTINUOUS
 62
           3
100
AcDbLine
 10
1219.262547931001
 20
540.398560205662
 11
1217.168470853361
 21
540.398560205662
  0
LINE
  5
AF
100
AcDbEntity
  8
1
  6
CONTINUOUS
 62
           3
100
AcDbLine
 10
1222.514470108534
 20
553.671287478319
 11
1220.64694599868
 21
546.048983858331
  0
LINE
  5
AE
100
AcDbEntity
  8
1
  6
CONTINUOUS
 62
           3
100
AcDbLine
 10
1209.950007642954
 20
553.671287478319
 11
1222.514470108534
 21
553.671287478319
  0
LINE
  5
AD
100
AcDbEntity
  8
1
  6
CONTINUOUS
 62
           3
100
AcDbLine
 10
1209.950007642954
 20
553.671287478319
 11
1206.698085465418
 21
540.398560205662
  0
LINE
  5
AC
100
AcDbEntity
  8
1
  6
CONTINUOUS
 62
           3
100
AcDbLine
 10
1194.256794613928
 20
542.610681417793
 11
1196.42474273227
 21
551.459166266268
  0
LINE
  5
AB
100
AcDbEntity
  8
1
  6
CONTINUOUS
 62
           3
100
AcDbLine
 10
1196.42474273227
 20
551.459166266268
 11
1204.801051042759
 21
551.459166266268
  0
LINE
  5
AA
100
AcDbEntity
  8
1
  6
CONTINUOUS
 62
           3
100
AcDbLine
 10
1204.801051042759
 20
551.459166266268
 11
1202.633102924283
 21
542.610681417793
  0
LINE
  5
A9
100
AcDbEntity
  8
1
  6
CONTINUOUS
 62
           3
100
AcDbLine
 10
1202.633102924283
 20
542.610681417793
 11
1194.256794613928
 21
542.610681417793
  0
LINE
  5
A8
100
AcDbEntity
  8
1
  6
CONTINUOUS
 62
           3
100
AcDbLine
 10
1204.185192972287
 20
540.398560205662
 11
1191.620730506762
 21
540.398560205662
  0
LINE
  5
A7
100
AcDbEntity
  8
1
  6
CONTINUOUS
 62
           3
100
AcDbLine
 10
1207.437115149962
 20
553.671287478319
 11
1204.185192972287
 21
540.398560205662
  0
LINE
  5
A6
100
AcDbEntity
  8
1
  6
CONTINUOUS
 62
           3
100
AcDbLine
 10
1194.872652684244
 20
553.671287478319
 11
1207.437115149962
 21
553.671287478319
  0
LINE
  5
A5
100
AcDbEntity
  8
1
  6
CONTINUOUS
 62
           3
100
AcDbLine
 10
1191.620730506762
 20
540.398560205662
 11
1194.872652684244
 21
553.671287478319
  0
LINE
  5
A4
100
AcDbEntity
  8
1
  6
CONTINUOUS
 62
           3
100
AcDbLine
 10
1335.211546000002
 20
497.286779
 11
1282.620744581192
 21
497.286779
  0
LINE
  5
A3
100
AcDbEntity
  8
1
  6
CONTINUOUS
 62
           3
100
AcDbLine
 10
1332.810873633483
 20
503.480718393909
 11
1290.001724081311
 21
503.480718393909
  0
LINE
  5
A2
100
AcDbEntity
  8
1
  6
CONTINUOUS
 62
           3
100
AcDbLine
 10
1332.810873633483
 20
503.480718393909
 11
1335.211546000002
 21
497.286779
  0
LINE
  5
A1
100
AcDbEntity
  8
1
  6
CONTINUOUS
 62
           3
100
AcDbLine
 10
1325.568873556702
 20
522.165696066823
 11
1322.789020432745
 21
529.337954145079
  0
LINE
  5
A0
100
AcDbEntity
  8
1
  6
CONTINUOUS
 62
           3
100
AcDbLine
 10
1331.166099736988
 20
529.337954145079
 11
1325.568873556702
 21
522.165696066823
  0
LINE
  5
9F
100
AcDbEntity
  8
1
  6
CONTINUOUS
 62
           3
100
AcDbLine
 10
1335.211546000046
 20
529.337954145079
 11
1331.166099736988
 21
529.337954145079
  0
LINE
  5
9E
100
AcDbEntity
  8
1
  6
CONTINUOUS
 62
           3
100
AcDbLine
 10
1326.911315954963
 20
518.702080218603
 11
1335.211546000046
 21
529.337954145079
  0
LINE
  5
9D
100
AcDbEntity
  8
1
  6
CONTINUOUS
 62
           3
100
AcDbLine
 10
1331.782014047968
 20
506.135263848477
 11
1326.911315954963
 21
518.702080218603
  0
LINE
  5
9C
100
AcDbEntity
  8
1
  6
CONTINUOUS
 62
           3
100
AcDbLine
 10
1327.736567784919
 20
506.135263848477
 11
1331.782014047968
 21
506.135263848477
  0
LINE
  5
9B
100
AcDbEntity
  8
1
  6
CONTINUOUS
 62
           3
100
AcDbLine
 10
1324.208312090235
 20
515.238464370502
 11
1327.736567784919
 21
506.135263848477
  0
LINE
  5
9A
100
AcDbEntity
  8
1
  6
CONTINUOUS
 62
           3
100
AcDbLine
 10
1317.104179510134
 20
506.135263848477
 11
1324.208312090235
 21
515.238464370502
  0
LINE
  5
99
100
AcDbEntity
  8
1
  6
CONTINUOUS
 62
           3
100
AcDbLine
 10
1313.058733247137
 20
506.135263848477
 11
1317.104179510134
 21
506.135263848477
  0
LINE
  5
98
100
AcDbEntity
  8
1
  6
CONTINUOUS
 62
           3
100
AcDbLine
 10
1322.865869691927
 20
518.702080218661
 11
1313.058733247137
 21
506.135263848477
  0
LINE
  5
97
100
AcDbEntity
  8
1
  6
CONTINUOUS
 62
           3
100
AcDbLine
 10
1318.74357416973
 20
529.337954145079
 11
1322.865869691927
 21
518.702080218661
  0
LINE
  5
96
100
AcDbEntity
  8
1
  6
CONTINUOUS
 62
           3
100
AcDbLine
 10
1322.789020432745
 20
529.337954145079
 11
1318.74357416973
 21
529.337954145079
  0
LINE
  5
95
100
AcDbEntity
  8
1
  6
CONTINUOUS
 62
           3
100
AcDbLine
 10
1305.760296288685
 20
529.337954145079
 11
1300.525103594763
 21
529.337954145079
  0
LINE
  5
94
100
AcDbEntity
  8
1
  6
CONTINUOUS
 62
           3
100
AcDbLine
 10
1301.159429425334
 20
510.559506272797
 11
1305.760296288685
 21
529.337954145079
  0
LINE
  5
93
100
AcDbEntity
  8
1
  6
CONTINUOUS
 62
           3
100
AcDbLine
 10
1306.394622119286
 20
510.559506272797
 11
1301.159429425334
 21
510.559506272797
  0
LINE
  5
92
100
AcDbEntity
  8
1
  6
CONTINUOUS
 62
           3
100
AcDbLine
 10
1310.995488982681
 20
529.337954145079
 11
1306.394622119286
 21
510.559506272797
  0
LINE
  5
91
100
AcDbEntity
  8
1
  6
CONTINUOUS
 62
           3
100
AcDbLine
 10
1316.230681676604
 20
529.337954145079
 11
1310.995488982681
 21
529.337954145079
  0
LINE
  5
90
100
AcDbEntity
  8
1
  6
CONTINUOUS
 62
           3
100
AcDbLine
 10
1310.545840753995
 20
506.135263848477
 11
1316.230681676604
 21
529.337954145079
  0
LINE
  5
8F
100
AcDbEntity
  8
1
  6
CONTINUOUS
 62
           3
100
AcDbLine
 10
1294.840262672075
 20
506.135263848477
 11
1310.545840753995
 21
506.135263848477
  0
LINE
  5
8E
100
AcDbEntity
  8
1
  6
CONTINUOUS
 62
           3
100
AcDbLine
 10
1300.525103594763
 20
529.337954145079
 11
1294.840262672075
 21
506.135263848477
  0
LINE
  5
8D
100
AcDbEntity
  8
1
  6
CONTINUOUS
 62
           3
100
AcDbLine
 10
1293.183468770134
 20
540.398560205662
 11
1282.620744581192
 21
497.286779
  0
LINE
  5
8C
100
AcDbEntity
  8
1
  6
CONTINUOUS
 62
           3
100
AcDbLine
 10
1299.046884587402
 20
540.398560205662
 11
1293.183468770134
 21
540.398560205662
  0
LINE
  5
8B
100
AcDbEntity
  8
1
  6
CONTINUOUS
 62
           3
100
AcDbLine
 10
1290.001724081311
 20
503.480718393909
 11
1299.046884587402
 21
540.398560205662
  0
LINE
  5
8A
100
AcDbEntity
  8
1
  6
CONTINUOUS
 62
           3
100
AcDbLine
 10
1154.882042847796
 20
497.286779
 11
1162.734831888851
 21
529.337954145079
  0
LINE
  5
89
100
AcDbEntity
  8
1
  6
CONTINUOUS
 62
           3
100
AcDbLine
 10
1162.734831888851
 20
529.337954145079
 11
1169.017063121548
 21
529.337954145079
  0
LINE
  5
88
100
AcDbEntity
  8
1
  6
CONTINUOUS
 62
           3
100
AcDbLine
 10
1169.017063121548
 20
529.337954145079
 11
1162.248248139858
 21
501.711021424182
  0
LINE
  5
87
100
AcDbEntity
  8
1
  6
CONTINUOUS
 62
           3
100
AcDbLine
 10
1162.248248139858
 20
501.711021424182
 11
1167.483440833737
 21
501.711021424182
  0
LINE
  5
86
100
AcDbEntity
  8
1
  6
CONTINUOUS
 62
           3
100
AcDbLine
 10
1167.483440833737
 20
501.711021424182
 11
1175.60722338962
 21
534.868257175404
  0
LINE
  5
85
100
AcDbEntity
  8
1
  6
CONTINUOUS
 62
           3
100
AcDbLine
 10
1175.60722338962
 20
534.868257175404
 11
1157.916127545086
 21
534.868257175404
  0
LINE
  5
84
100
AcDbEntity
  8
1
  6
CONTINUOUS
 62
           3
100
AcDbLine
 10
1157.916127545086
 20
534.868257175404
 11
1159.271095119071
 21
540.398560205662
  0
LINE
  5
83
100
AcDbEntity
  8
1
  6
CONTINUOUS
 62
           3
100
AcDbLine
 10
1159.271095119071
 20
540.398560205662
 11
1183.244422196363
 21
540.398560205662
  0
LINE
  5
82
100
AcDbEntity
  8
1
  6
CONTINUOUS
 62
           3
100
AcDbLine
 10
1183.244422196363
 20
540.398560205662
 11
1172.681698007444
 21
497.286779
  0
LINE
  5
81
100
AcDbEntity
  8
1
  6
CONTINUOUS
 62
           3
100
AcDbLine
 10
1172.681698007444
 20
497.286779
 11
1154.882042847796
 21
497.286779
  0
LINE
  5
80
100
AcDbEntity
  8
1
  6
CONTINUOUS
 62
           3
100
AcDbLine
 10
1176.86985216257
 20
497.286779
 11
1184.722641203564
 21
529.337954145079
  0
LINE
  5
7F
100
AcDbEntity
  8
1
  6
CONTINUOUS
 62
           3
100
AcDbLine
 10
1184.722641203564
 20
529.337954145079
 11
1191.004872436373
 21
529.337954145079
  0
LINE
  5
7E
100
AcDbEntity
  8
1
  6
CONTINUOUS
 62
           3
100
AcDbLine
 10
1191.004872436373
 20
529.337954145079
 11
1184.236057454578
 21
501.711021424182
  0
LINE
  5
7D
100
AcDbEntity
  8
1
  6
CONTINUOUS
 62
           3
100
AcDbLine
 10
1184.236057454578
 20
501.711021424182
 11
1189.471250148563
 21
501.711021424182
  0
LINE
  5
7C
100
AcDbEntity
  8
1
  6
CONTINUOUS
 62
           3
100
AcDbLine
 10
1189.471250148563
 20
501.711021424182
 11
1196.240065130369
 21
529.337954145079
  0
LINE
  5
7B
100
AcDbEntity
  8
1
  6
CONTINUOUS
 62
           3
100
AcDbLine
 10
1194.66950732216
 20
497.286779
 11
1176.86985216257
 21
497.286779
  0
LINE
  5
7A
100
AcDbEntity
  8
1
  6
CONTINUOUS
 62
           3
100
AcDbLine
 10
1196.240065130369
 20
529.337954145079
 11
1202.522296363175
 21
529.337954145079
  0
LINE
  5
79
100
AcDbEntity
  8
1
  6
CONTINUOUS
 62
           3
100
AcDbLine
 10
1202.522296363175
 20
529.337954145079
 11
1194.66950732216
 21
497.286779
  0
LINE
  5
78
100
AcDbEntity
  8
1
  6
CONTINUOUS
 62
           3
100
AcDbLine
 10
1223.46306713911
 20
529.337954145079
 11
1206.710450518338
 21
529.337954145079
  0
LINE
  5
77
100
AcDbEntity
  8
1
  6
CONTINUOUS
 62
           3
100
AcDbLine
 10
1206.710450518338
 20
529.337954145079
 11
1202.109583654947
 21
510.559506272797
  0
LINE
  5
76
100
AcDbEntity
  8
1
  6
CONTINUOUS
 62
           3
100
AcDbLine
 10
1202.109583654947
 20
510.559506272797
 11
1212.579969042912
 21
510.559506272797
  0
LINE
  5
75
100
AcDbEntity
  8
1
  6
CONTINUOUS
 62
           3
100
AcDbLine
 10
1212.579969042912
 20
510.559506272797
 11
1210.412020924494
 21
501.711021424182
  0
LINE
  5
74
100
AcDbEntity
  8
1
  6
CONTINUOUS
 62
           3
100
AcDbLine
 10
1210.412020924494
 20
501.711021424182
 11
1199.941635536583
 21
501.711021424182
  0
LINE
  5
73
100
AcDbEntity
  8
1
  6
CONTINUOUS
 62
           3
100
AcDbLine
 10
1199.941635536583
 20
501.711021424182
 11
1198.857661477276
 21
497.286779
  0
LINE
  5
72
100
AcDbEntity
  8
1
  6
CONTINUOUS
 62
           3
100
AcDbLine
 10
1198.857661477276
 20
497.286779
 11
1215.610278098098
 21
497.286779
  0
LINE
  5
71
100
AcDbEntity
  8
1
  6
CONTINUOUS
 62
           3
100
AcDbLine
 10
1215.610278098098
 20
497.286779
 11
1219.946174335022
 21
514.983748696953
  0
LINE
  5
70
100
AcDbEntity
  8
1
  6
CONTINUOUS
 62
           3
100
AcDbLine
 10
1219.946174335022
 20
514.983748696953
 11
1209.475788946958
 21
514.983748696953
  0
LINE
  5
6F
100
AcDbEntity
  8
1
  6
CONTINUOUS
 62
           3
100
AcDbLine
 10
1209.475788946958
 20
514.983748696953
 11
1211.908707691971
 21
524.913711720838
  0
LINE
  5
6E
100
AcDbEntity
  8
1
  6
CONTINUOUS
 62
           3
100
AcDbLine
 10
1211.908707691971
 20
524.913711720838
 11
1222.379093079951
 21
524.913711720838
  0
LINE
  5
6D
100
AcDbEntity
  8
1
  6
CONTINUOUS
 62
           3
100
AcDbLine
 10
1222.379093079951
 20
524.913711720838
 11
1223.46306713911
 21
529.337954145079
  0
LINE
  5
6C
100
AcDbEntity
  8
1
  6
CONTINUOUS
 62
           3
100
AcDbLine
 10
1241.693902767118
 20
518.277348084413
 11
1244.403837915048
 21
529.337954145079
  0
LINE
  5
6B
100
AcDbEntity
  8
1
  6
CONTINUOUS
 62
           3
100
AcDbLine
 10
1244.403837915048
 20
529.337954145079
 11
1227.651221294327
 21
529.337954145079
  0
LINE
  5
6A
100
AcDbEntity
  8
1
  6
CONTINUOUS
 62
           3
100
AcDbLine
 10
1227.651221294327
 20
529.337954145079
 11
1219.798432253334
 21
497.286779
  0
LINE
  5
69
100
AcDbEntity
  8
1
  6
CONTINUOUS
 62
           3
100
AcDbLine
 10
1219.798432253334
 20
497.286779
 11
1236.551048874087
 21
497.286779
  0
LINE
  5
68
100
AcDbEntity
  8
1
  6
CONTINUOUS
 62
           3
100
AcDbLine
 10
1236.551048874087
 20
497.286779
 11
1239.260984022062
 21
508.347385060608
  0
LINE
  5
67
100
AcDbEntity
  8
1
  6
CONTINUOUS
 62
           3
100
AcDbLine
 10
1239.260984022062
 20
508.347385060608
 11
1232.978752789274
 21
508.347385060608
  0
LINE
  5
66
100
AcDbEntity
  8
1
  6
CONTINUOUS
 62
           3
100
AcDbLine
 10
1232.978752789274
 20
508.347385060608
 11
1231.352791700487
 21
501.711021424182
  0
LINE
  5
65
100
AcDbEntity
  8
1
  6
CONTINUOUS
 62
           3
100
AcDbLine
 10
1231.352791700487
 20
501.711021424182
 11
1227.164637545284
 21
501.711021424182
  0
LINE
  5
64
100
AcDbEntity
  8
1
  6
CONTINUOUS
 62
           3
100
AcDbLine
 10
1227.164637545284
 20
501.711021424182
 11
1232.849478467914
 21
524.913711720838
  0
LINE
  5
63
100
AcDbEntity
  8
1
  6
CONTINUOUS
 62
           3
100
AcDbLine
 10
1232.849478467914
 20
524.913711720838
 11
1237.037632623105
 21
524.913711720838
  0
LINE
  5
62
100
AcDbEntity
  8
1
  6
CONTINUOUS
 62
           3
100
AcDbLine
 10
1237.037632623105
 20
524.913711720838
 11
1235.411671534312
 21
518.277348084413
  0
LINE
  5
61
100
AcDbEntity
  8
1
  6
CONTINUOUS
 62
           3
100
AcDbLine
 10
1235.411671534312
 20
518.277348084413
 11
1241.693902767118
 21
518.277348084413
  0
LINE
  5
60
100
AcDbEntity
  8
1
  6
CONTINUOUS
 62
           3
100
AcDbLine
 10
1240.739203029269
 20
497.286779
 11
1247.021434262057
 21
497.286779
  0
LINE
  5
5F
100
AcDbEntity
  8
1
  6
CONTINUOUS
 62
           3
100
AcDbLine
 10
1257.491819650132
 20
497.286779
 11
1265.344608691147
 21
529.337954145079
  0
LINE
  5
5E
100
AcDbEntity
  8
1
  6
CONTINUOUS
 62
           3
100
AcDbLine
 10
1251.209588417235
 20
497.286779
 11
1254.59399590813
 21
511.100245360341
  0
LINE
  5
5D
100
AcDbEntity
  8
1
  6
CONTINUOUS
 62
           3
100
AcDbLine
 10
1247.021434262057
 20
497.286779
 11
1250.405841752942
 21
511.100245360341
  0
LINE
  5
5C
100
AcDbEntity
  8
1
  6
CONTINUOUS
 62
           3
100
AcDbLine
 10
1248.591992070262
 20
529.337954145079
 11
1240.739203029269
 21
497.286779
  0
LINE
  5
5B
100
AcDbEntity
  8
1
  6
CONTINUOUS
 62
           3
100
AcDbLine
 10
1265.344608691147
 20
529.337954145079
 11
1259.062377458231
 21
529.337954145079
  0
LINE
  5
5A
100
AcDbEntity
  8
1
  6
CONTINUOUS
 62
           3
100
AcDbLine
 10
1261.679973805258
 20
497.286779
 11
1278.432590426066
 21
497.286779
  0
LINE
  5
59
100
AcDbEntity
  8
1
  6
CONTINUOUS
 62
           3
100
AcDbLine
 10
1273.234333252364
 20
501.711021424182
 11
1269.046179097263
 21
501.711021424182
  0
LINE
  5
58
100
AcDbEntity
  8
1
  6
CONTINUOUS
 62
           3
100
AcDbLine
 10
1269.532762846255
 20
529.337954145079
 11
1261.679973805258
 21
497.286779
  0
LINE
  5
57
100
AcDbEntity
  8
1
  6
CONTINUOUS
 62
           3
100
AcDbLine
 10
1269.046179097263
 20
501.711021424182
 11
1274.731020019838
 21
524.913711720838
  0
LINE
  5
56
100
AcDbEntity
  8
1
  6
CONTINUOUS
 62
           3
100
AcDbLine
 10
1286.285379467085
 20
529.337954145079
 11
1269.532762846255
 21
529.337954145079
  0
LINE
  5
55
100
AcDbEntity
  8
1
  6
CONTINUOUS
 62
           3
100
AcDbLine
 10
1274.731020019838
 20
524.913711720838
 11
1278.919174175088
 21
524.913711720838
  0
LINE
  5
54
100
AcDbEntity
  8
1
  6
CONTINUOUS
 62
           3
100
AcDbLine
 10
1278.919174175088
 20
524.913711720838
 11
1273.234333252364
 21
501.711021424182
  0
LINE
  5
53
100
AcDbEntity
  8
1
  6
CONTINUOUS
 62
           3
100
AcDbLine
 10
1286.285379467085
 20
529.337954145079
 11
1278.432590426066
 21
497.286779
  0
LINE
  5
52
100
AcDbEntity
  8
1
  6
CONTINUOUS
 62
           3
100
AcDbLine
 10
1254.874223303127
 20
529.337954145079
 11
1248.591992070262
 21
529.337954145079
  0
LINE
  5
51
100
AcDbEntity
  8
1
  6
CONTINUOUS
 62
           3
100
AcDbLine
 10
1251.209588417235
 20
497.286779
 11
1257.491819650132
 21
497.286779
  0
LINE
  5
50
100
AcDbEntity
  8
1
  6
CONTINUOUS
 62
           3
100
AcDbLine
 10
1250.405841752942
 20
511.100245360341
 11
1254.59399590813
 21
511.100245360341
  0
LINE
  5
4F
100
AcDbEntity
  8
1
  6
CONTINUOUS
 62
           3
100
AcDbLine
 10
1251.489815812111
 20
515.524487784527
 11
1255.67796996735
 21
515.524487784527
  0
LINE
  5
4E
100
AcDbEntity
  8
1
  6
CONTINUOUS
 62
           3
100
AcDbLine
 10
1251.489815812111
 20
515.524487784527
 11
1254.874223303127
 21
529.337954145079
  0
LINE
  5
4D
100
AcDbEntity
  8
1
  6
CONTINUOUS
 62
           3
100
AcDbLine
 10
1255.67796996735
 20
515.524487784527
 11
1259.062377458231
 21
529.337954145079
  0
LINE
  5
4C
100
AcDbEntity
  8
1
  6
CONTINUOUS
 62
           3
100
AcDbLine
 10
1220.64694599868
 20
546.048983858331
 11
1219.914863229733
 21
545.265226872362
  0
LINE
  5
4B
100
AcDbEntity
  8
1
  6
CONTINUOUS
 62
           3
100
AcDbLine
 10
1220.210266317114
 20
544.266674810781
 11
1219.914863229733
 21
545.265226872362
  0
ENDBLK
  5
FF
100
AcDbEntity
  8
0
100
AcDbBlockEnd
  0
ENDSEC
  0
SECTION
  2
ENTITIES
  0
MTEXT
  5
103
100
AcDbEntity
  8
1
 62
           2
100
AcDbMText
 10
1335.211546000002
 20
407.286779
 30
0.0
 40
35.0
 41
0.0
 71
           9
 72
           1
  1
Prime-line 265
  7
CONVERTER_1
  0
TEXT
  5
102
100
AcDbEntity
  8
1
 62
           3
100
AcDbText
 10
424.99999999998
 20
339.24239148631
 40
35.0
  1
ø 52
 41
0.71262
  7
CONVERTER_1
100
AcDbText
  0
INSERT
  5
2E
100
AcDbEntity
  8
0
100
AcDbBlockReference
  2
WANNE_PRIME_LINE_265
 10
0.0
 20
0.0
  0
INSERT
  5
2F
100
AcDbEntity
  8
0
100
AcDbBlockReference
  2
DLX
 10
0.0
 20
0.0
  0
ENDSEC
  0
SECTION
  2
OBJECTS
  0
DICTIONARY
  5
19
100
AcDbDictionary
  3
ACAD_GROUP
350
1A
  3
ACAD_MLINESTYLE
350
1B
  0
DICTIONARY
  5
1A
102
{ACAD_REACTORS
330
19
102
}
100
AcDbDictionary
  0
DICTIONARY
  5
1B
102
{ACAD_REACTORS
330
19
102
}
100
AcDbDictionary
  3
STANDARD
350
1C
  0
MLINESTYLE
  5
1C
102
{ACAD_REACTORS
330
1B
102
}
100
AcDbMlineStyle
  2
STANDARD
 70
           0
  3

 62
           0
 51
90.0
 52
90.0
 71
           2
 49
0.5
 62
         256
  6
BYLAYER
 49
-0.5
 62
         256
  6
BYLAYER
  0
ENDSEC
  0
EOF
